ISO-10303-21;
HEADER;
FILE_DESCRIPTION (( 'STEP AP214' ),
    '1' );
FILE_NAME ('Micro_SBMM-100-272X.STEP',
    '2021-09-02T17:21:48',
    ( '' ),
    ( '' ),
    'SwSTEP 2.0',
    'SolidWorks 2020',
    '' );
FILE_SCHEMA (( 'AUTOMOTIVE_DESIGN' ));
ENDSEC;

DATA;
#1 = LINE ( 'NONE', #215, #38 ) ;
#2 = ADVANCED_FACE ( 'NONE', ( #205 ), #130, .T. ) ;
#3 = VERTEX_POINT ( 'NONE', #311 ) ;
#4 = AXIS2_PLACEMENT_3D ( 'NONE', #196, #198, #5 ) ;
#5 = DIRECTION ( 'NONE',  ( 1.000000000000000000, 0.0000000000000000000, 0.0000000000000000000 ) ) ;
#6 = DIMENSIONAL_EXPONENTS ( 1.000000000000000000, 0.0000000000000000000, 0.0000000000000000000, 0.0000000000000000000, 0.0000000000000000000, 0.0000000000000000000, 0.0000000000000000000 ) ;
#7 =( CONVERSION_BASED_UNIT ( 'INCH', #275 ) LENGTH_UNIT ( ) NAMED_UNIT ( #6 ) );
#8 = VECTOR ( 'NONE', #340, 39.37007874015748854 ) ;
#9 = PRESENTATION_LAYER_ASSIGNMENT (  '', '', ( #237 ) ) ;
#10 = CARTESIAN_POINT ( 'NONE',  ( 0.1968504999999999838, 2.410723347355560646E-17, 3.937007999999999619 ) ) ;
#11 = CARTESIAN_POINT ( 'NONE',  ( 0.1318899999999997574, 0.0000000000000000000, 2.165353999999999779 ) ) ;
#12 = DIRECTION ( 'NONE',  ( 0.1259126916184463429, 0.0000000000000000000, 0.9920413268051881950 ) ) ;
#13 = ADVANCED_FACE ( 'NONE', ( #104 ), #132, .T. ) ;
#14 = PRESENTATION_STYLE_ASSIGNMENT (( #303 ) ) ;
#15 = EDGE_CURVE ( 'NONE', #207, #85, #161, .T. ) ;
#16 = AXIS2_PLACEMENT_3D ( 'NONE', #264, #30, #79 ) ;
#17 = COLOUR_RGB ( '',0.7921568627450980005, 0.8196078431372548767, 0.9333333333333333481 ) ;
#18 = ORIENTED_EDGE ( 'NONE', *, *, #143, .F. ) ;
#19 = CARTESIAN_POINT ( 'NONE',  ( 0.0000000000000000000, 0.0000000000000000000, 0.3429833309002433550 ) ) ;
#20 = CARTESIAN_POINT ( 'NONE',  ( 1.615186663395443625E-17, -0.1318899999999999795, 0.3429833309002433550 ) ) ;
#21 = EDGE_LOOP ( 'NONE', ( #186, #230, #259, #18, #289 ) ) ;
#22 = ORIENTED_EDGE ( 'NONE', *, *, #29, .T. ) ;
#23 = EDGE_LOOP ( 'NONE', ( #118, #55, #258, #36 ) ) ;
#24 = DIMENSIONAL_EXPONENTS ( 1.000000000000000000, 0.0000000000000000000, 0.0000000000000000000, 0.0000000000000000000, 0.0000000000000000000, 0.0000000000000000000, 0.0000000000000000000 ) ;
#25 = AXIS2_PLACEMENT_3D ( 'NONE', #265, #62, #294 ) ;
#26 = VERTEX_POINT ( 'NONE', #111 ) ;
#27 = AXIS2_PLACEMENT_3D ( 'NONE', #19, #50, #257 ) ;
#28 = ORIENTED_EDGE ( 'NONE', *, *, #95, .T. ) ;
#29 = EDGE_CURVE ( 'NONE', #288, #152, #189, .T. ) ;
#30 = DIRECTION ( 'NONE',  ( -0.0000000000000000000, -0.0000000000000000000, -1.000000000000000000 ) ) ;
#31 = CARTESIAN_POINT ( 'NONE',  ( 0.0000000000000000000, 0.0000000000000000000, 2.165353999999999779 ) ) ;
#32 = EDGE_CURVE ( 'NONE', #3, #334, #336, .T. ) ;
#33 = DIRECTION ( 'NONE',  ( -0.0000000000000000000, -0.0000000000000000000, -1.000000000000000000 ) ) ;
#34 = AXIS2_PLACEMENT_3D ( 'NONE', #51, #137, #240 ) ;
#35 = CARTESIAN_POINT ( 'NONE',  ( 0.0000000000000000000, 0.0000000000000000000, 2.832259636364403033 ) ) ;
#36 = ORIENTED_EDGE ( 'NONE', *, *, #269, .T. ) ;
#37 = DIRECTION ( 'NONE',  ( 0.0000000000000000000, 0.0000000000000000000, 1.000000000000000000 ) ) ;
#38 = VECTOR ( 'NONE', #194, 39.37007874015748143 ) ;
#39 =( NAMED_UNIT ( * ) SI_UNIT ( $, .STERADIAN. ) SOLID_ANGLE_UNIT ( ) );
#40 = APPLICATION_PROTOCOL_DEFINITION ( 'draft international standard', 'automotive_design', 1998, #339 ) ;
#41 = CARTESIAN_POINT ( 'NONE',  ( 0.1818504999999994431, 2.318874837419505661E-17, 3.937007999999999619 ) ) ;
#42 = CIRCLE ( 'NONE', #16, 0.1318899999999999517 ) ;
#43 = DIRECTION ( 'NONE',  ( 1.000000000000000000, 0.0000000000000000000, 0.0000000000000000000 ) ) ;
#44 = AXIS2_PLACEMENT_3D ( 'NONE', #281, #98, #155 ) ;
#45 = VECTOR ( 'NONE', #164, 39.37007874015748143 ) ;
#46 = DIRECTION ( 'NONE',  ( -1.000000000000000000, 0.0000000000000000000, 0.0000000000000000000 ) ) ;
#47 = SURFACE_STYLE_USAGE ( .BOTH. , #120 ) ;
#48 = CARTESIAN_POINT ( 'NONE',  ( -0.1818504999999994431, 0.0000000000000000000, 3.937007999999999619 ) ) ;
#49 = CARTESIAN_POINT ( 'NONE',  ( 0.0000000000000000000, 0.0000000000000000000, 0.0000000000000000000 ) ) ;
#50 = DIRECTION ( 'NONE',  ( -0.0000000000000000000, -0.0000000000000000000, -1.000000000000000000 ) ) ;
#51 = CARTESIAN_POINT ( 'NONE',  ( 0.0000000000000000000, 0.0000000000000000000, 3.937007999999999619 ) ) ;
#52 = ADVANCED_BREP_SHAPE_REPRESENTATION ( 'Micro_SBMM-100-272X', ( #192, #4 ), #256 ) ;
#53 = ORIENTED_EDGE ( 'NONE', *, *, #29, .F. ) ;
#54 = ORIENTED_EDGE ( 'NONE', *, *, #91, .F. ) ;
#55 = ORIENTED_EDGE ( 'NONE', *, *, #143, .T. ) ;
#56 = ORIENTED_EDGE ( 'NONE', *, *, #274, .T. ) ;
#57 = AXIS2_PLACEMENT_3D ( 'NONE', #117, #316, #243 ) ;
#58 = DIRECTION ( 'NONE',  ( -1.000000000000000000, 0.0000000000000000000, 0.0000000000000000000 ) ) ;
#59 = FILL_AREA_STYLE_COLOUR ( '', #17 ) ;
#60 = EDGE_CURVE ( 'NONE', #26, #128, #42, .T. ) ;
#61 = DIRECTION ( 'NONE',  ( 1.000000000000000000, 1.224646799147353207E-16, -0.0000000000000000000 ) ) ;
#62 = DIRECTION ( 'NONE',  ( -0.0000000000000000000, -0.0000000000000000000, -1.000000000000000000 ) ) ;
#63 = EDGE_LOOP ( 'NONE', ( #135, #54, #82, #183 ) ) ;
#64 = PLANE ( 'NONE',  #279 ) ;
#65 = ORIENTED_EDGE ( 'NONE', *, *, #60, .F. ) ;
#66 = EDGE_CURVE ( 'NONE', #334, #3, #168, .T. ) ;
#67 = CONICAL_SURFACE ( 'NONE', #273, 0.2165355499999996880, 0.1262477912956223025 ) ;
#68 = DIRECTION ( 'NONE',  ( 0.0000000000000000000, 0.0000000000000000000, 1.000000000000000000 ) ) ;
#69 = FACE_OUTER_BOUND ( 'NONE', #23, .T. ) ;
#70 = LENGTH_MEASURE_WITH_UNIT ( LENGTH_MEASURE( 0.02539999999999999897 ), #231 );
#71 = AXIS2_PLACEMENT_3D ( 'NONE', #31, #92, #214 ) ;
#72 =( LENGTH_UNIT ( ) NAMED_UNIT ( * ) SI_UNIT ( $, .METRE. ) );
#73 = AXIS2_PLACEMENT_3D ( 'NONE', #172, #174, #302 ) ;
#74 = APPLICATION_CONTEXT ( 'automotive_design' ) ;
#75 = DIRECTION ( 'NONE',  ( 0.0000000000000000000, 0.0000000000000000000, 1.000000000000000000 ) ) ;
#76 = VERTEX_POINT ( 'NONE', #20 ) ;
#77 = EDGE_CURVE ( 'NONE', #334, #152, #206, .T. ) ;
#78 = SURFACE_SIDE_STYLE ('',( #222 ) ) ;
#79 = DIRECTION ( 'NONE',  ( -1.000000000000000000, 0.0000000000000000000, 0.0000000000000000000 ) ) ;
#80 = DIRECTION ( 'NONE',  ( -0.0000000000000000000, -0.0000000000000000000, -1.000000000000000000 ) ) ;
#81 = CIRCLE ( 'NONE', #71, 0.1318899999999997574 ) ;
#82 = ORIENTED_EDGE ( 'NONE', *, *, #213, .T. ) ;
#83 = VERTEX_POINT ( 'NONE', #191 ) ;
#84 = ADVANCED_FACE ( 'NONE', ( #87 ), #211, .T. ) ;
#85 = VERTEX_POINT ( 'NONE', #295 ) ;
#86 = DIRECTION ( 'NONE',  ( 1.000000000000000000, 0.0000000000000000000, 0.0000000000000000000 ) ) ;
#87 = FACE_OUTER_BOUND ( 'NONE', #232, .T. ) ;
#88 = LINE ( 'NONE', #190, #45 ) ;
#89 = ADVANCED_FACE ( 'NONE', ( #162 ), #163, .T. ) ;
#90 = CARTESIAN_POINT ( 'NONE',  ( 0.0000000000000000000, 0.0000000000000000000, 0.0000000000000000000 ) ) ;
#91 = EDGE_CURVE ( 'NONE', #290, #207, #81, .T. ) ;
#92 = DIRECTION ( 'NONE',  ( -0.0000000000000000000, -0.0000000000000000000, -1.000000000000000000 ) ) ;
#93 = AXIS2_PLACEMENT_3D ( 'NONE', #35, #313, #113 ) ;
#94 = VECTOR ( 'NONE', #12, 39.37007874015748854 ) ;
#95 = EDGE_CURVE ( 'NONE', #116, #85, #121, .T. ) ;
#96 =( LENGTH_UNIT ( ) NAMED_UNIT ( * ) SI_UNIT ( $, .METRE. ) );
#97 = CARTESIAN_POINT ( 'NONE',  ( 0.0000000000000000000, 0.0000000000000000000, 3.922007999999999051 ) ) ;
#98 = DIRECTION ( 'NONE',  ( 0.0000000000000000000, 0.0000000000000000000, -1.000000000000000000 ) ) ;
#99 = FILL_AREA_STYLE_COLOUR ( '', #109 ) ;
#100 = DIRECTION ( 'NONE',  ( -0.0000000000000000000, -0.0000000000000000000, -1.000000000000000000 ) ) ;
#101 = CARTESIAN_POINT ( 'NONE',  ( 0.1318899999999998407, 1.615186663395442393E-17, 0.0000000000000000000 ) ) ;
#102 = CIRCLE ( 'NONE', #315, 0.1318899999999999517 ) ;
#103 =( NAMED_UNIT ( * ) PLANE_ANGLE_UNIT ( ) SI_UNIT ( $, .RADIAN. ) );
#104 = FACE_OUTER_BOUND ( 'NONE', #107, .T. ) ;
#105 = CYLINDRICAL_SURFACE ( 'NONE', #175, 0.1968504999999999838 ) ;
#106 = CARTESIAN_POINT ( 'NONE',  ( 0.0000000000000000000, 0.0000000000000000000, 3.937007999999999619 ) ) ;
#107 = EDGE_LOOP ( 'NONE', ( #187, #131, #244, #112 ) ) ;
#108 = VECTOR ( 'NONE', #342, 39.37007874015748143 ) ;
#109 = COLOUR_RGB ( '',0.7921568627450980005, 0.8196078431372548767, 0.9333333333333333481 ) ;
#110 = ORIENTED_EDGE ( 'NONE', *, *, #148, .F. ) ;
#111 = CARTESIAN_POINT ( 'NONE',  ( 0.0000000000000000000, 0.1318899999999999795, 0.3429833309002433550 ) ) ;
#112 = ORIENTED_EDGE ( 'NONE', *, *, #274, .F. ) ;
#113 = DIRECTION ( 'NONE',  ( 1.000000000000000000, 0.0000000000000000000, 0.0000000000000000000 ) ) ;
#114 = MECHANICAL_DESIGN_GEOMETRIC_PRESENTATION_REPRESENTATION (  '', ( #293 ), #337 ) ;
#115 = DIRECTION ( 'NONE',  ( -1.224646799147353207E-16, 1.000000000000000000, 0.0000000000000000000 ) ) ;
#116 = VERTEX_POINT ( 'NONE', #343 ) ;
#117 = CARTESIAN_POINT ( 'NONE',  ( 0.0000000000000000000, 0.0000000000000000000, 0.3429833309002433550 ) ) ;
#118 = ORIENTED_EDGE ( 'NONE', *, *, #125, .F. ) ;
#119 = CIRCLE ( 'NONE', #227, 0.1968504999999999838 ) ;
#120 = SURFACE_SIDE_STYLE ('',( #304 ) ) ;
#121 = CIRCLE ( 'NONE', #309, 0.1968504999999999838 ) ;
#122 = CIRCLE ( 'NONE', #218, 0.1968504999999999838 ) ;
#123 = DIRECTION ( 'NONE',  ( -0.7071067811865419106, 0.0000000000000000000, -0.7071067811865531239 ) ) ;
#124 = LINE ( 'NONE', #48, #263 ) ;
#125 = EDGE_CURVE ( 'NONE', #76, #142, #261, .T. ) ;
#126 = SPHERICAL_SURFACE ( 'NONE', #324, 0.1968500000000000250 ) ;
#127 = EDGE_LOOP ( 'NONE', ( #156, #145, #291, #298 ) ) ;
#128 = VERTEX_POINT ( 'NONE', #138 ) ;
#129 = DIMENSIONAL_EXPONENTS ( 1.000000000000000000, 0.0000000000000000000, 0.0000000000000000000, 0.0000000000000000000, 0.0000000000000000000, 0.0000000000000000000, 0.0000000000000000000 ) ;
#130 = CYLINDRICAL_SURFACE ( 'NONE', #146, 0.1318899999999998407 ) ;
#131 = ORIENTED_EDGE ( 'NONE', *, *, #32, .F. ) ;
#132 = CONICAL_SURFACE ( 'NONE', #180, 0.1818504999999994431, 0.7853981633974403964 ) ;
#133 = CIRCLE ( 'NONE', #27, 0.1318899999999999517 ) ;
#134 = DIRECTION ( 'NONE',  ( -1.000000000000000000, 0.0000000000000000000, 0.0000000000000000000 ) ) ;
#135 = ORIENTED_EDGE ( 'NONE', *, *, #15, .F. ) ;
#136 = ADVANCED_FACE ( 'NONE', ( #241 ), #266, .T. ) ;
#137 = DIRECTION ( 'NONE',  ( 0.0000000000000000000, 0.0000000000000000000, 1.000000000000000000 ) ) ;
#138 = CARTESIAN_POINT ( 'NONE',  ( 0.1318899999999999240, 1.615186663395443317E-17, 0.3429833309002433550 ) ) ;
#139 = DIRECTION ( 'NONE',  ( 0.0000000000000000000, 0.0000000000000000000, 1.000000000000000000 ) ) ;
#140 = EDGE_CURVE ( 'NONE', #207, #290, #159, .T. ) ;
#141 = CARTESIAN_POINT ( 'NONE',  ( 0.0000000000000000000, 1.205358612060782468E-17, 0.0000000000000000000 ) ) ;
#142 = VERTEX_POINT ( 'NONE', #141 ) ;
#143 = EDGE_CURVE ( 'NONE', #76, #83, #202, .T. ) ;
#144 = DIRECTION ( 'NONE',  ( 1.000000000000000000, 0.0000000000000000000, -0.0000000000000000000 ) ) ;
#145 = ORIENTED_EDGE ( 'NONE', *, *, #245, .T. ) ;
#146 = AXIS2_PLACEMENT_3D ( 'NONE', #49, #260, #134 ) ;
#147 = AXIS2_PLACEMENT_3D ( 'NONE', #246, #276, #68 ) ;
#148 = EDGE_CURVE ( 'NONE', #288, #85, #88, .T. ) ;
#149 = AXIS2_PLACEMENT_3D ( 'NONE', #90, #212, #193 ) ;
#150 = PRESENTATION_STYLE_ASSIGNMENT (( #47 ) ) ;
#151 = CARTESIAN_POINT ( 'NONE',  ( 0.0000000000000000000, 0.0000000000000000000, 0.3429833309002433550 ) ) ;
#152 = VERTEX_POINT ( 'NONE', #268 ) ;
#153 = LINE ( 'NONE', #306, #94 ) ;
#154 = ORIENTED_EDGE ( 'NONE', *, *, #287, .T. ) ;
#155 = DIRECTION ( 'NONE',  ( -1.000000000000000000, 0.0000000000000000000, 0.0000000000000000000 ) ) ;
#156 = ORIENTED_EDGE ( 'NONE', *, *, #60, .T. ) ;
#157 = PRODUCT_DEFINITION_SHAPE ( 'NONE', 'NONE',  #272 ) ;
#158 = ORIENTED_EDGE ( 'NONE', *, *, #213, .F. ) ;
#159 = CIRCLE ( 'NONE', #251, 0.1318899999999997574 ) ;
#160 = PRESENTATION_LAYER_ASSIGNMENT (  '', '', ( #293 ) ) ;
#161 = LINE ( 'NONE', #308, #8 ) ;
#162 = FACE_OUTER_BOUND ( 'NONE', #184, .T. ) ;
#163 = CYLINDRICAL_SURFACE ( 'NONE', #25, 0.1968504999999999838 ) ;
#164 = DIRECTION ( 'NONE',  ( -0.0000000000000000000, -0.0000000000000000000, -1.000000000000000000 ) ) ;
#165 = ORIENTED_EDGE ( 'NONE', *, *, #229, .F. ) ;
#166 = DIRECTION ( 'NONE',  ( 1.000000000000000000, 0.0000000000000000000, 0.0000000000000000000 ) ) ;
#167 = ORIENTED_EDGE ( 'NONE', *, *, #220, .T. ) ;
#168 = CIRCLE ( 'NONE', #34, 0.1818504999999994431 ) ;
#169 = MECHANICAL_DESIGN_GEOMETRIC_PRESENTATION_REPRESENTATION (  '', ( #237 ), #319 ) ;
#170 = EDGE_CURVE ( 'NONE', #207, #83, #1, .T. ) ;
#171 = DIRECTION ( 'NONE',  ( 1.000000000000000000, 0.0000000000000000000, 0.0000000000000000000 ) ) ;
#172 = CARTESIAN_POINT ( 'NONE',  ( 0.0000000000000000000, 0.0000000000000000000, 0.1968500000000000250 ) ) ;
#173 = CARTESIAN_POINT ( 'NONE',  ( 0.0000000000000000000, 0.0000000000000000000, 2.832259636364403033 ) ) ;
#174 = DIRECTION ( 'NONE',  ( 1.000000000000000000, 0.0000000000000000000, 0.0000000000000000000 ) ) ;
#175 = AXIS2_PLACEMENT_3D ( 'NONE', #177, #200, #179 ) ;
#176 = ORIENTED_EDGE ( 'NONE', *, *, #32, .T. ) ;
#177 = CARTESIAN_POINT ( 'NONE',  ( 0.0000000000000000000, 0.0000000000000000000, 3.937007999999999619 ) ) ;
#178 = ORIENTED_EDGE ( 'NONE', *, *, #148, .T. ) ;
#179 = DIRECTION ( 'NONE',  ( -1.000000000000000000, 0.0000000000000000000, 0.0000000000000000000 ) ) ;
#180 = AXIS2_PLACEMENT_3D ( 'NONE', #235, #238, #58 ) ;
#181 = ADVANCED_FACE ( 'NONE', ( #297 ), #64, .T. ) ;
#182 = VECTOR ( 'NONE', #322, 39.37007874015748143 ) ;
#183 = ORIENTED_EDGE ( 'NONE', *, *, #345, .F. ) ;
#184 = EDGE_LOOP ( 'NONE', ( #262, #56, #178, #292 ) ) ;
#185 = UNCERTAINTY_MEASURE_WITH_UNIT (LENGTH_MEASURE( 1.000000000000000082E-05 ), #333, 'distance_accuracy_value', 'NONE');
#186 = ORIENTED_EDGE ( 'NONE', *, *, #287, .F. ) ;
#187 = ORIENTED_EDGE ( 'NONE', *, *, #77, .F. ) ;
#188 = ORIENTED_EDGE ( 'NONE', *, *, #77, .T. ) ;
#189 = CIRCLE ( 'NONE', #226, 0.1968504999999999838 ) ;
#190 = CARTESIAN_POINT ( 'NONE',  ( -0.1968504999999999838, 0.0000000000000000000, 3.937007999999999619 ) ) ;
#191 = CARTESIAN_POINT ( 'NONE',  ( -0.1318899999999999240, 0.0000000000000000000, 0.3429833309002433550 ) ) ;
#192 = MANIFOLD_SOLID_BREP ( 'Cut-Revolve3', #323 ) ;
#193 = DIRECTION ( 'NONE',  ( -1.000000000000000000, 0.0000000000000000000, 0.0000000000000000000 ) ) ;
#194 = DIRECTION ( 'NONE',  ( -0.0000000000000000000, -0.0000000000000000000, -1.000000000000000000 ) ) ;
#195 = ORIENTED_EDGE ( 'NONE', *, *, #140, .T. ) ;
#196 = CARTESIAN_POINT ( 'NONE',  ( 0.0000000000000000000, 0.0000000000000000000, 0.0000000000000000000 ) ) ;
#197 = ADVANCED_FACE ( 'NONE', ( #283 ), #285, .T. ) ;
#198 = DIRECTION ( 'NONE',  ( 0.0000000000000000000, 0.0000000000000000000, 1.000000000000000000 ) ) ;
#199 = CARTESIAN_POINT ( 'NONE',  ( -0.1968504999999999838, 0.0000000000000000000, 3.922007999999999051 ) ) ;
#200 = DIRECTION ( 'NONE',  ( -0.0000000000000000000, -0.0000000000000000000, -1.000000000000000000 ) ) ;
#201 = FILL_AREA_STYLE ('',( #99 ) ) ;
#202 = CIRCLE ( 'NONE', #57, 0.1318899999999999517 ) ;
#203 = CARTESIAN_POINT ( 'NONE',  ( -0.1318899999999997574, 2.012955005375500749E-17, 2.165353999999999779 ) ) ;
#204 =( NAMED_UNIT ( * ) PLANE_ANGLE_UNIT ( ) SI_UNIT ( $, .RADIAN. ) );
#205 = FACE_OUTER_BOUND ( 'NONE', #21, .T. ) ;
#206 = LINE ( 'NONE', #341, #108 ) ;
#207 = VERTEX_POINT ( 'NONE', #203 ) ;
#208 = DIRECTION ( 'NONE',  ( 0.0000000000000000000, 0.0000000000000000000, -1.000000000000000000 ) ) ;
#209 = PRODUCT_RELATED_PRODUCT_CATEGORY ( 'part', '', ( #236 ) ) ;
#210 = EDGE_LOOP ( 'NONE', ( #22, #167, #28, #110 ) ) ;
#211 = CONICAL_SURFACE ( 'NONE', #93, 0.2165355499999996880, 0.1262477912956223025 ) ;
#212 = DIRECTION ( 'NONE',  ( -0.0000000000000000000, -0.0000000000000000000, -1.000000000000000000 ) ) ;
#213 = EDGE_CURVE ( 'NONE', #290, #116, #153, .T. ) ;
#214 = DIRECTION ( 'NONE',  ( -1.000000000000000000, 0.0000000000000000000, 0.0000000000000000000 ) ) ;
#215 = CARTESIAN_POINT ( 'NONE',  ( -0.1318899999999998407, 0.0000000000000000000, 0.0000000000000000000 ) ) ;
#216 = ORIENTED_EDGE ( 'NONE', *, *, #140, .F. ) ;
#217 = AXIS2_PLACEMENT_3D ( 'NONE', #242, #61, #115 ) ;
#218 = AXIS2_PLACEMENT_3D ( 'NONE', #97, #221, #43 ) ;
#219 = ADVANCED_FACE ( 'NONE', ( #280 ), #105, .T. ) ;
#220 = EDGE_CURVE ( 'NONE', #152, #116, #223, .T. ) ;
#221 = DIRECTION ( 'NONE',  ( 0.0000000000000000000, 0.0000000000000000000, -1.000000000000000000 ) ) ;
#222 = SURFACE_STYLE_FILL_AREA ( #252 ) ;
#223 = LINE ( 'NONE', #10, #249 ) ;
#224 = LENGTH_MEASURE_WITH_UNIT ( LENGTH_MEASURE( 0.02539999999999999897 ), #96 );
#225 = EDGE_CURVE ( 'NONE', #83, #26, #133, .T. ) ;
#226 = AXIS2_PLACEMENT_3D ( 'NONE', #331, #208, #312 ) ;
#227 = AXIS2_PLACEMENT_3D ( 'NONE', #325, #75, #171 ) ;
#228 = DIRECTION ( 'NONE',  ( 1.000000000000000000, 0.0000000000000000000, 0.0000000000000000000 ) ) ;
#229 = EDGE_CURVE ( 'NONE', #3, #288, #124, .T. ) ;
#230 = ORIENTED_EDGE ( 'NONE', *, *, #91, .T. ) ;
#231 =( LENGTH_UNIT ( ) NAMED_UNIT ( * ) SI_UNIT ( $, .METRE. ) );
#232 = EDGE_LOOP ( 'NONE', ( #216, #282, #344, #158 ) ) ;
#233 = EDGE_LOOP ( 'NONE', ( #239, #188, #53, #165 ) ) ;
#234 = UNCERTAINTY_MEASURE_WITH_UNIT (LENGTH_MEASURE( 1.000000000000000082E-05 ), #328, 'distance_accuracy_value', 'NONE');
#235 = CARTESIAN_POINT ( 'NONE',  ( 0.0000000000000000000, 0.0000000000000000000, 3.937007999999999619 ) ) ;
#236 = PRODUCT ( 'Micro_SBMM-100-272X', 'Micro_SBMM-100-272X', '', ( #321 ) ) ;
#237 = STYLED_ITEM ( 'NONE', ( #14 ), #192 ) ;
#238 = DIRECTION ( 'NONE',  ( 0.0000000000000000000, 0.0000000000000000000, -1.000000000000000000 ) ) ;
#239 = ORIENTED_EDGE ( 'NONE', *, *, #66, .F. ) ;
#240 = DIRECTION ( 'NONE',  ( 1.000000000000000000, 0.0000000000000000000, 0.0000000000000000000 ) ) ;
#241 = FACE_OUTER_BOUND ( 'NONE', #255, .T. ) ;
#242 = CARTESIAN_POINT ( 'NONE',  ( 0.0000000000000000000, 0.0000000000000000000, 0.1968500000000000250 ) ) ;
#243 = DIRECTION ( 'NONE',  ( -1.000000000000000000, 0.0000000000000000000, 0.0000000000000000000 ) ) ;
#244 = ORIENTED_EDGE ( 'NONE', *, *, #229, .T. ) ;
#245 = EDGE_CURVE ( 'NONE', #128, #76, #102, .T. ) ;
#246 = CARTESIAN_POINT ( 'NONE',  ( 0.0000000000000000000, 0.0000000000000000000, 0.1968500000000000250 ) ) ;
#247 = ADVANCED_FACE ( 'NONE', ( #254 ), #126, .T. ) ;
#248 =( NAMED_UNIT ( * ) PLANE_ANGLE_UNIT ( ) SI_UNIT ( $, .RADIAN. ) );
#249 = VECTOR ( 'NONE', #100, 39.37007874015748143 ) ;
#250 = ADVANCED_FACE ( 'NONE', ( #286 ), #67, .T. ) ;
#251 = AXIS2_PLACEMENT_3D ( 'NONE', #318, #33, #296 ) ;
#252 = FILL_AREA_STYLE ('',( #59 ) ) ;
#253 = CARTESIAN_POINT ( 'NONE',  ( 0.0000000000000000000, 0.0000000000000000000, 0.1968500000000000250 ) ) ;
#254 = FACE_OUTER_BOUND ( 'NONE', #127, .T. ) ;
#255 = EDGE_LOOP ( 'NONE', ( #195, #154, #65, #335, #271 ) ) ;
#256 =( GEOMETRIC_REPRESENTATION_CONTEXT ( 3 ) GLOBAL_UNCERTAINTY_ASSIGNED_CONTEXT ( ( #310 ) ) GLOBAL_UNIT_ASSIGNED_CONTEXT ( ( #7, #204, #278 ) ) REPRESENTATION_CONTEXT ( 'NONE', 'WORKASPACE' ) );
#257 = DIRECTION ( 'NONE',  ( -1.000000000000000000, 0.0000000000000000000, 0.0000000000000000000 ) ) ;
#258 = ORIENTED_EDGE ( 'NONE', *, *, #225, .T. ) ;
#259 = ORIENTED_EDGE ( 'NONE', *, *, #170, .T. ) ;
#260 = DIRECTION ( 'NONE',  ( -0.0000000000000000000, -0.0000000000000000000, -1.000000000000000000 ) ) ;
#261 = CIRCLE ( 'NONE', #217, 0.1968500000000000250 ) ;
#262 = ORIENTED_EDGE ( 'NONE', *, *, #220, .F. ) ;
#263 = VECTOR ( 'NONE', #123, 39.37007874015748143 ) ;
#264 = CARTESIAN_POINT ( 'NONE',  ( 0.0000000000000000000, 0.0000000000000000000, 0.3429833309002433550 ) ) ;
#265 = CARTESIAN_POINT ( 'NONE',  ( 0.0000000000000000000, 0.0000000000000000000, 3.937007999999999619 ) ) ;
#266 = CYLINDRICAL_SURFACE ( 'NONE', #149, 0.1318899999999998407 ) ;
#267 = CIRCLE ( 'NONE', #147, 0.1968500000000000250 ) ;
#268 = CARTESIAN_POINT ( 'NONE',  ( 0.1968504999999999838, 2.410723347355560646E-17, 3.922007999999999051 ) ) ;
#269 = EDGE_CURVE ( 'NONE', #26, #142, #267, .T. ) ;
#270 = CARTESIAN_POINT ( 'NONE',  ( 0.0000000000000000000, 0.0000000000000000000, 3.937007999999999619 ) ) ;
#271 = ORIENTED_EDGE ( 'NONE', *, *, #170, .F. ) ;
#272 = PRODUCT_DEFINITION ( 'UNKNOWN', '', #329, #305 ) ;
#273 = AXIS2_PLACEMENT_3D ( 'NONE', #173, #277, #326 ) ;
#274 = EDGE_CURVE ( 'NONE', #152, #288, #122, .T. ) ;
#275 = LENGTH_MEASURE_WITH_UNIT ( LENGTH_MEASURE( 0.02539999999999999897 ), #72 );
#276 = DIRECTION ( 'NONE',  ( -1.000000000000000000, 0.0000000000000000000, 0.0000000000000000000 ) ) ;
#277 = DIRECTION ( 'NONE',  ( 0.0000000000000000000, 0.0000000000000000000, 1.000000000000000000 ) ) ;
#278 =( NAMED_UNIT ( * ) SI_UNIT ( $, .STERADIAN. ) SOLID_ANGLE_UNIT ( ) );
#279 = AXIS2_PLACEMENT_3D ( 'NONE', #270, #37, #144 ) ;
#280 = FACE_OUTER_BOUND ( 'NONE', #210, .T. ) ;
#281 = CARTESIAN_POINT ( 'NONE',  ( 0.0000000000000000000, 0.0000000000000000000, 3.937007999999999619 ) ) ;
#282 = ORIENTED_EDGE ( 'NONE', *, *, #15, .T. ) ;
#283 = FACE_OUTER_BOUND ( 'NONE', #233, .T. ) ;
#284 = ORIENTED_EDGE ( 'NONE', *, *, #66, .T. ) ;
#285 = CONICAL_SURFACE ( 'NONE', #44, 0.1818504999999994431, 0.7853981633974403964 ) ;
#286 = FACE_OUTER_BOUND ( 'NONE', #63, .T. ) ;
#287 = EDGE_CURVE ( 'NONE', #290, #128, #300, .T. ) ;
#288 = VERTEX_POINT ( 'NONE', #199 ) ;
#289 = ORIENTED_EDGE ( 'NONE', *, *, #245, .F. ) ;
#290 = VERTEX_POINT ( 'NONE', #11 ) ;
#291 = ORIENTED_EDGE ( 'NONE', *, *, #125, .T. ) ;
#292 = ORIENTED_EDGE ( 'NONE', *, *, #345, .T. ) ;
#293 = STYLED_ITEM ( 'NONE', ( #150 ), #52 ) ;
#294 = DIRECTION ( 'NONE',  ( -1.000000000000000000, 0.0000000000000000000, 0.0000000000000000000 ) ) ;
#295 = CARTESIAN_POINT ( 'NONE',  ( -0.1968504999999999838, 0.0000000000000000000, 2.677165000000000017 ) ) ;
#296 = DIRECTION ( 'NONE',  ( -1.000000000000000000, 0.0000000000000000000, 0.0000000000000000000 ) ) ;
#297 = FACE_OUTER_BOUND ( 'NONE', #338, .T. ) ;
#298 = ORIENTED_EDGE ( 'NONE', *, *, #269, .F. ) ;
#299 = APPLICATION_PROTOCOL_DEFINITION ( 'draft international standard', 'automotive_design', 1998, #74 ) ;
#300 = LINE ( 'NONE', #101, #182 ) ;
#301 = SPHERICAL_SURFACE ( 'NONE', #73, 0.1968500000000000250 ) ;
#302 = DIRECTION ( 'NONE',  ( 0.0000000000000000000, 1.000000000000000000, 0.0000000000000000000 ) ) ;
#303 = SURFACE_STYLE_USAGE ( .BOTH. , #78 ) ;
#304 = SURFACE_STYLE_FILL_AREA ( #201 ) ;
#305 = PRODUCT_DEFINITION_CONTEXT ( 'detailed design', #339, 'design' ) ;
#306 = CARTESIAN_POINT ( 'NONE',  ( 0.2165355499999996880, 0.0000000000000000000, 2.832259636364403033 ) ) ;
#307 = DIRECTION ( 'NONE',  ( 0.0000000000000000000, 0.0000000000000000000, 1.000000000000000000 ) ) ;
#308 = CARTESIAN_POINT ( 'NONE',  ( -0.2165355499999996880, 2.651795682091112828E-17, 2.832259636364403033 ) ) ;
#309 = AXIS2_PLACEMENT_3D ( 'NONE', #317, #139, #166 ) ;
#310 = UNCERTAINTY_MEASURE_WITH_UNIT (LENGTH_MEASURE( 1.000000000000000082E-05 ), #7, 'distance_accuracy_value', 'NONE');
#311 = CARTESIAN_POINT ( 'NONE',  ( -0.1818504999999994431, 0.0000000000000000000, 3.937007999999999619 ) ) ;
#312 = DIRECTION ( 'NONE',  ( 1.000000000000000000, 0.0000000000000000000, 0.0000000000000000000 ) ) ;
#313 = DIRECTION ( 'NONE',  ( 0.0000000000000000000, 0.0000000000000000000, 1.000000000000000000 ) ) ;
#314 = AXIS2_PLACEMENT_3D ( 'NONE', #106, #307, #86 ) ;
#315 = AXIS2_PLACEMENT_3D ( 'NONE', #151, #80, #46 ) ;
#316 = DIRECTION ( 'NONE',  ( -0.0000000000000000000, -0.0000000000000000000, -1.000000000000000000 ) ) ;
#317 = CARTESIAN_POINT ( 'NONE',  ( 0.0000000000000000000, 0.0000000000000000000, 2.677165000000000017 ) ) ;
#318 = CARTESIAN_POINT ( 'NONE',  ( 0.0000000000000000000, 0.0000000000000000000, 2.165353999999999779 ) ) ;
#319 =( GEOMETRIC_REPRESENTATION_CONTEXT ( 3 ) GLOBAL_UNCERTAINTY_ASSIGNED_CONTEXT ( ( #185 ) ) GLOBAL_UNIT_ASSIGNED_CONTEXT ( ( #333, #103, #327 ) ) REPRESENTATION_CONTEXT ( 'NONE', 'WORKASPACE' ) );
#320 = SHAPE_DEFINITION_REPRESENTATION ( #157, #52 ) ;
#321 = PRODUCT_CONTEXT ( 'NONE', #74, 'mechanical' ) ;
#322 = DIRECTION ( 'NONE',  ( -0.0000000000000000000, -0.0000000000000000000, -1.000000000000000000 ) ) ;
#323 = CLOSED_SHELL ( 'NONE', ( #136, #247, #84, #197, #219, #89, #181, #13, #250, #332, #2 ) ) ;
#324 = AXIS2_PLACEMENT_3D ( 'NONE', #253, #228, #330 ) ;
#325 = CARTESIAN_POINT ( 'NONE',  ( 0.0000000000000000000, 0.0000000000000000000, 2.677165000000000017 ) ) ;
#326 = DIRECTION ( 'NONE',  ( 1.000000000000000000, 0.0000000000000000000, 0.0000000000000000000 ) ) ;
#327 =( NAMED_UNIT ( * ) SI_UNIT ( $, .STERADIAN. ) SOLID_ANGLE_UNIT ( ) );
#328 =( CONVERSION_BASED_UNIT ( 'INCH', #224 ) LENGTH_UNIT ( ) NAMED_UNIT ( #129 ) );
#329 = PRODUCT_DEFINITION_FORMATION_WITH_SPECIFIED_SOURCE ( 'ANY', '', #236, .NOT_KNOWN. ) ;
#330 = DIRECTION ( 'NONE',  ( 0.0000000000000000000, 1.000000000000000000, 0.0000000000000000000 ) ) ;
#331 = CARTESIAN_POINT ( 'NONE',  ( 0.0000000000000000000, 0.0000000000000000000, 3.922007999999999051 ) ) ;
#332 = ADVANCED_FACE ( 'NONE', ( #69 ), #301, .T. ) ;
#333 =( CONVERSION_BASED_UNIT ( 'INCH', #70 ) LENGTH_UNIT ( ) NAMED_UNIT ( #24 ) );
#334 = VERTEX_POINT ( 'NONE', #41 ) ;
#335 = ORIENTED_EDGE ( 'NONE', *, *, #225, .F. ) ;
#336 = CIRCLE ( 'NONE', #314, 0.1818504999999994431 ) ;
#337 =( GEOMETRIC_REPRESENTATION_CONTEXT ( 3 ) GLOBAL_UNCERTAINTY_ASSIGNED_CONTEXT ( ( #234 ) ) GLOBAL_UNIT_ASSIGNED_CONTEXT ( ( #328, #248, #39 ) ) REPRESENTATION_CONTEXT ( 'NONE', 'WORKASPACE' ) );
#338 = EDGE_LOOP ( 'NONE', ( #176, #284 ) ) ;
#339 = APPLICATION_CONTEXT ( 'automotive_design' ) ;
#340 = DIRECTION ( 'NONE',  ( -0.1259126916184463429, 1.541985747625580814E-17, 0.9920413268051881950 ) ) ;
#341 = CARTESIAN_POINT ( 'NONE',  ( 0.1818504999999994431, 2.227026327483450676E-17, 3.937007999999999619 ) ) ;
#342 = DIRECTION ( 'NONE',  ( 0.7071067811865419106, 8.659560562354863833E-17, -0.7071067811865531239 ) ) ;
#343 = CARTESIAN_POINT ( 'NONE',  ( 0.1968504999999999838, 2.410723347355560646E-17, 2.677165000000000017 ) ) ;
#344 = ORIENTED_EDGE ( 'NONE', *, *, #95, .F. ) ;
#345 = EDGE_CURVE ( 'NONE', #85, #116, #119, .T. ) ;
ENDSEC;
END-ISO-10303-21;
