ISO-10303-21;
HEADER;
FILE_DESCRIPTION (( 'STEP AP214' ),
    '1' );
FILE_NAME ('Micro_RTC-250-120.STEP',
    '2021-09-03T18:07:38',
    ( '' ),
    ( '' ),
    'SwSTEP 2.0',
    'SolidWorks 2020',
    '' );
FILE_SCHEMA (( 'AUTOMOTIVE_DESIGN' ));
ENDSEC;

DATA;
#1 = CARTESIAN_POINT ( 'NONE',  ( 0.0000000000000000000, 0.0000000000000000000, 0.0000000000000000000 ) ) ;
#2 = DIMENSIONAL_EXPONENTS ( 1.000000000000000000, 0.0000000000000000000, 0.0000000000000000000, 0.0000000000000000000, 0.0000000000000000000, 0.0000000000000000000, 0.0000000000000000000 ) ;
#3 = LINE ( 'NONE', #236, #168 ) ;
#4 = ORIENTED_EDGE ( 'NONE', *, *, #63, .T. ) ;
#5 = CARTESIAN_POINT ( 'NONE',  ( 0.0000000000000000000, 0.0000000000000000000, 2.485000000000000320 ) ) ;
#6 = ORIENTED_EDGE ( 'NONE', *, *, #203, .F. ) ;
#7 = FILL_AREA_STYLE_COLOUR ( '', #137 ) ;
#8 = SURFACE_SIDE_STYLE ('',( #140 ) ) ;
#9 = CARTESIAN_POINT ( 'NONE',  ( -0.1250000000000000000, 0.0000000000000000000, 0.4291858428704192763 ) ) ;
#10 = AXIS2_PLACEMENT_3D ( 'NONE', #144, #219, #60 ) ;
#11 = DIRECTION ( 'NONE',  ( 1.000000000000000000, 0.0000000000000000000, -0.0000000000000000000 ) ) ;
#12 =( NAMED_UNIT ( * ) SI_UNIT ( $, .STERADIAN. ) SOLID_ANGLE_UNIT ( ) );
#13 = AXIS2_PLACEMENT_3D ( 'NONE', #39, #166, #202 ) ;
#14 = VERTEX_POINT ( 'NONE', #176 ) ;
#15 = CONICAL_SURFACE ( 'NONE', #117, 0.1100000000000001948, 0.7853981633974517207 ) ;
#16 = ORIENTED_EDGE ( 'NONE', *, *, #142, .T. ) ;
#17 = ORIENTED_EDGE ( 'NONE', *, *, #128, .F. ) ;
#18 = DIRECTION ( 'NONE',  ( 0.2588190451025216832, 0.0000000000000000000, 0.9659258262890679791 ) ) ;
#19 = ADVANCED_FACE ( 'NONE', ( #72 ), #147, .T. ) ;
#20 = CARTESIAN_POINT ( 'NONE',  ( 0.1250000000000000000, 1.530808498934191509E-17, 0.4291858428704192763 ) ) ;
#21 = CARTESIAN_POINT ( 'NONE',  ( 0.0000000000000000000, 0.0000000000000000000, 2.500000000000000000 ) ) ;
#22 = CARTESIAN_POINT ( 'NONE',  ( -0.1250000000000000000, 0.0000000000000000000, 2.500000000000000000 ) ) ;
#23 = ORIENTED_EDGE ( 'NONE', *, *, #242, .F. ) ;
#24 = PRODUCT_DEFINITION_CONTEXT ( 'detailed design', #213, 'design' ) ;
#25 = DIRECTION ( 'NONE',  ( -0.0000000000000000000, -0.0000000000000000000, -1.000000000000000000 ) ) ;
#26 = AXIS2_PLACEMENT_3D ( 'NONE', #167, #184, #58 ) ;
#27 =( LENGTH_UNIT ( ) NAMED_UNIT ( * ) SI_UNIT ( $, .METRE. ) );
#28 = LENGTH_MEASURE_WITH_UNIT ( LENGTH_MEASURE( 0.02539999999999999897 ), #27 );
#29 = FILL_AREA_STYLE_COLOUR ( '', #186 ) ;
#30 = CIRCLE ( 'NONE', #161, 0.1250000000000000000 ) ;
#31 = EDGE_CURVE ( 'NONE', #129, #84, #108, .T. ) ;
#32 = ORIENTED_EDGE ( 'NONE', *, *, #159, .T. ) ;
#33 = DIRECTION ( 'NONE',  ( -1.000000000000000000, 0.0000000000000000000, 0.0000000000000000000 ) ) ;
#34 = ORIENTED_EDGE ( 'NONE', *, *, #169, .T. ) ;
#35 = CIRCLE ( 'NONE', #59, 0.1250000000000000000 ) ;
#36 = DIRECTION ( 'NONE',  ( -0.0000000000000000000, -0.0000000000000000000, -1.000000000000000000 ) ) ;
#37 = DIRECTION ( 'NONE',  ( -1.000000000000000000, 0.0000000000000000000, 0.0000000000000000000 ) ) ;
#38 = AXIS2_PLACEMENT_3D ( 'NONE', #139, #71, #33 ) ;
#39 = CARTESIAN_POINT ( 'NONE',  ( 0.0000000000000000000, 0.0000000000000000000, 2.485000000000000320 ) ) ;
#40 = DIRECTION ( 'NONE',  ( -0.7071067811865499042, 0.0000000000000000000, -0.7071067811865451302 ) ) ;
#41 = FACE_OUTER_BOUND ( 'NONE', #90, .T. ) ;
#42 =( NAMED_UNIT ( * ) SI_UNIT ( $, .STERADIAN. ) SOLID_ANGLE_UNIT ( ) );
#43 =( NAMED_UNIT ( * ) PLANE_ANGLE_UNIT ( ) SI_UNIT ( $, .RADIAN. ) );
#44 = SURFACE_STYLE_FILL_AREA ( #105 ) ;
#45 = ORIENTED_EDGE ( 'NONE', *, *, #204, .T. ) ;
#46 = LENGTH_MEASURE_WITH_UNIT ( LENGTH_MEASURE( 0.02539999999999999897 ), #83 );
#47 = VERTEX_POINT ( 'NONE', #112 ) ;
#48 = EDGE_LOOP ( 'NONE', ( #227, #210, #32, #170 ) ) ;
#49 = ADVANCED_FACE ( 'NONE', ( #75 ), #15, .T. ) ;
#50 = MECHANICAL_DESIGN_GEOMETRIC_PRESENTATION_REPRESENTATION (  '', ( #179 ), #62 ) ;
#51 =( GEOMETRIC_REPRESENTATION_CONTEXT ( 3 ) GLOBAL_UNCERTAINTY_ASSIGNED_CONTEXT ( ( #115 ) ) GLOBAL_UNIT_ASSIGNED_CONTEXT ( ( #190, #43, #12 ) ) REPRESENTATION_CONTEXT ( 'NONE', 'WORKASPACE' ) );
#52 = CARTESIAN_POINT ( 'NONE',  ( 0.1250000000000000000, 1.530808498934191509E-17, 2.485000000000000320 ) ) ;
#53 = DIRECTION ( 'NONE',  ( 0.0000000000000000000, 0.0000000000000000000, 1.000000000000000000 ) ) ;
#54 = DIRECTION ( 'NONE',  ( 0.0000000000000000000, 0.0000000000000000000, 1.000000000000000000 ) ) ;
#55 = ORIENTED_EDGE ( 'NONE', *, *, #31, .F. ) ;
#56 = DIRECTION ( 'NONE',  ( 1.000000000000000000, 0.0000000000000000000, 0.0000000000000000000 ) ) ;
#57 = CARTESIAN_POINT ( 'NONE',  ( 0.0000000000000000000, 0.0000000000000000000, 0.0000000000000000000 ) ) ;
#58 = DIRECTION ( 'NONE',  ( -1.000000000000000000, 0.0000000000000000000, 0.0000000000000000000 ) ) ;
#59 = AXIS2_PLACEMENT_3D ( 'NONE', #5, #91, #154 ) ;
#60 = DIRECTION ( 'NONE',  ( 1.000000000000000000, 0.0000000000000000000, 0.0000000000000000000 ) ) ;
#61 = FACE_OUTER_BOUND ( 'NONE', #160, .T. ) ;
#62 =( GEOMETRIC_REPRESENTATION_CONTEXT ( 3 ) GLOBAL_UNCERTAINTY_ASSIGNED_CONTEXT ( ( #194 ) ) GLOBAL_UNIT_ASSIGNED_CONTEXT ( ( #165, #119, #42 ) ) REPRESENTATION_CONTEXT ( 'NONE', 'WORKASPACE' ) );
#63 = EDGE_CURVE ( 'NONE', #129, #66, #156, .T. ) ;
#64 = CONICAL_SURFACE ( 'NONE', #212, 0.01000000000000000021, 0.2617993877991502960 ) ;
#65 = APPLICATION_PROTOCOL_DEFINITION ( 'draft international standard', 'automotive_design', 1998, #69 ) ;
#66 = VERTEX_POINT ( 'NONE', #95 ) ;
#67 = SURFACE_SIDE_STYLE ('',( #44 ) ) ;
#68 = AXIS2_PLACEMENT_3D ( 'NONE', #125, #25, #99 ) ;
#69 = APPLICATION_CONTEXT ( 'automotive_design' ) ;
#70 = ORIENTED_EDGE ( 'NONE', *, *, #133, .T. ) ;
#71 = DIRECTION ( 'NONE',  ( -0.0000000000000000000, -0.0000000000000000000, -1.000000000000000000 ) ) ;
#72 = FACE_OUTER_BOUND ( 'NONE', #178, .T. ) ;
#73 = CYLINDRICAL_SURFACE ( 'NONE', #38, 0.1250000000000000000 ) ;
#74 = LINE ( 'NONE', #197, #92 ) ;
#75 = FACE_OUTER_BOUND ( 'NONE', #89, .T. ) ;
#76 = CYLINDRICAL_SURFACE ( 'NONE', #26, 0.1250000000000000000 ) ;
#77 = LENGTH_MEASURE_WITH_UNIT ( LENGTH_MEASURE( 0.02539999999999999897 ), #225 );
#78 = LINE ( 'NONE', #243, #206 ) ;
#79 = CIRCLE ( 'NONE', #187, 0.1250000000000000000 ) ;
#80 = EDGE_CURVE ( 'NONE', #66, #232, #173, .T. ) ;
#81 = CARTESIAN_POINT ( 'NONE',  ( 0.0000000000000000000, 0.0000000000000000000, 0.0000000000000000000 ) ) ;
#82 = SURFACE_STYLE_USAGE ( .BOTH. , #67 ) ;
#83 =( LENGTH_UNIT ( ) NAMED_UNIT ( * ) SI_UNIT ( $, .METRE. ) );
#84 = VERTEX_POINT ( 'NONE', #20 ) ;
#85 = SHAPE_DEFINITION_REPRESENTATION ( #130, #246 ) ;
#86 = ORIENTED_EDGE ( 'NONE', *, *, #63, .F. ) ;
#87 = VECTOR ( 'NONE', #174, 39.37007874015748143 ) ;
#88 = DIRECTION ( 'NONE',  ( 1.000000000000000000, 0.0000000000000000000, 0.0000000000000000000 ) ) ;
#89 = EDGE_LOOP ( 'NONE', ( #17, #226, #149, #6 ) ) ;
#90 = EDGE_LOOP ( 'NONE', ( #217, #191, #153, #23 ) ) ;
#91 = DIRECTION ( 'NONE',  ( 0.0000000000000000000, 0.0000000000000000000, -1.000000000000000000 ) ) ;
#92 = VECTOR ( 'NONE', #237, 39.37007874015748143 ) ;
#93 = ORIENTED_EDGE ( 'NONE', *, *, #169, .F. ) ;
#94 = UNCERTAINTY_MEASURE_WITH_UNIT (LENGTH_MEASURE( 1.000000000000000082E-05 ), #103, 'distance_accuracy_value', 'NONE');
#95 = CARTESIAN_POINT ( 'NONE',  ( -0.01000000000000000021, 8.266365894244632793E-18, 0.0000000000000000000 ) ) ;
#96 = FACE_OUTER_BOUND ( 'NONE', #48, .T. ) ;
#97 = ADVANCED_FACE ( 'NONE', ( #96 ), #73, .T. ) ;
#98 = PRESENTATION_LAYER_ASSIGNMENT (  '', '', ( #179 ) ) ;
#99 = DIRECTION ( 'NONE',  ( -1.000000000000000000, 0.0000000000000000000, 0.0000000000000000000 ) ) ;
#100 = DIRECTION ( 'NONE',  ( 0.0000000000000000000, 0.0000000000000000000, -1.000000000000000000 ) ) ;
#101 = MECHANICAL_DESIGN_GEOMETRIC_PRESENTATION_REPRESENTATION (  '', ( #216 ), #145 ) ;
#102 = EDGE_CURVE ( 'NONE', #84, #232, #79, .T. ) ;
#103 =( CONVERSION_BASED_UNIT ( 'INCH', #46 ) LENGTH_UNIT ( ) NAMED_UNIT ( #2 ) );
#104 = EDGE_LOOP ( 'NONE', ( #172, #16, #230, #131 ) ) ;
#105 = FILL_AREA_STYLE ('',( #29 ) ) ;
#106 = ORIENTED_EDGE ( 'NONE', *, *, #120, .T. ) ;
#107 = DIMENSIONAL_EXPONENTS ( 1.000000000000000000, 0.0000000000000000000, 0.0000000000000000000, 0.0000000000000000000, 0.0000000000000000000, 0.0000000000000000000, 0.0000000000000000000 ) ;
#108 = LINE ( 'NONE', #192, #175 ) ;
#109 = CARTESIAN_POINT ( 'NONE',  ( 0.0000000000000000000, 0.0000000000000000000, 0.0000000000000000000 ) ) ;
#110 = CIRCLE ( 'NONE', #10, 0.1100000000000001948 ) ;
#111 = CLOSED_SHELL ( 'NONE', ( #171, #222, #200, #97, #233, #49, #19, #185 ) ) ;
#112 = CARTESIAN_POINT ( 'NONE',  ( -0.1250000000000000000, 0.0000000000000000000, 2.485000000000000320 ) ) ;
#113 = DIRECTION ( 'NONE',  ( 0.7071067811865499042, 8.659560562354961208E-17, -0.7071067811865451302 ) ) ;
#114 = CARTESIAN_POINT ( 'NONE',  ( 0.0000000000000000000, 0.0000000000000000000, 0.4291858428704192763 ) ) ;
#115 = UNCERTAINTY_MEASURE_WITH_UNIT (LENGTH_MEASURE( 1.000000000000000082E-05 ), #190, 'distance_accuracy_value', 'NONE');
#116 = PRODUCT_RELATED_PRODUCT_CATEGORY ( 'part', '', ( #122 ) ) ;
#117 = AXIS2_PLACEMENT_3D ( 'NONE', #214, #239, #235 ) ;
#118 = DIRECTION ( 'NONE',  ( 0.0000000000000000000, 0.0000000000000000000, 1.000000000000000000 ) ) ;
#119 =( NAMED_UNIT ( * ) PLANE_ANGLE_UNIT ( ) SI_UNIT ( $, .RADIAN. ) );
#120 = EDGE_CURVE ( 'NONE', #232, #84, #30, .T. ) ;
#121 = EDGE_CURVE ( 'NONE', #47, #162, #35, .T. ) ;
#122 = PRODUCT ( 'Micro_RTC-250-120', 'Micro_RTC-250-120', '', ( #189 ) ) ;
#123 = DIRECTION ( 'NONE',  ( -1.000000000000000000, 0.0000000000000000000, 0.0000000000000000000 ) ) ;
#124 = AXIS2_PLACEMENT_3D ( 'NONE', #109, #54, #56 ) ;
#125 = CARTESIAN_POINT ( 'NONE',  ( 0.0000000000000000000, 0.0000000000000000000, 0.0000000000000000000 ) ) ;
#126 = VERTEX_POINT ( 'NONE', #215 ) ;
#127 =( NAMED_UNIT ( * ) PLANE_ANGLE_UNIT ( ) SI_UNIT ( $, .RADIAN. ) );
#128 = EDGE_CURVE ( 'NONE', #126, #162, #3, .T. ) ;
#129 = VERTEX_POINT ( 'NONE', #134 ) ;
#130 = PRODUCT_DEFINITION_SHAPE ( 'NONE', 'NONE',  #163 ) ;
#131 = ORIENTED_EDGE ( 'NONE', *, *, #159, .F. ) ;
#132 = EDGE_LOOP ( 'NONE', ( #93, #247, #106, #55 ) ) ;
#133 = EDGE_CURVE ( 'NONE', #14, #126, #183, .T. ) ;
#134 = CARTESIAN_POINT ( 'NONE',  ( 0.01000000000000000021, 0.0000000000000000000, 0.0000000000000000000 ) ) ;
#135 = CARTESIAN_POINT ( 'NONE',  ( -0.01000000000000000021, 1.224646799147353384E-18, 0.0000000000000000000 ) ) ;
#136 = PRODUCT_DEFINITION_FORMATION_WITH_SPECIFIED_SOURCE ( 'ANY', '', #122, .NOT_KNOWN. ) ;
#137 = COLOUR_RGB ( '',0.7921568627450980005, 0.8196078431372548767, 0.9333333333333333481 ) ;
#138 = ORIENTED_EDGE ( 'NONE', *, *, #80, .F. ) ;
#139 = CARTESIAN_POINT ( 'NONE',  ( 0.0000000000000000000, 0.0000000000000000000, 2.500000000000000000 ) ) ;
#140 = SURFACE_STYLE_FILL_AREA ( #181 ) ;
#141 = DIRECTION ( 'NONE',  ( 1.000000000000000000, 0.0000000000000000000, 0.0000000000000000000 ) ) ;
#142 = EDGE_CURVE ( 'NONE', #162, #84, #74, .T. ) ;
#143 = CARTESIAN_POINT ( 'NONE',  ( 0.0000000000000000000, 0.0000000000000000000, 2.500000000000000000 ) ) ;
#144 = CARTESIAN_POINT ( 'NONE',  ( 0.0000000000000000000, 0.0000000000000000000, 2.500000000000000000 ) ) ;
#145 =( GEOMETRIC_REPRESENTATION_CONTEXT ( 3 ) GLOBAL_UNCERTAINTY_ASSIGNED_CONTEXT ( ( #94 ) ) GLOBAL_UNIT_ASSIGNED_CONTEXT ( ( #103, #127, #207 ) ) REPRESENTATION_CONTEXT ( 'NONE', 'WORKASPACE' ) );
#146 = DIRECTION ( 'NONE',  ( 1.000000000000000000, 0.0000000000000000000, -0.0000000000000000000 ) ) ;
#147 = CONICAL_SURFACE ( 'NONE', #124, 0.01000000000000000021, 0.2617993877991502960 ) ;
#148 = APPLICATION_PROTOCOL_DEFINITION ( 'draft international standard', 'automotive_design', 1998, #213 ) ;
#149 = ORIENTED_EDGE ( 'NONE', *, *, #242, .T. ) ;
#150 = CARTESIAN_POINT ( 'NONE',  ( 0.0000000000000000000, 0.0000000000000000000, 0.0000000000000000000 ) ) ;
#151 = AXIS2_PLACEMENT_3D ( 'NONE', #143, #100, #123 ) ;
#152 = AXIS2_PLACEMENT_3D ( 'NONE', #1, #157, #177 ) ;
#153 = ORIENTED_EDGE ( 'NONE', *, *, #121, .F. ) ;
#154 = DIRECTION ( 'NONE',  ( 1.000000000000000000, 0.0000000000000000000, 0.0000000000000000000 ) ) ;
#155 = CIRCLE ( 'NONE', #13, 0.1250000000000000000 ) ;
#156 = CIRCLE ( 'NONE', #152, 0.01000000000000000021 ) ;
#157 = DIRECTION ( 'NONE',  ( -0.0000000000000000000, -0.0000000000000000000, -1.000000000000000000 ) ) ;
#158 = CARTESIAN_POINT ( 'NONE',  ( 0.0000000000000000000, 0.0000000000000000000, 0.4291858428704192763 ) ) ;
#159 = EDGE_CURVE ( 'NONE', #47, #232, #193, .T. ) ;
#160 = EDGE_LOOP ( 'NONE', ( #70, #45 ) ) ;
#161 = AXIS2_PLACEMENT_3D ( 'NONE', #114, #36, #195 ) ;
#162 = VERTEX_POINT ( 'NONE', #52 ) ;
#163 = PRODUCT_DEFINITION ( 'UNKNOWN', '', #136, #24 ) ;
#164 = DIRECTION ( 'NONE',  ( 0.0000000000000000000, 0.0000000000000000000, 1.000000000000000000 ) ) ;
#165 =( CONVERSION_BASED_UNIT ( 'INCH', #77 ) LENGTH_UNIT ( ) NAMED_UNIT ( #196 ) );
#166 = DIRECTION ( 'NONE',  ( 0.0000000000000000000, 0.0000000000000000000, -1.000000000000000000 ) ) ;
#167 = CARTESIAN_POINT ( 'NONE',  ( 0.0000000000000000000, 0.0000000000000000000, 2.500000000000000000 ) ) ;
#168 = VECTOR ( 'NONE', #113, 39.37007874015748143 ) ;
#169 = EDGE_CURVE ( 'NONE', #66, #129, #238, .T. ) ;
#170 = ORIENTED_EDGE ( 'NONE', *, *, #102, .F. ) ;
#171 = ADVANCED_FACE ( 'NONE', ( #240 ), #64, .T. ) ;
#172 = ORIENTED_EDGE ( 'NONE', *, *, #121, .T. ) ;
#173 = LINE ( 'NONE', #135, #87 ) ;
#174 = DIRECTION ( 'NONE',  ( -0.2588190451025216832, 3.169619151431776035E-17, 0.9659258262890679791 ) ) ;
#175 = VECTOR ( 'NONE', #18, 39.37007874015748143 ) ;
#176 = CARTESIAN_POINT ( 'NONE',  ( -0.1100000000000001948, 0.0000000000000000000, 2.500000000000000000 ) ) ;
#177 = DIRECTION ( 'NONE',  ( -1.000000000000000000, 0.0000000000000000000, 0.0000000000000000000 ) ) ;
#178 = EDGE_LOOP ( 'NONE', ( #138, #86, #245, #211 ) ) ;
#179 = STYLED_ITEM ( 'NONE', ( #182 ), #188 ) ;
#180 = PLANE ( 'NONE',  #228 ) ;
#181 = FILL_AREA_STYLE ('',( #7 ) ) ;
#182 = PRESENTATION_STYLE_ASSIGNMENT (( #201 ) ) ;
#183 = CIRCLE ( 'NONE', #208, 0.1100000000000001948 ) ;
#184 = DIRECTION ( 'NONE',  ( -0.0000000000000000000, -0.0000000000000000000, -1.000000000000000000 ) ) ;
#185 = ADVANCED_FACE ( 'NONE', ( #244 ), #223, .F. ) ;
#186 = COLOUR_RGB ( '',0.7921568627450980005, 0.8196078431372548767, 0.9333333333333333481 ) ;
#187 = AXIS2_PLACEMENT_3D ( 'NONE', #158, #218, #37 ) ;
#188 = MANIFOLD_SOLID_BREP ( 'Cut-Revolve1', #111 ) ;
#189 = PRODUCT_CONTEXT ( 'NONE', #69, 'mechanical' ) ;
#190 =( CONVERSION_BASED_UNIT ( 'INCH', #28 ) LENGTH_UNIT ( ) NAMED_UNIT ( #107 ) );
#191 = ORIENTED_EDGE ( 'NONE', *, *, #128, .T. ) ;
#192 = CARTESIAN_POINT ( 'NONE',  ( 0.01000000000000000021, 0.0000000000000000000, 0.0000000000000000000 ) ) ;
#193 = LINE ( 'NONE', #22, #241 ) ;
#194 = UNCERTAINTY_MEASURE_WITH_UNIT (LENGTH_MEASURE( 1.000000000000000082E-05 ), #165, 'distance_accuracy_value', 'NONE');
#195 = DIRECTION ( 'NONE',  ( -1.000000000000000000, 0.0000000000000000000, 0.0000000000000000000 ) ) ;
#196 = DIMENSIONAL_EXPONENTS ( 1.000000000000000000, 0.0000000000000000000, 0.0000000000000000000, 0.0000000000000000000, 0.0000000000000000000, 0.0000000000000000000, 0.0000000000000000000 ) ;
#197 = CARTESIAN_POINT ( 'NONE',  ( 0.1250000000000000000, 1.530808498934191509E-17, 2.500000000000000000 ) ) ;
#198 = DIRECTION ( 'NONE',  ( 1.000000000000000000, 0.0000000000000000000, 0.0000000000000000000 ) ) ;
#199 = CONICAL_SURFACE ( 'NONE', #151, 0.1100000000000001948, 0.7853981633974517207 ) ;
#200 = ADVANCED_FACE ( 'NONE', ( #220 ), #76, .T. ) ;
#201 = SURFACE_STYLE_USAGE ( .BOTH. , #8 ) ;
#202 = DIRECTION ( 'NONE',  ( 1.000000000000000000, 0.0000000000000000000, 0.0000000000000000000 ) ) ;
#203 = EDGE_CURVE ( 'NONE', #162, #47, #155, .T. ) ;
#204 = EDGE_CURVE ( 'NONE', #126, #14, #110, .T. ) ;
#205 = DIRECTION ( 'NONE',  ( 0.0000000000000000000, 0.0000000000000000000, 1.000000000000000000 ) ) ;
#206 = VECTOR ( 'NONE', #40, 39.37007874015748143 ) ;
#207 =( NAMED_UNIT ( * ) SI_UNIT ( $, .STERADIAN. ) SOLID_ANGLE_UNIT ( ) );
#208 = AXIS2_PLACEMENT_3D ( 'NONE', #21, #53, #198 ) ;
#209 = EDGE_LOOP ( 'NONE', ( #4, #34 ) ) ;
#210 = ORIENTED_EDGE ( 'NONE', *, *, #203, .T. ) ;
#211 = ORIENTED_EDGE ( 'NONE', *, *, #102, .T. ) ;
#212 = AXIS2_PLACEMENT_3D ( 'NONE', #57, #205, #141 ) ;
#213 = APPLICATION_CONTEXT ( 'automotive_design' ) ;
#214 = CARTESIAN_POINT ( 'NONE',  ( 0.0000000000000000000, 0.0000000000000000000, 2.500000000000000000 ) ) ;
#215 = CARTESIAN_POINT ( 'NONE',  ( 0.1100000000000001948, 1.438959988998141146E-17, 2.500000000000000000 ) ) ;
#216 = STYLED_ITEM ( 'NONE', ( #229 ), #246 ) ;
#217 = ORIENTED_EDGE ( 'NONE', *, *, #204, .F. ) ;
#218 = DIRECTION ( 'NONE',  ( -0.0000000000000000000, -0.0000000000000000000, -1.000000000000000000 ) ) ;
#219 = DIRECTION ( 'NONE',  ( 0.0000000000000000000, 0.0000000000000000000, 1.000000000000000000 ) ) ;
#220 = FACE_OUTER_BOUND ( 'NONE', #104, .T. ) ;
#221 = CARTESIAN_POINT ( 'NONE',  ( 0.0000000000000000000, 0.0000000000000000000, 2.500000000000000000 ) ) ;
#222 = ADVANCED_FACE ( 'NONE', ( #41 ), #199, .T. ) ;
#223 = PLANE ( 'NONE',  #249 ) ;
#224 = PRESENTATION_LAYER_ASSIGNMENT (  '', '', ( #216 ) ) ;
#225 =( LENGTH_UNIT ( ) NAMED_UNIT ( * ) SI_UNIT ( $, .METRE. ) );
#226 = ORIENTED_EDGE ( 'NONE', *, *, #133, .F. ) ;
#227 = ORIENTED_EDGE ( 'NONE', *, *, #142, .F. ) ;
#228 = AXIS2_PLACEMENT_3D ( 'NONE', #221, #164, #146 ) ;
#229 = PRESENTATION_STYLE_ASSIGNMENT (( #82 ) ) ;
#230 = ORIENTED_EDGE ( 'NONE', *, *, #120, .F. ) ;
#231 = DIRECTION ( 'NONE',  ( 0.0000000000000000000, 0.0000000000000000000, 1.000000000000000000 ) ) ;
#232 = VERTEX_POINT ( 'NONE', #9 ) ;
#233 = ADVANCED_FACE ( 'NONE', ( #61 ), #180, .T. ) ;
#234 = DIRECTION ( 'NONE',  ( -0.0000000000000000000, -0.0000000000000000000, -1.000000000000000000 ) ) ;
#235 = DIRECTION ( 'NONE',  ( -1.000000000000000000, 0.0000000000000000000, 0.0000000000000000000 ) ) ;
#236 = CARTESIAN_POINT ( 'NONE',  ( 0.1100000000000001948, 1.347111479062090784E-17, 2.500000000000000000 ) ) ;
#237 = DIRECTION ( 'NONE',  ( -0.0000000000000000000, -0.0000000000000000000, -1.000000000000000000 ) ) ;
#238 = CIRCLE ( 'NONE', #68, 0.01000000000000000021 ) ;
#239 = DIRECTION ( 'NONE',  ( 0.0000000000000000000, 0.0000000000000000000, -1.000000000000000000 ) ) ;
#240 = FACE_OUTER_BOUND ( 'NONE', #132, .T. ) ;
#241 = VECTOR ( 'NONE', #234, 39.37007874015748143 ) ;
#242 = EDGE_CURVE ( 'NONE', #14, #47, #78, .T. ) ;
#243 = CARTESIAN_POINT ( 'NONE',  ( -0.1100000000000001948, 0.0000000000000000000, 2.500000000000000000 ) ) ;
#244 = FACE_OUTER_BOUND ( 'NONE', #209, .T. ) ;
#245 = ORIENTED_EDGE ( 'NONE', *, *, #31, .T. ) ;
#246 = ADVANCED_BREP_SHAPE_REPRESENTATION ( 'Micro_RTC-250-120', ( #188, #248 ), #51 ) ;
#247 = ORIENTED_EDGE ( 'NONE', *, *, #80, .T. ) ;
#248 = AXIS2_PLACEMENT_3D ( 'NONE', #150, #231, #88 ) ;
#249 = AXIS2_PLACEMENT_3D ( 'NONE', #81, #118, #11 ) ;
ENDSEC;
END-ISO-10303-21;
