ISO-10303-21;
HEADER;
FILE_DESCRIPTION (( 'STEP AP214' ),
    '1' );
FILE_NAME ('56557.STEP',
    '2023-06-30T22:10:24',
    ( '' ),
    ( '' ),
    'SwSTEP 2.0',
    'SolidWorks 2023',
    '' );
FILE_SCHEMA (( 'AUTOMOTIVE_DESIGN' ));
ENDSEC;

DATA;
#1 = APPLICATION_CONTEXT ( 'automotive_design' ) ;
#2 = DIRECTION ( 'NONE',  ( -1.228550797481991114E-16, 1.000000000000000000, -0.000000000000000000 ) ) ;
#3 = ORIENTED_EDGE ( 'NONE', *, *, #324, .T. ) ;
#4 = CIRCLE ( 'NONE', #10, 0.3124999999999998335 ) ;
#5 = ORIENTED_EDGE ( 'NONE', *, *, #258, .F. ) ;
#6 = ORIENTED_EDGE ( 'NONE', *, *, #180, .T. ) ;
#7 = ORIENTED_EDGE ( 'NONE', *, *, #244, .T. ) ;
#8 = AXIS2_PLACEMENT_3D ( 'NONE', #281, #254, #332 ) ;
#9 = ORIENTED_EDGE ( 'NONE', *, *, #119, .T. ) ;
#10 = AXIS2_PLACEMENT_3D ( 'NONE', #275, #104, #133 ) ;
#11 = SURFACE_STYLE_FILL_AREA ( #220 ) ;
#12 = LINE ( 'NONE', #134, #346 ) ;
#13 = DIRECTION ( 'NONE',  ( 0.000000000000000000, 0.000000000000000000, -1.000000000000000000 ) ) ;
#14 = UNCERTAINTY_MEASURE_WITH_UNIT (LENGTH_MEASURE( 1.000000000000000082E-05 ), #155, 'distance_accuracy_value', 'NONE');
#15 = DIRECTION ( 'NONE',  ( -1.228550797481991114E-16, 1.000000000000000000, -0.000000000000000000 ) ) ;
#16 = DIRECTION ( 'NONE',  ( 0.000000000000000000, 0.000000000000000000, -1.000000000000000000 ) ) ;
#17 = DIRECTION ( 'NONE',  ( -1.000000000000000000, 0.000000000000000000, 0.000000000000000000 ) ) ;
#18 = MECHANICAL_DESIGN_GEOMETRIC_PRESENTATION_REPRESENTATION (  '', ( #342 ), #259 ) ;
#19 = PRODUCT_DEFINITION_FORMATION_WITH_SPECIFIED_SOURCE ( 'ANY', '', #205, .NOT_KNOWN. ) ;
#20 = EDGE_CURVE ( 'NONE', #238, #294, #44, .T. ) ;
#21 = ORIENTED_EDGE ( 'NONE', *, *, #191, .F. ) ;
#22 =( NAMED_UNIT ( * ) PLANE_ANGLE_UNIT ( ) SI_UNIT ( $, .RADIAN. ) );
#23 = DIRECTION ( 'NONE',  ( -0.000000000000000000, -1.000000000000000000, -0.000000000000000000 ) ) ;
#24 = SURFACE_STYLE_FILL_AREA ( #230 ) ;
#25 = VECTOR ( 'NONE', #23, 39.37007874015748143 ) ;
#26 = ADVANCED_BREP_SHAPE_REPRESENTATION ( '56557', ( #370, #349, #169 ), #195 ) ;
#27 = CARTESIAN_POINT ( 'NONE',  ( 0.000000000000000000, 0.000000000000000000, 0.000000000000000000 ) ) ;
#28 = AXIS2_PLACEMENT_3D ( 'NONE', #120, #162, #42 ) ;
#29 =( NAMED_UNIT ( * ) PLANE_ANGLE_UNIT ( ) SI_UNIT ( $, .RADIAN. ) );
#30 = EDGE_CURVE ( 'NONE', #95, #351, #116, .T. ) ;
#31 =( NAMED_UNIT ( * ) SI_UNIT ( $, .STERADIAN. ) SOLID_ANGLE_UNIT ( ) );
#32 = PRESENTATION_STYLE_ASSIGNMENT (( #87 ) ) ;
#33 = SHAPE_DEFINITION_REPRESENTATION ( #88, #26 ) ;
#34 = CARTESIAN_POINT ( 'NONE',  ( -3.827021247335478926E-17, 0.3125000000000000000, 0.000000000000000000 ) ) ;
#35 =( CONVERSION_BASED_UNIT ( 'INCH', #236 ) LENGTH_UNIT ( ) NAMED_UNIT ( #141 ) );
#36 = EDGE_CURVE ( 'NONE', #279, #92, #353, .T. ) ;
#37 =( NAMED_UNIT ( * ) SI_UNIT ( $, .STERADIAN. ) SOLID_ANGLE_UNIT ( ) );
#38 = DIRECTION ( 'NONE',  ( 0.000000000000000000, 0.000000000000000000, -1.000000000000000000 ) ) ;
#39 = APPLICATION_CONTEXT ( 'automotive_design' ) ;
#40 = SURFACE_STYLE_USAGE ( .BOTH. , #359 ) ;
#41 = ORIENTED_EDGE ( 'NONE', *, *, #90, .T. ) ;
#42 = DIRECTION ( 'NONE',  ( -1.000000000000000000, -1.228550797481991114E-16, 0.000000000000000000 ) ) ;
#43 = CIRCLE ( 'NONE', #255, 0.3124999999999995559 ) ;
#44 = LINE ( 'NONE', #224, #187 ) ;
#45 = CARTESIAN_POINT ( 'NONE',  ( 0.000000000000000000, 0.000000000000000000, -0.3125000000000000000 ) ) ;
#46 = CARTESIAN_POINT ( 'NONE',  ( 0.3125000000000000000, 0.3125000000000000555, 0.000000000000000000 ) ) ;
#47 = FACE_OUTER_BOUND ( 'NONE', #128, .T. ) ;
#48 = SURFACE_SIDE_STYLE ('',( #170 ) ) ;
#49 = DIRECTION ( 'NONE',  ( 0.000000000000000000, 0.000000000000000000, -1.000000000000000000 ) ) ;
#50 = CIRCLE ( 'NONE', #91, 0.3124999999999999445 ) ;
#51 = DIRECTION ( 'NONE',  ( -0.000000000000000000, -1.000000000000000000, -0.000000000000000000 ) ) ;
#52 = ORIENTED_EDGE ( 'NONE', *, *, #177, .F. ) ;
#53 = DIRECTION ( 'NONE',  ( 0.000000000000000000, 0.000000000000000000, -1.000000000000000000 ) ) ;
#54 =( NAMED_UNIT ( * ) PLANE_ANGLE_UNIT ( ) SI_UNIT ( $, .RADIAN. ) );
#55 = DIRECTION ( 'NONE',  ( -0.000000000000000000, -1.000000000000000000, -0.000000000000000000 ) ) ;
#56 = ADVANCED_FACE ( 'NONE', ( #253 ), #109, .F. ) ;
#57 = PRESENTATION_STYLE_ASSIGNMENT (( #252 ) ) ;
#58 = DIRECTION ( 'NONE',  ( 0.000000000000000000, 0.000000000000000000, -1.000000000000000000 ) ) ;
#59 = AXIS2_PLACEMENT_3D ( 'NONE', #344, #184, #262 ) ;
#60 =( LENGTH_UNIT ( ) NAMED_UNIT ( * ) SI_UNIT ( $, .METRE. ) );
#61 = DIMENSIONAL_EXPONENTS ( 1.000000000000000000, 0.000000000000000000, 0.000000000000000000, 0.000000000000000000, 0.000000000000000000, 0.000000000000000000, 0.000000000000000000 ) ;
#62 = CYLINDRICAL_SURFACE ( 'NONE', #153, 0.3125000000000000000 ) ;
#63 = EDGE_CURVE ( 'NONE', #351, #165, #274, .T. ) ;
#64 = STYLED_ITEM ( 'NONE', ( #32 ), #216 ) ;
#65 = CARTESIAN_POINT ( 'NONE',  ( 1.224646799147352714E-16, 3.000000000000000444, 0.000000000000000000 ) ) ;
#66 =( NAMED_UNIT ( * ) PLANE_ANGLE_UNIT ( ) SI_UNIT ( $, .RADIAN. ) );
#67 = VERTEX_POINT ( 'NONE', #226 ) ;
#68 = EDGE_LOOP ( 'NONE', ( #7, #41 ) ) ;
#69 = PLANE ( 'NONE',  #28 ) ;
#70 = UNCERTAINTY_MEASURE_WITH_UNIT (LENGTH_MEASURE( 1.000000000000000082E-05 ), #242, 'distance_accuracy_value', 'NONE');
#71 = CYLINDRICAL_SURFACE ( 'NONE', #323, 0.3124999999999996669 ) ;
#72 = CARTESIAN_POINT ( 'NONE',  ( -1.913510623667739463E-17, 0.000000000000000000, 0.000000000000000000 ) ) ;
#73 =( NAMED_UNIT ( * ) PLANE_ANGLE_UNIT ( ) SI_UNIT ( $, .RADIAN. ) );
#74 = UNCERTAINTY_MEASURE_WITH_UNIT (LENGTH_MEASURE( 1.000000000000000082E-05 ), #229, 'distance_accuracy_value', 'NONE');
#75 = STYLED_ITEM ( 'NONE', ( #57 ), #183 ) ;
#76 = CARTESIAN_POINT ( 'NONE',  ( 3.827021247335478926E-17, 0.000000000000000000, 0.3125000000000000000 ) ) ;
#77 =( GEOMETRIC_REPRESENTATION_CONTEXT ( 3 ) GLOBAL_UNCERTAINTY_ASSIGNED_CONTEXT ( ( #156 ) ) GLOBAL_UNIT_ASSIGNED_CONTEXT ( ( #174, #29, #339 ) ) REPRESENTATION_CONTEXT ( 'NONE', 'WORKASPACE' ) );
#78 = SURFACE_SIDE_STYLE ('',( #138 ) ) ;
#79 = LENGTH_MEASURE_WITH_UNIT ( LENGTH_MEASURE( 0.02539999999999999897 ), #223 );
#80 = DIRECTION ( 'NONE',  ( -1.228550797481991114E-16, 1.000000000000000000, -0.000000000000000000 ) ) ;
#81 = SURFACE_STYLE_USAGE ( .BOTH. , #311 ) ;
#82 = DIRECTION ( 'NONE',  ( -1.228550797481991114E-16, 1.000000000000000000, -0.000000000000000000 ) ) ;
#83 = AXIS2_PLACEMENT_3D ( 'NONE', #193, #362, #302 ) ;
#84 = AXIS2_PLACEMENT_3D ( 'NONE', #360, #372, #256 ) ;
#85 =( LENGTH_UNIT ( ) NAMED_UNIT ( * ) SI_UNIT ( $, .METRE. ) );
#86 = FILL_AREA_STYLE ('',( #309 ) ) ;
#87 = SURFACE_STYLE_USAGE ( .BOTH. , #260 ) ;
#88 = PRODUCT_DEFINITION_SHAPE ( 'NONE', 'NONE',  #366 ) ;
#89 = CLOSED_SHELL ( 'NONE', ( #290, #257, #94, #56 ) ) ;
#90 = EDGE_CURVE ( 'NONE', #305, #294, #291, .T. ) ;
#91 = AXIS2_PLACEMENT_3D ( 'NONE', #272, #356, #13 ) ;
#92 = VERTEX_POINT ( 'NONE', #46 ) ;
#93 =( CONVERSION_BASED_UNIT ( 'INCH', #118 ) LENGTH_UNIT ( ) NAMED_UNIT ( #171 ) );
#94 = ADVANCED_FACE ( 'NONE', ( #246 ), #142, .T. ) ;
#95 = VERTEX_POINT ( 'NONE', #135 ) ;
#96 = AXIS2_PLACEMENT_3D ( 'NONE', #364, #219, #49 ) ;
#97 = STYLED_ITEM ( 'NONE', ( #145 ), #208 ) ;
#98 = VERTEX_POINT ( 'NONE', #163 ) ;
#99 = DIRECTION ( 'NONE',  ( -0.000000000000000000, -1.000000000000000000, -0.000000000000000000 ) ) ;
#100 = EDGE_LOOP ( 'NONE', ( #297, #321, #276, #152, #157 ) ) ;
#101 = PRODUCT_RELATED_PRODUCT_CATEGORY ( 'part', '', ( #205 ) ) ;
#102 = FACE_OUTER_BOUND ( 'NONE', #350, .T. ) ;
#103 = EDGE_LOOP ( 'NONE', ( #264, #5 ) ) ;
#104 = DIRECTION ( 'NONE',  ( -1.228550797481991114E-16, 1.000000000000000000, -0.000000000000000000 ) ) ;
#105 = PRODUCT_DEFINITION_CONTEXT ( 'detailed design', #1, 'design' ) ;
#106 = MECHANICAL_DESIGN_GEOMETRIC_PRESENTATION_REPRESENTATION (  '', ( #312 ), #296 ) ;
#107 = DIRECTION ( 'NONE',  ( -1.228550797481991114E-16, 1.000000000000000000, -0.000000000000000000 ) ) ;
#108 = LENGTH_MEASURE_WITH_UNIT ( LENGTH_MEASURE( 0.02539999999999999897 ), #204 );
#109 = PLANE ( 'NONE',  #83 ) ;
#110 = DIRECTION ( 'NONE',  ( -1.228550797481991114E-16, 1.000000000000000000, -0.000000000000000000 ) ) ;
#111 = CARTESIAN_POINT ( 'NONE',  ( 0.000000000000000000, 0.3125000000000000555, 0.000000000000000000 ) ) ;
#112 = DIMENSIONAL_EXPONENTS ( 1.000000000000000000, 0.000000000000000000, 0.000000000000000000, 0.000000000000000000, 0.000000000000000000, 0.000000000000000000, 0.000000000000000000 ) ;
#113 = CARTESIAN_POINT ( 'NONE',  ( 0.000000000000000000, 0.3125000000000000555, 0.000000000000000000 ) ) ;
#114 = SURFACE_STYLE_USAGE ( .BOTH. , #337 ) ;
#115 = DIRECTION ( 'NONE',  ( 1.000000000000000000, 0.000000000000000000, 0.000000000000000000 ) ) ;
#116 = CIRCLE ( 'NONE', #96, 0.3124999999999999445 ) ;
#117 = AXIS2_PLACEMENT_3D ( 'NONE', #113, #55, #58 ) ;
#118 = LENGTH_MEASURE_WITH_UNIT ( LENGTH_MEASURE( 0.02539999999999999897 ), #233 );
#119 = EDGE_CURVE ( 'NONE', #98, #127, #328, .T. ) ;
#120 = CARTESIAN_POINT ( 'NONE',  ( 3.988886093481832781E-16, 0.7500000000000001110, 0.000000000000000000 ) ) ;
#121 = SURFACE_SIDE_STYLE ('',( #136 ) ) ;
#122 = CARTESIAN_POINT ( 'NONE',  ( -0.3124999999999996669, 3.000000000000000444, 0.000000000000000000 ) ) ;
#123 = ORIENTED_EDGE ( 'NONE', *, *, #336, .T. ) ;
#124 = EDGE_CURVE ( 'NONE', #67, #238, #317, .T. ) ;
#125 = MECHANICAL_DESIGN_GEOMETRIC_PRESENTATION_REPRESENTATION (  '', ( #75 ), #77 ) ;
#126 = AXIS2_PLACEMENT_3D ( 'NONE', #34, #287, #176 ) ;
#127 = VERTEX_POINT ( 'NONE', #72 ) ;
#128 = EDGE_LOOP ( 'NONE', ( #3, #9, #21, #154 ) ) ;
#129 = UNCERTAINTY_MEASURE_WITH_UNIT (LENGTH_MEASURE( 1.000000000000000082E-05 ), #199, 'distance_accuracy_value', 'NONE');
#130 =( NAMED_UNIT ( * ) SI_UNIT ( $, .STERADIAN. ) SOLID_ANGLE_UNIT ( ) );
#131 = AXIS2_PLACEMENT_3D ( 'NONE', #196, #110, #17 ) ;
#132 = VECTOR ( 'NONE', #363, 39.37007874015748143 ) ;
#133 = DIRECTION ( 'NONE',  ( -1.000000000000000000, 0.000000000000000000, 0.000000000000000000 ) ) ;
#134 = CARTESIAN_POINT ( 'NONE',  ( 0.3124999999999998335, 3.000000000000000444, 3.827021247335475229E-17 ) ) ;
#135 = CARTESIAN_POINT ( 'NONE',  ( 0.000000000000000000, 0.7500000000000001110, -0.3124999999999999445 ) ) ;
#136 = SURFACE_STYLE_FILL_AREA ( #368 ) ;
#137 = MECHANICAL_DESIGN_GEOMETRIC_PRESENTATION_REPRESENTATION (  '', ( #64 ), #292 ) ;
#138 = SURFACE_STYLE_FILL_AREA ( #331 ) ;
#139 = FILL_AREA_STYLE_COLOUR ( '', #373 ) ;
#140 = EDGE_LOOP ( 'NONE', ( #190, #270, #295, #239, #268 ) ) ;
#141 = DIMENSIONAL_EXPONENTS ( 1.000000000000000000, 0.000000000000000000, 0.000000000000000000, 0.000000000000000000, 0.000000000000000000, 0.000000000000000000, 0.000000000000000000 ) ;
#142 = CYLINDRICAL_SURFACE ( 'NONE', #367, 0.3124999999999996669 ) ;
#143 = FILL_AREA_STYLE_COLOUR ( '', #361 ) ;
#144 = CIRCLE ( 'NONE', #167, 0.3125000000000000000 ) ;
#145 = PRESENTATION_STYLE_ASSIGNMENT (( #114 ) ) ;
#146 = PRESENTATION_STYLE_ASSIGNMENT (( #185 ) ) ;
#147 = LENGTH_MEASURE_WITH_UNIT ( LENGTH_MEASURE( 0.02539999999999999897 ), #60 );
#148 = STYLED_ITEM ( 'NONE', ( #228 ), #349 ) ;
#149 = LENGTH_MEASURE_WITH_UNIT ( LENGTH_MEASURE( 0.02539999999999999897 ), #85 );
#150 = PRODUCT_CONTEXT ( 'NONE', #39, 'mechanical' ) ;
#151 =( NAMED_UNIT ( * ) PLANE_ANGLE_UNIT ( ) SI_UNIT ( $, .RADIAN. ) );
#152 = ORIENTED_EDGE ( 'NONE', *, *, #36, .F. ) ;
#153 = AXIS2_PLACEMENT_3D ( 'NONE', #277, #99, #38 ) ;
#154 = ORIENTED_EDGE ( 'NONE', *, *, #330, .T. ) ;
#155 =( CONVERSION_BASED_UNIT ( 'INCH', #298 ) LENGTH_UNIT ( ) NAMED_UNIT ( #306 ) );
#156 = UNCERTAINTY_MEASURE_WITH_UNIT (LENGTH_MEASURE( 1.000000000000000082E-05 ), #174, 'distance_accuracy_value', 'NONE');
#157 = ORIENTED_EDGE ( 'NONE', *, *, #315, .F. ) ;
#158 = DIRECTION ( 'NONE',  ( -1.000000000000000000, 0.000000000000000000, 0.000000000000000000 ) ) ;
#159 = AXIS2_PLACEMENT_3D ( 'NONE', #365, #303, #326 ) ;
#160 =( GEOMETRIC_REPRESENTATION_CONTEXT ( 3 ) GLOBAL_UNCERTAINTY_ASSIGNED_CONTEXT ( ( #248 ) ) GLOBAL_UNIT_ASSIGNED_CONTEXT ( ( #340, #54, #37 ) ) REPRESENTATION_CONTEXT ( 'NONE', 'WORKASPACE' ) );
#161 = DIRECTION ( 'NONE',  ( 0.000000000000000000, 0.000000000000000000, -1.000000000000000000 ) ) ;
#162 = DIRECTION ( 'NONE',  ( -1.228550797481991114E-16, 1.000000000000000000, 0.000000000000000000 ) ) ;
#163 = CARTESIAN_POINT ( 'NONE',  ( -0.3125000000000000000, 0.3125000000000000555, 3.827021247335477694E-17 ) ) ;
#164 = SPHERICAL_SURFACE ( 'NONE', #59, 0.3125000000000000000 ) ;
#165 = VERTEX_POINT ( 'NONE', #300 ) ;
#166 =( NAMED_UNIT ( * ) PLANE_ANGLE_UNIT ( ) SI_UNIT ( $, .RADIAN. ) );
#167 = AXIS2_PLACEMENT_3D ( 'NONE', #175, #51, #16 ) ;
#168 = ORIENTED_EDGE ( 'NONE', *, *, #180, .F. ) ;
#169 = AXIS2_PLACEMENT_3D ( 'NONE', #234, #345, #115 ) ;
#170 = SURFACE_STYLE_FILL_AREA ( #304 ) ;
#171 = DIMENSIONAL_EXPONENTS ( 1.000000000000000000, 0.000000000000000000, 0.000000000000000000, 0.000000000000000000, 0.000000000000000000, 0.000000000000000000, 0.000000000000000000 ) ;
#172 = EDGE_LOOP ( 'NONE', ( #168, #215, #354, #186 ) ) ;
#173 = CARTESIAN_POINT ( 'NONE',  ( 0.000000000000000000, 0.7500000000000001110, 0.000000000000000000 ) ) ;
#174 =( CONVERSION_BASED_UNIT ( 'INCH', #149 ) LENGTH_UNIT ( ) NAMED_UNIT ( #112 ) );
#175 = CARTESIAN_POINT ( 'NONE',  ( 0.000000000000000000, 0.3125000000000000555, 0.000000000000000000 ) ) ;
#176 = DIRECTION ( 'NONE',  ( 1.000000000000000000, 0.000000000000000000, 0.000000000000000000 ) ) ;
#177 = EDGE_CURVE ( 'NONE', #238, #67, #43, .T. ) ;
#178 = SPHERICAL_SURFACE ( 'NONE', #126, 0.3125000000000000000 ) ;
#179 = DIMENSIONAL_EXPONENTS ( 1.000000000000000000, 0.000000000000000000, 0.000000000000000000, 0.000000000000000000, 0.000000000000000000, 0.000000000000000000, 0.000000000000000000 ) ;
#180 = EDGE_CURVE ( 'NONE', #67, #305, #12, .T. ) ;
#181 = FILL_AREA_STYLE_COLOUR ( '', #348 ) ;
#182 = COLOUR_RGB ( '',1.000000000000000000, 0.000000000000000000, 0.000000000000000000 ) ;
#183 = ADVANCED_FACE ( 'NONE', ( #47 ), #178, .T. ) ;
#184 = DIRECTION ( 'NONE',  ( 0.000000000000000000, 0.000000000000000000, 1.000000000000000000 ) ) ;
#185 = SURFACE_STYLE_USAGE ( .BOTH. , #121 ) ;
#186 = ORIENTED_EDGE ( 'NONE', *, *, #90, .F. ) ;
#187 = VECTOR ( 'NONE', #82, 39.37007874015748143 ) ;
#188 = CIRCLE ( 'NONE', #232, 0.3125000000000000000 ) ;
#189 = PRESENTATION_LAYER_ASSIGNMENT (  '', '', ( #343 ) ) ;
#190 = ORIENTED_EDGE ( 'NONE', *, *, #63, .F. ) ;
#191 = EDGE_CURVE ( 'NONE', #92, #127, #194, .T. ) ;
#192 = ORIENTED_EDGE ( 'NONE', *, *, #20, .F. ) ;
#193 = CARTESIAN_POINT ( 'NONE',  ( 0.3124999999999999445, 3.000000000000000444, 0.000000000000000000 ) ) ;
#194 = CIRCLE ( 'NONE', #84, 0.3125000000000000000 ) ;
#195 =( GEOMETRIC_REPRESENTATION_CONTEXT ( 3 ) GLOBAL_UNCERTAINTY_ASSIGNED_CONTEXT ( ( #273 ) ) GLOBAL_UNIT_ASSIGNED_CONTEXT ( ( #93, #151, #31 ) ) REPRESENTATION_CONTEXT ( 'NONE', 'WORKASPACE' ) );
#196 = CARTESIAN_POINT ( 'NONE',  ( 1.224646799147352714E-16, 3.000000000000000444, 0.000000000000000000 ) ) ;
#197 = FACE_OUTER_BOUND ( 'NONE', #263, .T. ) ;
#198 = DIRECTION ( 'NONE',  ( -1.000000000000000000, 0.000000000000000000, 0.000000000000000000 ) ) ;
#199 =( CONVERSION_BASED_UNIT ( 'INCH', #79 ) LENGTH_UNIT ( ) NAMED_UNIT ( #227 ) );
#200 = CARTESIAN_POINT ( 'NONE',  ( 1.224646799147352714E-16, 3.000000000000000444, 0.000000000000000000 ) ) ;
#201 = PRESENTATION_STYLE_ASSIGNMENT (( #81 ) ) ;
#202 = DIRECTION ( 'NONE',  ( -0.000000000000000000, -1.000000000000000000, -0.000000000000000000 ) ) ;
#203 = PLANE ( 'NONE',  #212 ) ;
#204 =( LENGTH_UNIT ( ) NAMED_UNIT ( * ) SI_UNIT ( $, .METRE. ) );
#205 = PRODUCT ( '56557', '56557', '', ( #150 ) ) ;
#206 = FILL_AREA_STYLE_COLOUR ( '', #182 ) ;
#207 = DIRECTION ( 'NONE',  ( -0.000000000000000000, -1.000000000000000000, -0.000000000000000000 ) ) ;
#208 = ADVANCED_FACE ( 'NONE', ( #210 ), #203, .T. ) ;
#209 =( GEOMETRIC_REPRESENTATION_CONTEXT ( 3 ) GLOBAL_UNCERTAINTY_ASSIGNED_CONTEXT ( ( #352 ) ) GLOBAL_UNIT_ASSIGNED_CONTEXT ( ( #35, #66, #261 ) ) REPRESENTATION_CONTEXT ( 'NONE', 'WORKASPACE' ) );
#210 = FACE_OUTER_BOUND ( 'NONE', #103, .T. ) ;
#211 = CLOSED_SHELL ( 'NONE', ( #183, #320, #208, #216, #269 ) ) ;
#212 = AXIS2_PLACEMENT_3D ( 'NONE', #173, #313, #283 ) ;
#213 = ORIENTED_EDGE ( 'NONE', *, *, #119, .F. ) ;
#214 = APPLICATION_PROTOCOL_DEFINITION ( 'draft international standard', 'automotive_design', 1998, #39 ) ;
#215 = ORIENTED_EDGE ( 'NONE', *, *, #124, .T. ) ;
#216 = ADVANCED_FACE ( 'NONE', ( #288 ), #62, .T. ) ;
#217 =( LENGTH_UNIT ( ) NAMED_UNIT ( * ) SI_UNIT ( $, .METRE. ) );
#218 = FILL_AREA_STYLE_COLOUR ( '', #221 ) ;
#219 = DIRECTION ( 'NONE',  ( -0.000000000000000000, -1.000000000000000000, -0.000000000000000000 ) ) ;
#220 = FILL_AREA_STYLE ('',( #218 ) ) ;
#221 = COLOUR_RGB ( '',1.000000000000000000, 0.000000000000000000, 0.000000000000000000 ) ;
#222 = FILL_AREA_STYLE_COLOUR ( '', #235 ) ;
#223 =( LENGTH_UNIT ( ) NAMED_UNIT ( * ) SI_UNIT ( $, .METRE. ) );
#224 = CARTESIAN_POINT ( 'NONE',  ( -0.3124999999999995559, 3.000000000000000444, 0.000000000000000000 ) ) ;
#225 = DIRECTION ( 'NONE',  ( -0.000000000000000000, -1.000000000000000000, -0.000000000000000000 ) ) ;
#226 = CARTESIAN_POINT ( 'NONE',  ( 0.3124999999999999445, 0.7499999999999998890, 3.827021247335475845E-17 ) ) ;
#227 = DIMENSIONAL_EXPONENTS ( 1.000000000000000000, 0.000000000000000000, 0.000000000000000000, 0.000000000000000000, 0.000000000000000000, 0.000000000000000000, 0.000000000000000000 ) ;
#228 = PRESENTATION_STYLE_ASSIGNMENT (( #280 ) ) ;
#229 =( CONVERSION_BASED_UNIT ( 'INCH', #108 ) LENGTH_UNIT ( ) NAMED_UNIT ( #333 ) );
#230 = FILL_AREA_STYLE ('',( #181 ) ) ;
#231 =( LENGTH_UNIT ( ) NAMED_UNIT ( * ) SI_UNIT ( $, .METRE. ) );
#232 = AXIS2_PLACEMENT_3D ( 'NONE', #111, #207, #53 ) ;
#233 =( LENGTH_UNIT ( ) NAMED_UNIT ( * ) SI_UNIT ( $, .METRE. ) );
#234 = CARTESIAN_POINT ( 'NONE',  ( 0.000000000000000000, 0.000000000000000000, 0.000000000000000000 ) ) ;
#235 = COLOUR_RGB ( '',1.000000000000000000, 0.000000000000000000, 0.000000000000000000 ) ;
#236 = LENGTH_MEASURE_WITH_UNIT ( LENGTH_MEASURE( 0.02539999999999999897 ), #314 );
#237 = MECHANICAL_DESIGN_GEOMETRIC_PRESENTATION_REPRESENTATION (  '', ( #343 ), #209 ) ;
#238 = VERTEX_POINT ( 'NONE', #318 ) ;
#239 = ORIENTED_EDGE ( 'NONE', *, *, #336, .F. ) ;
#240 = AXIS2_PLACEMENT_3D ( 'NONE', #327, #202, #161 ) ;
#241 = MECHANICAL_DESIGN_GEOMETRIC_PRESENTATION_REPRESENTATION (  '', ( #148 ), #243 ) ;
#242 =( CONVERSION_BASED_UNIT ( 'INCH', #247 ) LENGTH_UNIT ( ) NAMED_UNIT ( #179 ) );
#243 =( GEOMETRIC_REPRESENTATION_CONTEXT ( 3 ) GLOBAL_UNCERTAINTY_ASSIGNED_CONTEXT ( ( #129 ) ) GLOBAL_UNIT_ASSIGNED_CONTEXT ( ( #199, #22, #338 ) ) REPRESENTATION_CONTEXT ( 'NONE', 'WORKASPACE' ) );
#244 = EDGE_CURVE ( 'NONE', #294, #305, #4, .T. ) ;
#245 = CARTESIAN_POINT ( 'NONE',  ( 0.3124999999999999445, 3.000000000000000444, 3.827021247335475845E-17 ) ) ;
#246 = FACE_OUTER_BOUND ( 'NONE', #172, .T. ) ;
#247 = LENGTH_MEASURE_WITH_UNIT ( LENGTH_MEASURE( 0.02539999999999999897 ), #231 );
#248 = UNCERTAINTY_MEASURE_WITH_UNIT (LENGTH_MEASURE( 1.000000000000000082E-05 ), #340, 'distance_accuracy_value', 'NONE');
#249 = CARTESIAN_POINT ( 'NONE',  ( 3.988886093481833274E-16, 0.7499999999999998890, 0.000000000000000000 ) ) ;
#250 = CYLINDRICAL_SURFACE ( 'NONE', #251, 0.3125000000000000000 ) ;
#251 = AXIS2_PLACEMENT_3D ( 'NONE', #27, #225, #371 ) ;
#252 = SURFACE_STYLE_USAGE ( .BOTH. , #78 ) ;
#253 = FACE_OUTER_BOUND ( 'NONE', #68, .T. ) ;
#254 = DIRECTION ( 'NONE',  ( 1.224646799147353207E-16, -0.000000000000000000, 1.000000000000000000 ) ) ;
#255 = AXIS2_PLACEMENT_3D ( 'NONE', #249, #80, #198 ) ;
#256 = DIRECTION ( 'NONE',  ( -1.000000000000000000, 0.000000000000000000, 0.000000000000000000 ) ) ;
#257 = ADVANCED_FACE ( 'NONE', ( #102 ), #69, .F. ) ;
#258 = EDGE_CURVE ( 'NONE', #351, #95, #50, .T. ) ;
#259 =( GEOMETRIC_REPRESENTATION_CONTEXT ( 3 ) GLOBAL_UNCERTAINTY_ASSIGNED_CONTEXT ( ( #14 ) ) GLOBAL_UNIT_ASSIGNED_CONTEXT ( ( #155, #73, #130 ) ) REPRESENTATION_CONTEXT ( 'NONE', 'WORKASPACE' ) );
#260 = SURFACE_SIDE_STYLE ('',( #24 ) ) ;
#261 =( NAMED_UNIT ( * ) SI_UNIT ( $, .STERADIAN. ) SOLID_ANGLE_UNIT ( ) );
#262 = DIRECTION ( 'NONE',  ( 1.000000000000000000, 0.000000000000000000, 0.000000000000000000 ) ) ;
#263 = EDGE_LOOP ( 'NONE', ( #213, #123, #322, #278 ) ) ;
#264 = ORIENTED_EDGE ( 'NONE', *, *, #30, .F. ) ;
#265 = PRESENTATION_LAYER_ASSIGNMENT (  '', '', ( #312 ) ) ;
#266 = COLOUR_RGB ( '',1.000000000000000000, 0.000000000000000000, 0.000000000000000000 ) ;
#267 = ORIENTED_EDGE ( 'NONE', *, *, #177, .T. ) ;
#268 = ORIENTED_EDGE ( 'NONE', *, *, #324, .F. ) ;
#269 = ADVANCED_FACE ( 'NONE', ( #197 ), #164, .T. ) ;
#270 = ORIENTED_EDGE ( 'NONE', *, *, #258, .T. ) ;
#271 = PRESENTATION_LAYER_ASSIGNMENT (  '', '', ( #342 ) ) ;
#272 = CARTESIAN_POINT ( 'NONE',  ( 0.000000000000000000, 0.7500000000000001110, 0.000000000000000000 ) ) ;
#273 = UNCERTAINTY_MEASURE_WITH_UNIT (LENGTH_MEASURE( 1.000000000000000082E-05 ), #93, 'distance_accuracy_value', 'NONE');
#274 = LINE ( 'NONE', #76, #25 ) ;
#275 = CARTESIAN_POINT ( 'NONE',  ( 1.224646799147352714E-16, 3.000000000000000444, 0.000000000000000000 ) ) ;
#276 = ORIENTED_EDGE ( 'NONE', *, *, #330, .F. ) ;
#277 = CARTESIAN_POINT ( 'NONE',  ( 0.000000000000000000, 0.000000000000000000, 0.000000000000000000 ) ) ;
#278 = ORIENTED_EDGE ( 'NONE', *, *, #191, .T. ) ;
#279 = VERTEX_POINT ( 'NONE', #325 ) ;
#280 = SURFACE_STYLE_USAGE ( .BOTH. , #48 ) ;
#281 = CARTESIAN_POINT ( 'NONE',  ( -3.827021247335478926E-17, 0.3125000000000000000, 0.000000000000000000 ) ) ;
#282 = CARTESIAN_POINT ( 'NONE',  ( 3.827021247335477694E-17, 0.7500000000000001110, 0.3124999999999999445 ) ) ;
#283 = DIRECTION ( 'NONE',  ( 0.000000000000000000, -0.000000000000000000, 1.000000000000000000 ) ) ;
#284 = SURFACE_STYLE_FILL_AREA ( #86 ) ;
#285 = PRESENTATION_LAYER_ASSIGNMENT (  '', '', ( #75 ) ) ;
#286 = PRESENTATION_LAYER_ASSIGNMENT (  '', '', ( #97 ) ) ;
#287 = DIRECTION ( 'NONE',  ( 0.000000000000000000, 0.000000000000000000, 1.000000000000000000 ) ) ;
#288 = FACE_OUTER_BOUND ( 'NONE', #140, .T. ) ;
#289 = SURFACE_STYLE_FILL_AREA ( #316 ) ;
#290 = ADVANCED_FACE ( 'NONE', ( #299 ), #71, .T. ) ;
#291 = CIRCLE ( 'NONE', #131, 0.3124999999999998335 ) ;
#292 =( GEOMETRIC_REPRESENTATION_CONTEXT ( 3 ) GLOBAL_UNCERTAINTY_ASSIGNED_CONTEXT ( ( #70 ) ) GLOBAL_UNIT_ASSIGNED_CONTEXT ( ( #242, #293, #347 ) ) REPRESENTATION_CONTEXT ( 'NONE', 'WORKASPACE' ) );
#293 =( NAMED_UNIT ( * ) PLANE_ANGLE_UNIT ( ) SI_UNIT ( $, .RADIAN. ) );
#294 = VERTEX_POINT ( 'NONE', #122 ) ;
#295 = ORIENTED_EDGE ( 'NONE', *, *, #315, .T. ) ;
#296 =( GEOMETRIC_REPRESENTATION_CONTEXT ( 3 ) GLOBAL_UNCERTAINTY_ASSIGNED_CONTEXT ( ( #74 ) ) GLOBAL_UNIT_ASSIGNED_CONTEXT ( ( #229, #166, #310 ) ) REPRESENTATION_CONTEXT ( 'NONE', 'WORKASPACE' ) );
#297 = ORIENTED_EDGE ( 'NONE', *, *, #30, .T. ) ;
#298 = LENGTH_MEASURE_WITH_UNIT ( LENGTH_MEASURE( 0.02539999999999999897 ), #217 );
#299 = FACE_OUTER_BOUND ( 'NONE', #335, .T. ) ;
#300 = CARTESIAN_POINT ( 'NONE',  ( 3.827021247335478926E-17, 0.3125000000000000555, 0.3125000000000000000 ) ) ;
#301 = LINE ( 'NONE', #45, #132 ) ;
#302 = DIRECTION ( 'NONE',  ( 1.000000000000000000, 1.228550797481991114E-16, 0.000000000000000000 ) ) ;
#303 = DIRECTION ( 'NONE',  ( -1.228550797481991114E-16, 1.000000000000000000, -0.000000000000000000 ) ) ;
#304 = FILL_AREA_STYLE ('',( #139 ) ) ;
#305 = VERTEX_POINT ( 'NONE', #245 ) ;
#306 = DIMENSIONAL_EXPONENTS ( 1.000000000000000000, 0.000000000000000000, 0.000000000000000000, 0.000000000000000000, 0.000000000000000000, 0.000000000000000000, 0.000000000000000000 ) ;
#307 = CIRCLE ( 'NONE', #117, 0.3125000000000000000 ) ;
#308 = DIRECTION ( 'NONE',  ( -1.000000000000000000, 0.000000000000000000, 0.000000000000000000 ) ) ;
#309 = FILL_AREA_STYLE_COLOUR ( '', #266 ) ;
#310 =( NAMED_UNIT ( * ) SI_UNIT ( $, .STERADIAN. ) SOLID_ANGLE_UNIT ( ) );
#311 = SURFACE_SIDE_STYLE ('',( #284 ) ) ;
#312 = STYLED_ITEM ( 'NONE', ( #201 ), #320 ) ;
#313 = DIRECTION ( 'NONE',  ( 0.000000000000000000, 1.000000000000000000, 0.000000000000000000 ) ) ;
#314 =( LENGTH_UNIT ( ) NAMED_UNIT ( * ) SI_UNIT ( $, .METRE. ) );
#315 = EDGE_CURVE ( 'NONE', #95, #279, #301, .T. ) ;
#316 = FILL_AREA_STYLE ('',( #206 ) ) ;
#317 = CIRCLE ( 'NONE', #159, 0.3124999999999995559 ) ;
#318 = CARTESIAN_POINT ( 'NONE',  ( -0.3124999999999991118, 0.7499999999999998890, 0.000000000000000000 ) ) ;
#319 = PRESENTATION_LAYER_ASSIGNMENT (  '', '', ( #64 ) ) ;
#320 = ADVANCED_FACE ( 'NONE', ( #334 ), #250, .T. ) ;
#321 = ORIENTED_EDGE ( 'NONE', *, *, #63, .T. ) ;
#322 = ORIENTED_EDGE ( 'NONE', *, *, #36, .T. ) ;
#323 = AXIS2_PLACEMENT_3D ( 'NONE', #65, #2, #158 ) ;
#324 = EDGE_CURVE ( 'NONE', #165, #98, #307, .T. ) ;
#325 = CARTESIAN_POINT ( 'NONE',  ( 0.000000000000000000, 0.3125000000000000555, -0.3125000000000000000 ) ) ;
#326 = DIRECTION ( 'NONE',  ( -1.000000000000000000, 0.000000000000000000, 0.000000000000000000 ) ) ;
#327 = CARTESIAN_POINT ( 'NONE',  ( 0.000000000000000000, 0.3125000000000000555, 0.000000000000000000 ) ) ;
#328 = CIRCLE ( 'NONE', #8, 0.3125000000000000000 ) ;
#329 = PRESENTATION_STYLE_ASSIGNMENT (( #40 ) ) ;
#330 = EDGE_CURVE ( 'NONE', #92, #165, #188, .T. ) ;
#331 = FILL_AREA_STYLE ('',( #222 ) ) ;
#332 = DIRECTION ( 'NONE',  ( 1.000000000000000000, 0.000000000000000000, -1.224646799147353207E-16 ) ) ;
#333 = DIMENSIONAL_EXPONENTS ( 1.000000000000000000, 0.000000000000000000, 0.000000000000000000, 0.000000000000000000, 0.000000000000000000, 0.000000000000000000, 0.000000000000000000 ) ;
#334 = FACE_OUTER_BOUND ( 'NONE', #100, .T. ) ;
#335 = EDGE_LOOP ( 'NONE', ( #267, #6, #357, #192 ) ) ;
#336 = EDGE_CURVE ( 'NONE', #98, #279, #144, .T. ) ;
#337 = SURFACE_SIDE_STYLE ('',( #289 ) ) ;
#338 =( NAMED_UNIT ( * ) SI_UNIT ( $, .STERADIAN. ) SOLID_ANGLE_UNIT ( ) );
#339 =( NAMED_UNIT ( * ) SI_UNIT ( $, .STERADIAN. ) SOLID_ANGLE_UNIT ( ) );
#340 =( CONVERSION_BASED_UNIT ( 'INCH', #147 ) LENGTH_UNIT ( ) NAMED_UNIT ( #61 ) );
#341 = APPLICATION_PROTOCOL_DEFINITION ( 'draft international standard', 'automotive_design', 1998, #1 ) ;
#342 = STYLED_ITEM ( 'NONE', ( #329 ), #269 ) ;
#343 = STYLED_ITEM ( 'NONE', ( #146 ), #370 ) ;
#344 = CARTESIAN_POINT ( 'NONE',  ( -3.827021247335478926E-17, 0.3125000000000000000, 0.000000000000000000 ) ) ;
#345 = DIRECTION ( 'NONE',  ( 0.000000000000000000, 0.000000000000000000, 1.000000000000000000 ) ) ;
#346 = VECTOR ( 'NONE', #15, 39.37007874015748143 ) ;
#347 =( NAMED_UNIT ( * ) SI_UNIT ( $, .STERADIAN. ) SOLID_ANGLE_UNIT ( ) );
#348 = COLOUR_RGB ( '',1.000000000000000000, 0.000000000000000000, 0.000000000000000000 ) ;
#349 = MANIFOLD_SOLID_BREP ( 'Revolve - Tool Body (Straight Shanked)', #89 ) ;
#350 = EDGE_LOOP ( 'NONE', ( #52, #358 ) ) ;
#351 = VERTEX_POINT ( 'NONE', #282 ) ;
#352 = UNCERTAINTY_MEASURE_WITH_UNIT (LENGTH_MEASURE( 1.000000000000000082E-05 ), #35, 'distance_accuracy_value', 'NONE');
#353 = CIRCLE ( 'NONE', #240, 0.3125000000000000000 ) ;
#354 = ORIENTED_EDGE ( 'NONE', *, *, #20, .T. ) ;
#355 = PRESENTATION_LAYER_ASSIGNMENT (  '', '', ( #148 ) ) ;
#356 = DIRECTION ( 'NONE',  ( -0.000000000000000000, -1.000000000000000000, -0.000000000000000000 ) ) ;
#357 = ORIENTED_EDGE ( 'NONE', *, *, #244, .F. ) ;
#358 = ORIENTED_EDGE ( 'NONE', *, *, #124, .F. ) ;
#359 = SURFACE_SIDE_STYLE ('',( #11 ) ) ;
#360 = CARTESIAN_POINT ( 'NONE',  ( -3.827021247335478926E-17, 0.3125000000000000000, 0.000000000000000000 ) ) ;
#361 = COLOUR_RGB ( '',0.7921568627450980005, 0.8196078431372548767, 0.9333333333333333481 ) ;
#362 = DIRECTION ( 'NONE',  ( 1.228550797481991114E-16, -1.000000000000000000, 0.000000000000000000 ) ) ;
#363 = DIRECTION ( 'NONE',  ( -0.000000000000000000, -1.000000000000000000, -0.000000000000000000 ) ) ;
#364 = CARTESIAN_POINT ( 'NONE',  ( 0.000000000000000000, 0.7500000000000001110, 0.000000000000000000 ) ) ;
#365 = CARTESIAN_POINT ( 'NONE',  ( 3.988886093481833274E-16, 0.7499999999999998890, 0.000000000000000000 ) ) ;
#366 = PRODUCT_DEFINITION ( 'UNKNOWN', '', #19, #105 ) ;
#367 = AXIS2_PLACEMENT_3D ( 'NONE', #200, #107, #308 ) ;
#368 = FILL_AREA_STYLE ('',( #143 ) ) ;
#369 = MECHANICAL_DESIGN_GEOMETRIC_PRESENTATION_REPRESENTATION (  '', ( #97 ), #160 ) ;
#370 = MANIFOLD_SOLID_BREP ( 'Revolve - Cutting Edge', #211 ) ;
#371 = DIRECTION ( 'NONE',  ( 0.000000000000000000, 0.000000000000000000, -1.000000000000000000 ) ) ;
#372 = DIRECTION ( 'NONE',  ( 0.000000000000000000, 0.000000000000000000, -1.000000000000000000 ) ) ;
#373 = COLOUR_RGB ( '',0.7921568627450980005, 0.8196078431372548767, 0.9333333333333333481 ) ;
ENDSEC;
END-ISO-10303-21;
