ISO-10303-21;
HEADER;
FILE_DESCRIPTION (( 'STEP AP214' ),
    '1' );
FILE_NAME ('00152.STEP',
    '2023-06-22T14:03:21',
    ( '' ),
    ( '' ),
    'SwSTEP 2.0',
    'SolidWorks 2023',
    '' );
FILE_SCHEMA (( 'AUTOMOTIVE_DESIGN' ));
ENDSEC;

DATA;
#1 = DIRECTION ( 'NONE',  ( 1.000000000000000000, 0.000000000000000000, 0.000000000000000000 ) ) ;
#2 = ADVANCED_FACE ( 'NONE', ( #301 ), #186, .T. ) ;
#3 = CARTESIAN_POINT ( 'NONE',  ( 0.000000000000000000, 0.3750000000000000555, -0.1250000000000000000 ) ) ;
#4 = PLANE ( 'NONE',  #241 ) ;
#5 = COLOUR_RGB ( '',1.000000000000000000, 0.000000000000000000, 0.000000000000000000 ) ;
#6 = LENGTH_MEASURE_WITH_UNIT ( LENGTH_MEASURE( 0.02539999999999999897 ), #57 );
#7 = CIRCLE ( 'NONE', #187, 0.1250000000000000000 ) ;
#8 = PRODUCT_RELATED_PRODUCT_CATEGORY ( 'part', '', ( #284 ) ) ;
#9 = ORIENTED_EDGE ( 'NONE', *, *, #85, .T. ) ;
#10 = EDGE_LOOP ( 'NONE', ( #144, #109, #25, #42 ) ) ;
#11 = DIMENSIONAL_EXPONENTS ( 1.000000000000000000, 0.000000000000000000, 0.000000000000000000, 0.000000000000000000, 0.000000000000000000, 0.000000000000000000, 0.000000000000000000 ) ;
#12 = AXIS2_PLACEMENT_3D ( 'NONE', #211, #193, #1 ) ;
#13 = ADVANCED_FACE ( 'NONE', ( #60 ), #33, .F. ) ;
#14 = DIMENSIONAL_EXPONENTS ( 1.000000000000000000, 0.000000000000000000, 0.000000000000000000, 0.000000000000000000, 0.000000000000000000, 0.000000000000000000, 0.000000000000000000 ) ;
#15 = CARTESIAN_POINT ( 'NONE',  ( 0.000000000000000000, 0.000000000000000000, -0.1250000000000000000 ) ) ;
#16 = DIRECTION ( 'NONE',  ( -3.768143997376469510E-17, 1.000000000000000000, -0.000000000000000000 ) ) ;
#17 = AXIS2_PLACEMENT_3D ( 'NONE', #294, #291, #48 ) ;
#18 =( NAMED_UNIT ( * ) PLANE_ANGLE_UNIT ( ) SI_UNIT ( $, .RADIAN. ) );
#19 = DIRECTION ( 'NONE',  ( -3.768143997376469510E-17, 1.000000000000000000, -0.000000000000000000 ) ) ;
#20 = PRESENTATION_LAYER_ASSIGNMENT (  '', '', ( #175 ) ) ;
#21 = FACE_OUTER_BOUND ( 'NONE', #71, .T. ) ;
#22 = VECTOR ( 'NONE', #31, 39.37007874015748143 ) ;
#23 = EDGE_LOOP ( 'NONE', ( #125, #130, #150, #239 ) ) ;
#24 = DIRECTION ( 'NONE',  ( -1.000000000000000000, 0.000000000000000000, 0.000000000000000000 ) ) ;
#25 = ORIENTED_EDGE ( 'NONE', *, *, #110, .T. ) ;
#26 = ADVANCED_FACE ( 'NONE', ( #181 ), #81, .T. ) ;
#27 = DIRECTION ( 'NONE',  ( -0.000000000000000000, -1.000000000000000000, -0.000000000000000000 ) ) ;
#28 = FILL_AREA_STYLE_COLOUR ( '', #90 ) ;
#29 = DIRECTION ( 'NONE',  ( -3.768143997376469510E-17, 1.000000000000000000, -0.000000000000000000 ) ) ;
#30 = SURFACE_STYLE_USAGE ( .BOTH. , #244 ) ;
#31 = DIRECTION ( 'NONE',  ( -0.000000000000000000, -1.000000000000000000, -0.000000000000000000 ) ) ;
#32 = PRESENTATION_LAYER_ASSIGNMENT (  '', '', ( #259 ) ) ;
#33 = PLANE ( 'NONE',  #114 ) ;
#34 = CARTESIAN_POINT ( 'NONE',  ( -6.123233995736763571E-17, 2.000000000000000000, 0.000000000000000000 ) ) ;
#35 = DIRECTION ( 'NONE',  ( -0.000000000000000000, -1.000000000000000000, -0.000000000000000000 ) ) ;
#36 = COLOUR_RGB ( '',1.000000000000000000, 0.000000000000000000, 0.000000000000000000 ) ;
#37 = VECTOR ( 'NONE', #19, 39.37007874015748143 ) ;
#38 = CARTESIAN_POINT ( 'NONE',  ( 0.000000000000000000, 0.000000000000000000, 0.000000000000000000 ) ) ;
#39 = PRODUCT_DEFINITION_CONTEXT ( 'detailed design', #55, 'design' ) ;
#40 = PRESENTATION_STYLE_ASSIGNMENT (( #166 ) ) ;
#41 = AXIS2_PLACEMENT_3D ( 'NONE', #140, #115, #280 ) ;
#42 = ORIENTED_EDGE ( 'NONE', *, *, #283, .F. ) ;
#43 =( NAMED_UNIT ( * ) PLANE_ANGLE_UNIT ( ) SI_UNIT ( $, .RADIAN. ) );
#44 =( CONVERSION_BASED_UNIT ( 'INCH', #240 ) LENGTH_UNIT ( ) NAMED_UNIT ( #14 ) );
#45 = ORIENTED_EDGE ( 'NONE', *, *, #199, .F. ) ;
#46 = LENGTH_MEASURE_WITH_UNIT ( LENGTH_MEASURE( 0.02539999999999999897 ), #219 );
#47 = FILL_AREA_STYLE ('',( #289 ) ) ;
#48 = DIRECTION ( 'NONE',  ( -1.000000000000000000, 0.000000000000000000, 0.000000000000000000 ) ) ;
#49 = MECHANICAL_DESIGN_GEOMETRIC_PRESENTATION_REPRESENTATION (  '', ( #175 ), #272 ) ;
#50 = DIMENSIONAL_EXPONENTS ( 1.000000000000000000, 0.000000000000000000, 0.000000000000000000, 0.000000000000000000, 0.000000000000000000, 0.000000000000000000, 0.000000000000000000 ) ;
#51 =( NAMED_UNIT ( * ) SI_UNIT ( $, .STERADIAN. ) SOLID_ANGLE_UNIT ( ) );
#52 =( GEOMETRIC_REPRESENTATION_CONTEXT ( 3 ) GLOBAL_UNCERTAINTY_ASSIGNED_CONTEXT ( ( #100 ) ) GLOBAL_UNIT_ASSIGNED_CONTEXT ( ( #266, #236, #53 ) ) REPRESENTATION_CONTEXT ( 'NONE', 'WORKASPACE' ) );
#53 =( NAMED_UNIT ( * ) SI_UNIT ( $, .STERADIAN. ) SOLID_ANGLE_UNIT ( ) );
#54 = EDGE_CURVE ( 'NONE', #299, #153, #59, .T. ) ;
#55 = APPLICATION_CONTEXT ( 'automotive_design' ) ;
#56 = DIRECTION ( 'NONE',  ( 0.000000000000000000, -1.000000000000000000, -0.000000000000000000 ) ) ;
#57 =( LENGTH_UNIT ( ) NAMED_UNIT ( * ) SI_UNIT ( $, .METRE. ) );
#58 = FILL_AREA_STYLE ('',( #158 ) ) ;
#59 = LINE ( 'NONE', #203, #22 ) ;
#60 = FACE_OUTER_BOUND ( 'NONE', #265, .T. ) ;
#61 =( NAMED_UNIT ( * ) SI_UNIT ( $, .STERADIAN. ) SOLID_ANGLE_UNIT ( ) );
#62 = EDGE_CURVE ( 'NONE', #216, #153, #214, .T. ) ;
#63 =( LENGTH_UNIT ( ) NAMED_UNIT ( * ) SI_UNIT ( $, .METRE. ) );
#64 = PRESENTATION_STYLE_ASSIGNMENT (( #255 ) ) ;
#65 = CARTESIAN_POINT ( 'NONE',  ( 0.000000000000000000, 0.000000000000000000, 0.000000000000000000 ) ) ;
#66 = SURFACE_STYLE_FILL_AREA ( #72 ) ;
#67 = ORIENTED_EDGE ( 'NONE', *, *, #180, .T. ) ;
#68 = LENGTH_MEASURE_WITH_UNIT ( LENGTH_MEASURE( 0.02539999999999999897 ), #215 );
#69 =( GEOMETRIC_REPRESENTATION_CONTEXT ( 3 ) GLOBAL_UNCERTAINTY_ASSIGNED_CONTEXT ( ( #292 ) ) GLOBAL_UNIT_ASSIGNED_CONTEXT ( ( #176, #43, #131 ) ) REPRESENTATION_CONTEXT ( 'NONE', 'WORKASPACE' ) );
#70 = PRESENTATION_LAYER_ASSIGNMENT (  '', '', ( #154 ) ) ;
#71 = EDGE_LOOP ( 'NONE', ( #235, #9, #83, #285 ) ) ;
#72 = FILL_AREA_STYLE ('',( #238 ) ) ;
#73 = CIRCLE ( 'NONE', #107, 0.1250000000000000000 ) ;
#74 = DIRECTION ( 'NONE',  ( -1.000000000000000000, -3.768143997376469510E-17, 0.000000000000000000 ) ) ;
#75 = EDGE_LOOP ( 'NONE', ( #45, #121 ) ) ;
#76 = FILL_AREA_STYLE ('',( #300 ) ) ;
#77 = ORIENTED_EDGE ( 'NONE', *, *, #180, .F. ) ;
#78 = ORIENTED_EDGE ( 'NONE', *, *, #54, .F. ) ;
#79 = ADVANCED_FACE ( 'NONE', ( #185 ), #182, .T. ) ;
#80 = CLOSED_SHELL ( 'NONE', ( #79, #251, #207, #26 ) ) ;
#81 = PLANE ( 'NONE',  #295 ) ;
#82 = UNCERTAINTY_MEASURE_WITH_UNIT (LENGTH_MEASURE( 1.000000000000000082E-05 ), #250, 'distance_accuracy_value', 'NONE');
#83 = ORIENTED_EDGE ( 'NONE', *, *, #159, .F. ) ;
#84 = STYLED_ITEM ( 'NONE', ( #40 ), #207 ) ;
#85 = EDGE_CURVE ( 'NONE', #220, #104, #188, .T. ) ;
#86 =( NAMED_UNIT ( * ) SI_UNIT ( $, .STERADIAN. ) SOLID_ANGLE_UNIT ( ) );
#87 = COLOUR_RGB ( '',0.7921568627450980005, 0.8196078431372548767, 0.9333333333333333481 ) ;
#88 = LENGTH_MEASURE_WITH_UNIT ( LENGTH_MEASURE( 0.02539999999999999897 ), #63 );
#89 = DIRECTION ( 'NONE',  ( 0.000000000000000000, 0.000000000000000000, -1.000000000000000000 ) ) ;
#90 = COLOUR_RGB ( '',0.7921568627450980005, 0.8196078431372548767, 0.9333333333333333481 ) ;
#91 =( NAMED_UNIT ( * ) PLANE_ANGLE_UNIT ( ) SI_UNIT ( $, .RADIAN. ) );
#92 = DIRECTION ( 'NONE',  ( -0.000000000000000000, -1.000000000000000000, -0.000000000000000000 ) ) ;
#93 = ORIENTED_EDGE ( 'NONE', *, *, #279, .F. ) ;
#94 = APPLICATION_PROTOCOL_DEFINITION ( 'draft international standard', 'automotive_design', 1998, #275 ) ;
#95 =( CONVERSION_BASED_UNIT ( 'INCH', #68 ) LENGTH_UNIT ( ) NAMED_UNIT ( #50 ) );
#96 = ORIENTED_EDGE ( 'NONE', *, *, #304, .T. ) ;
#97 = STYLED_ITEM ( 'NONE', ( #217 ), #287 ) ;
#98 = DIRECTION ( 'NONE',  ( 0.000000000000000000, 0.000000000000000000, -1.000000000000000000 ) ) ;
#99 = DIMENSIONAL_EXPONENTS ( 1.000000000000000000, 0.000000000000000000, 0.000000000000000000, 0.000000000000000000, 0.000000000000000000, 0.000000000000000000, 0.000000000000000000 ) ;
#100 = UNCERTAINTY_MEASURE_WITH_UNIT (LENGTH_MEASURE( 1.000000000000000082E-05 ), #266, 'distance_accuracy_value', 'NONE');
#101 = FACE_OUTER_BOUND ( 'NONE', #75, .T. ) ;
#102 = CARTESIAN_POINT ( 'NONE',  ( 0.000000000000000000, 0.3750000000000000555, 0.000000000000000000 ) ) ;
#103 = AXIS2_PLACEMENT_3D ( 'NONE', #208, #92, #123 ) ;
#104 = VERTEX_POINT ( 'NONE', #136 ) ;
#105 = CARTESIAN_POINT ( 'NONE',  ( 0.000000000000000000, 0.000000000000000000, 0.000000000000000000 ) ) ;
#106 = AXIS2_PLACEMENT_3D ( 'NONE', #163, #16, #230 ) ;
#107 = AXIS2_PLACEMENT_3D ( 'NONE', #102, #263, #129 ) ;
#108 = DIRECTION ( 'NONE',  ( 0.000000000000000000, 0.000000000000000000, -1.000000000000000000 ) ) ;
#109 = ORIENTED_EDGE ( 'NONE', *, *, #134, .T. ) ;
#110 = EDGE_CURVE ( 'NONE', #232, #209, #302, .T. ) ;
#111 = SURFACE_SIDE_STYLE ('',( #278 ) ) ;
#112 = AXIS2_PLACEMENT_3D ( 'NONE', #146, #120, #24 ) ;
#113 = FACE_OUTER_BOUND ( 'NONE', #23, .T. ) ;
#114 = AXIS2_PLACEMENT_3D ( 'NONE', #133, #226, #223 ) ;
#115 = DIRECTION ( 'NONE',  ( -3.768143997376469510E-17, 1.000000000000000000, -0.000000000000000000 ) ) ;
#116 = DIRECTION ( 'NONE',  ( -1.000000000000000000, 0.000000000000000000, 0.000000000000000000 ) ) ;
#117 = AXIS2_PLACEMENT_3D ( 'NONE', #65, #27, #98 ) ;
#118 = FILL_AREA_STYLE_COLOUR ( '', #87 ) ;
#119 = AXIS2_PLACEMENT_3D ( 'NONE', #105, #201, #297 ) ;
#120 = DIRECTION ( 'NONE',  ( -3.768143997376469510E-17, 1.000000000000000000, -0.000000000000000000 ) ) ;
#121 = ORIENTED_EDGE ( 'NONE', *, *, #134, .F. ) ;
#122 = PRODUCT_DEFINITION ( 'UNKNOWN', '', #189, #39 ) ;
#123 = DIRECTION ( 'NONE',  ( 0.000000000000000000, 0.000000000000000000, -1.000000000000000000 ) ) ;
#124 =( LENGTH_UNIT ( ) NAMED_UNIT ( * ) SI_UNIT ( $, .METRE. ) );
#125 = ORIENTED_EDGE ( 'NONE', *, *, #304, .F. ) ;
#126 = SURFACE_SIDE_STYLE ('',( #66 ) ) ;
#127 = CIRCLE ( 'NONE', #41, 0.1250000000000000000 ) ;
#128 = EDGE_LOOP ( 'NONE', ( #67, #96, #178, #78 ) ) ;
#129 = DIRECTION ( 'NONE',  ( 0.000000000000000000, 0.000000000000000000, -1.000000000000000000 ) ) ;
#130 = ORIENTED_EDGE ( 'NONE', *, *, #279, .T. ) ;
#131 =( NAMED_UNIT ( * ) SI_UNIT ( $, .STERADIAN. ) SOLID_ANGLE_UNIT ( ) );
#132 =( NAMED_UNIT ( * ) SI_UNIT ( $, .STERADIAN. ) SOLID_ANGLE_UNIT ( ) );
#133 = CARTESIAN_POINT ( 'NONE',  ( 0.1250000000000000000, 2.000000000000000000, 0.000000000000000000 ) ) ;
#134 = EDGE_CURVE ( 'NONE', #220, #232, #127, .T. ) ;
#135 = FILL_AREA_STYLE ('',( #118 ) ) ;
#136 = CARTESIAN_POINT ( 'NONE',  ( 0.1250000000000000278, 2.000000000000000000, 1.530808498934192125E-17 ) ) ;
#137 = MECHANICAL_DESIGN_GEOMETRIC_PRESENTATION_REPRESENTATION (  '', ( #97 ), #52 ) ;
#138 = PRESENTATION_LAYER_ASSIGNMENT (  '', '', ( #242 ) ) ;
#139 = CARTESIAN_POINT ( 'NONE',  ( 0.000000000000000000, 0.3750000000000000555, 0.000000000000000000 ) ) ;
#140 = CARTESIAN_POINT ( 'NONE',  ( 0.000000000000000000, 0.3749999999999999445, 0.000000000000000000 ) ) ;
#141 = VERTEX_POINT ( 'NONE', #271 ) ;
#142 = COLOUR_RGB ( '',1.000000000000000000, 0.000000000000000000, 0.000000000000000000 ) ;
#143 = CARTESIAN_POINT ( 'NONE',  ( -0.1250000000000000000, 0.3749999999999999445, 0.000000000000000000 ) ) ;
#144 = ORIENTED_EDGE ( 'NONE', *, *, #85, .F. ) ;
#145 = SHAPE_DEFINITION_REPRESENTATION ( #307, #205 ) ;
#146 = CARTESIAN_POINT ( 'NONE',  ( -6.123233995736763571E-17, 2.000000000000000000, 0.000000000000000000 ) ) ;
#147 = ORIENTED_EDGE ( 'NONE', *, *, #283, .T. ) ;
#148 = SURFACE_STYLE_FILL_AREA ( #286 ) ;
#149 = VECTOR ( 'NONE', #252, 39.37007874015748143 ) ;
#150 = ORIENTED_EDGE ( 'NONE', *, *, #54, .T. ) ;
#151 =( LENGTH_UNIT ( ) NAMED_UNIT ( * ) SI_UNIT ( $, .METRE. ) );
#152 = CARTESIAN_POINT ( 'NONE',  ( -6.123233995736763571E-17, 2.000000000000000000, 0.000000000000000000 ) ) ;
#153 = VERTEX_POINT ( 'NONE', #15 ) ;
#154 = STYLED_ITEM ( 'NONE', ( #183 ), #26 ) ;
#155 = UNCERTAINTY_MEASURE_WITH_UNIT (LENGTH_MEASURE( 1.000000000000000082E-05 ), #267, 'distance_accuracy_value', 'NONE');
#156 = SURFACE_STYLE_FILL_AREA ( #58 ) ;
#157 = PRESENTATION_LAYER_ASSIGNMENT (  '', '', ( #84 ) ) ;
#158 = FILL_AREA_STYLE_COLOUR ( '', #281 ) ;
#159 = EDGE_CURVE ( 'NONE', #209, #104, #249, .T. ) ;
#160 = DIRECTION ( 'NONE',  ( -3.768143997376469510E-17, 1.000000000000000000, -0.000000000000000000 ) ) ;
#161 =( GEOMETRIC_REPRESENTATION_CONTEXT ( 3 ) GLOBAL_UNCERTAINTY_ASSIGNED_CONTEXT ( ( #155 ) ) GLOBAL_UNIT_ASSIGNED_CONTEXT ( ( #267, #200, #132 ) ) REPRESENTATION_CONTEXT ( 'NONE', 'WORKASPACE' ) );
#162 = LENGTH_MEASURE_WITH_UNIT ( LENGTH_MEASURE( 0.02539999999999999897 ), #253 );
#163 = CARTESIAN_POINT ( 'NONE',  ( 0.000000000000000000, 0.3749999999999999445, 0.000000000000000000 ) ) ;
#164 = CARTESIAN_POINT ( 'NONE',  ( -0.1250000000000001110, 2.000000000000000000, 0.000000000000000000 ) ) ;
#165 = PRESENTATION_STYLE_ASSIGNMENT (( #204 ) ) ;
#166 = SURFACE_STYLE_USAGE ( .BOTH. , #212 ) ;
#167 = UNCERTAINTY_MEASURE_WITH_UNIT (LENGTH_MEASURE( 1.000000000000000082E-05 ), #95, 'distance_accuracy_value', 'NONE');
#168 = PRODUCT_CONTEXT ( 'NONE', #275, 'mechanical' ) ;
#169 = MECHANICAL_DESIGN_GEOMETRIC_PRESENTATION_REPRESENTATION (  '', ( #154 ), #161 ) ;
#170 = VECTOR ( 'NONE', #179, 39.37007874015748143 ) ;
#171 =( NAMED_UNIT ( * ) PLANE_ANGLE_UNIT ( ) SI_UNIT ( $, .RADIAN. ) );
#172 = APPLICATION_PROTOCOL_DEFINITION ( 'draft international standard', 'automotive_design', 1998, #55 ) ;
#173 = FACE_OUTER_BOUND ( 'NONE', #308, .T. ) ;
#174 = SURFACE_STYLE_USAGE ( .BOTH. , #126 ) ;
#175 = STYLED_ITEM ( 'NONE', ( #306 ), #251 ) ;
#176 =( CONVERSION_BASED_UNIT ( 'INCH', #309 ) LENGTH_UNIT ( ) NAMED_UNIT ( #243 ) );
#177 = PLANE ( 'NONE',  #228 ) ;
#178 = ORIENTED_EDGE ( 'NONE', *, *, #237, .F. ) ;
#179 = DIRECTION ( 'NONE',  ( -0.000000000000000000, -1.000000000000000000, -0.000000000000000000 ) ) ;
#180 = EDGE_CURVE ( 'NONE', #299, #141, #7, .T. ) ;
#181 = FACE_OUTER_BOUND ( 'NONE', #192, .T. ) ;
#182 = CYLINDRICAL_SURFACE ( 'NONE', #254, 0.1250000000000000000 ) ;
#183 = PRESENTATION_STYLE_ASSIGNMENT (( #246 ) ) ;
#184 =( GEOMETRIC_REPRESENTATION_CONTEXT ( 3 ) GLOBAL_UNCERTAINTY_ASSIGNED_CONTEXT ( ( #82 ) ) GLOBAL_UNIT_ASSIGNED_CONTEXT ( ( #250, #18, #86 ) ) REPRESENTATION_CONTEXT ( 'NONE', 'WORKASPACE' ) );
#185 = FACE_OUTER_BOUND ( 'NONE', #128, .T. ) ;
#186 = CYLINDRICAL_SURFACE ( 'NONE', #245, 0.1250000000000000278 ) ;
#187 = AXIS2_PLACEMENT_3D ( 'NONE', #139, #303, #89 ) ;
#188 = LINE ( 'NONE', #274, #37 ) ;
#189 = PRODUCT_DEFINITION_FORMATION_WITH_SPECIFIED_SOURCE ( 'ANY', '', #284, .NOT_KNOWN. ) ;
#190 = MANIFOLD_SOLID_BREP ( 'Revolve - Cutting Edge', #80 ) ;
#191 = CYLINDRICAL_SURFACE ( 'NONE', #112, 0.1250000000000000278 ) ;
#192 = EDGE_LOOP ( 'NONE', ( #288, #213 ) ) ;
#193 = DIRECTION ( 'NONE',  ( 0.000000000000000000, 0.000000000000000000, 1.000000000000000000 ) ) ;
#194 = CARTESIAN_POINT ( 'NONE',  ( 0.1250000000000000278, 0.3749999999999999445, 1.530808498934192125E-17 ) ) ;
#195 = LINE ( 'NONE', #196, #170 ) ;
#196 = CARTESIAN_POINT ( 'NONE',  ( 1.530808498934191509E-17, 0.000000000000000000, 0.1250000000000000000 ) ) ;
#197 =( GEOMETRIC_REPRESENTATION_CONTEXT ( 3 ) GLOBAL_UNCERTAINTY_ASSIGNED_CONTEXT ( ( #221 ) ) GLOBAL_UNIT_ASSIGNED_CONTEXT ( ( #206, #91, #61 ) ) REPRESENTATION_CONTEXT ( 'NONE', 'WORKASPACE' ) );
#198 = CARTESIAN_POINT ( 'NONE',  ( 8.874318240602698952E-35, 0.3750000000000000555, 0.000000000000000000 ) ) ;
#199 = EDGE_CURVE ( 'NONE', #232, #220, #298, .T. ) ;
#200 =( NAMED_UNIT ( * ) PLANE_ANGLE_UNIT ( ) SI_UNIT ( $, .RADIAN. ) );
#201 = DIRECTION ( 'NONE',  ( -0.000000000000000000, -1.000000000000000000, -0.000000000000000000 ) ) ;
#202 = DIMENSIONAL_EXPONENTS ( 1.000000000000000000, 0.000000000000000000, 0.000000000000000000, 0.000000000000000000, 0.000000000000000000, 0.000000000000000000, 0.000000000000000000 ) ;
#203 = CARTESIAN_POINT ( 'NONE',  ( 0.000000000000000000, 0.000000000000000000, -0.1250000000000000000 ) ) ;
#204 = SURFACE_STYLE_USAGE ( .BOTH. , #224 ) ;
#205 = ADVANCED_BREP_SHAPE_REPRESENTATION ( '00152', ( #190, #287, #12 ), #69 ) ;
#206 =( CONVERSION_BASED_UNIT ( 'INCH', #88 ) LENGTH_UNIT ( ) NAMED_UNIT ( #202 ) );
#207 = ADVANCED_FACE ( 'NONE', ( #113 ), #231, .T. ) ;
#208 = CARTESIAN_POINT ( 'NONE',  ( 0.000000000000000000, 0.000000000000000000, 0.000000000000000000 ) ) ;
#209 = VERTEX_POINT ( 'NONE', #234 ) ;
#210 = DIRECTION ( 'NONE',  ( 0.000000000000000000, 1.000000000000000000, 0.000000000000000000 ) ) ;
#211 = CARTESIAN_POINT ( 'NONE',  ( 0.000000000000000000, 0.000000000000000000, 0.000000000000000000 ) ) ;
#212 = SURFACE_SIDE_STYLE ('',( #282 ) ) ;
#213 = ORIENTED_EDGE ( 'NONE', *, *, #62, .T. ) ;
#214 = CIRCLE ( 'NONE', #119, 0.1250000000000000000 ) ;
#215 =( LENGTH_UNIT ( ) NAMED_UNIT ( * ) SI_UNIT ( $, .METRE. ) );
#216 = VERTEX_POINT ( 'NONE', #290 ) ;
#217 = PRESENTATION_STYLE_ASSIGNMENT (( #30 ) ) ;
#218 = UNCERTAINTY_MEASURE_WITH_UNIT (LENGTH_MEASURE( 1.000000000000000082E-05 ), #44, 'distance_accuracy_value', 'NONE');
#219 =( LENGTH_UNIT ( ) NAMED_UNIT ( * ) SI_UNIT ( $, .METRE. ) );
#220 = VERTEX_POINT ( 'NONE', #194 ) ;
#221 = UNCERTAINTY_MEASURE_WITH_UNIT (LENGTH_MEASURE( 1.000000000000000082E-05 ), #206, 'distance_accuracy_value', 'NONE');
#222 = SURFACE_SIDE_STYLE ('',( #247 ) ) ;
#223 = DIRECTION ( 'NONE',  ( 1.000000000000000000, 3.768143997376469510E-17, 0.000000000000000000 ) ) ;
#224 = SURFACE_SIDE_STYLE ('',( #156 ) ) ;
#225 = CIRCLE ( 'NONE', #17, 0.1250000000000000555 ) ;
#226 = DIRECTION ( 'NONE',  ( 3.768143997376469510E-17, -1.000000000000000000, 0.000000000000000000 ) ) ;
#227 = ADVANCED_FACE ( 'NONE', ( #21 ), #191, .T. ) ;
#228 = AXIS2_PLACEMENT_3D ( 'NONE', #198, #293, #74 ) ;
#229 = CLOSED_SHELL ( 'NONE', ( #227, #258, #2, #13 ) ) ;
#230 = DIRECTION ( 'NONE',  ( -1.000000000000000000, 0.000000000000000000, 0.000000000000000000 ) ) ;
#231 = CYLINDRICAL_SURFACE ( 'NONE', #117, 0.1250000000000000000 ) ;
#232 = VERTEX_POINT ( 'NONE', #143 ) ;
#233 = MECHANICAL_DESIGN_GEOMETRIC_PRESENTATION_REPRESENTATION (  '', ( #242 ), #184 ) ;
#234 = CARTESIAN_POINT ( 'NONE',  ( -0.1250000000000001388, 2.000000000000000000, 0.000000000000000000 ) ) ;
#235 = ORIENTED_EDGE ( 'NONE', *, *, #199, .T. ) ;
#236 =( NAMED_UNIT ( * ) PLANE_ANGLE_UNIT ( ) SI_UNIT ( $, .RADIAN. ) );
#237 = EDGE_CURVE ( 'NONE', #153, #216, #256, .T. ) ;
#238 = FILL_AREA_STYLE_COLOUR ( '', #36 ) ;
#239 = ORIENTED_EDGE ( 'NONE', *, *, #62, .F. ) ;
#240 = LENGTH_MEASURE_WITH_UNIT ( LENGTH_MEASURE( 0.02539999999999999897 ), #124 );
#241 = AXIS2_PLACEMENT_3D ( 'NONE', #257, #210, #264 ) ;
#242 = STYLED_ITEM ( 'NONE', ( #165 ), #79 ) ;
#243 = DIMENSIONAL_EXPONENTS ( 1.000000000000000000, 0.000000000000000000, 0.000000000000000000, 0.000000000000000000, 0.000000000000000000, 0.000000000000000000, 0.000000000000000000 ) ;
#244 = SURFACE_SIDE_STYLE ('',( #148 ) ) ;
#245 = AXIS2_PLACEMENT_3D ( 'NONE', #152, #29, #270 ) ;
#246 = SURFACE_STYLE_USAGE ( .BOTH. , #222 ) ;
#247 = SURFACE_STYLE_FILL_AREA ( #76 ) ;
#248 = DIMENSIONAL_EXPONENTS ( 1.000000000000000000, 0.000000000000000000, 0.000000000000000000, 0.000000000000000000, 0.000000000000000000, 0.000000000000000000, 0.000000000000000000 ) ;
#249 = CIRCLE ( 'NONE', #273, 0.1250000000000000555 ) ;
#250 =( CONVERSION_BASED_UNIT ( 'INCH', #162 ) LENGTH_UNIT ( ) NAMED_UNIT ( #248 ) );
#251 = ADVANCED_FACE ( 'NONE', ( #173 ), #4, .T. ) ;
#252 = DIRECTION ( 'NONE',  ( -3.768143997376469510E-17, 1.000000000000000000, -0.000000000000000000 ) ) ;
#253 =( LENGTH_UNIT ( ) NAMED_UNIT ( * ) SI_UNIT ( $, .METRE. ) );
#254 = AXIS2_PLACEMENT_3D ( 'NONE', #38, #35, #276 ) ;
#255 = SURFACE_STYLE_USAGE ( .BOTH. , #111 ) ;
#256 = CIRCLE ( 'NONE', #103, 0.1250000000000000000 ) ;
#257 = CARTESIAN_POINT ( 'NONE',  ( 0.000000000000000000, 0.3750000000000000555, 0.000000000000000000 ) ) ;
#258 = ADVANCED_FACE ( 'NONE', ( #101 ), #177, .F. ) ;
#259 = STYLED_ITEM ( 'NONE', ( #64 ), #190 ) ;
#260 =( NAMED_UNIT ( * ) SI_UNIT ( $, .STERADIAN. ) SOLID_ANGLE_UNIT ( ) );
#261 =( GEOMETRIC_REPRESENTATION_CONTEXT ( 3 ) GLOBAL_UNCERTAINTY_ASSIGNED_CONTEXT ( ( #218 ) ) GLOBAL_UNIT_ASSIGNED_CONTEXT ( ( #44, #305, #260 ) ) REPRESENTATION_CONTEXT ( 'NONE', 'WORKASPACE' ) );
#262 = PRESENTATION_LAYER_ASSIGNMENT (  '', '', ( #97 ) ) ;
#263 = DIRECTION ( 'NONE',  ( -0.000000000000000000, -1.000000000000000000, -0.000000000000000000 ) ) ;
#264 = DIRECTION ( 'NONE',  ( 0.000000000000000000, -0.000000000000000000, 1.000000000000000000 ) ) ;
#265 = EDGE_LOOP ( 'NONE', ( #296, #147 ) ) ;
#266 =( CONVERSION_BASED_UNIT ( 'INCH', #46 ) LENGTH_UNIT ( ) NAMED_UNIT ( #99 ) );
#267 =( CONVERSION_BASED_UNIT ( 'INCH', #6 ) LENGTH_UNIT ( ) NAMED_UNIT ( #11 ) );
#268 = MECHANICAL_DESIGN_GEOMETRIC_PRESENTATION_REPRESENTATION (  '', ( #259 ), #197 ) ;
#269 = CARTESIAN_POINT ( 'NONE',  ( 0.000000000000000000, 0.000000000000000000, 0.000000000000000000 ) ) ;
#270 = DIRECTION ( 'NONE',  ( -1.000000000000000000, 0.000000000000000000, 0.000000000000000000 ) ) ;
#271 = CARTESIAN_POINT ( 'NONE',  ( 1.530808498934191509E-17, 0.3750000000000000555, 0.1250000000000000000 ) ) ;
#272 =( GEOMETRIC_REPRESENTATION_CONTEXT ( 3 ) GLOBAL_UNCERTAINTY_ASSIGNED_CONTEXT ( ( #167 ) ) GLOBAL_UNIT_ASSIGNED_CONTEXT ( ( #95, #171, #51 ) ) REPRESENTATION_CONTEXT ( 'NONE', 'WORKASPACE' ) );
#273 = AXIS2_PLACEMENT_3D ( 'NONE', #34, #160, #116 ) ;
#274 = CARTESIAN_POINT ( 'NONE',  ( 0.1249999999999999584, 2.000000000000000000, 1.530808498934191817E-17 ) ) ;
#275 = APPLICATION_CONTEXT ( 'automotive_design' ) ;
#276 = DIRECTION ( 'NONE',  ( 0.000000000000000000, 0.000000000000000000, -1.000000000000000000 ) ) ;
#277 = MECHANICAL_DESIGN_GEOMETRIC_PRESENTATION_REPRESENTATION (  '', ( #84 ), #261 ) ;
#278 = SURFACE_STYLE_FILL_AREA ( #135 ) ;
#279 = EDGE_CURVE ( 'NONE', #141, #299, #73, .T. ) ;
#280 = DIRECTION ( 'NONE',  ( -1.000000000000000000, 0.000000000000000000, 0.000000000000000000 ) ) ;
#281 = COLOUR_RGB ( '',1.000000000000000000, 0.000000000000000000, 0.000000000000000000 ) ;
#282 = SURFACE_STYLE_FILL_AREA ( #47 ) ;
#283 = EDGE_CURVE ( 'NONE', #104, #209, #225, .T. ) ;
#284 = PRODUCT ( '00152', '00152', '', ( #168 ) ) ;
#285 = ORIENTED_EDGE ( 'NONE', *, *, #110, .F. ) ;
#286 = FILL_AREA_STYLE ('',( #28 ) ) ;
#287 = MANIFOLD_SOLID_BREP ( 'Revolve - Tool Body (Straight Shanked)', #229 ) ;
#288 = ORIENTED_EDGE ( 'NONE', *, *, #237, .T. ) ;
#289 = FILL_AREA_STYLE_COLOUR ( '', #5 ) ;
#290 = CARTESIAN_POINT ( 'NONE',  ( 1.530808498934191509E-17, 0.000000000000000000, 0.1250000000000000000 ) ) ;
#291 = DIRECTION ( 'NONE',  ( -3.768143997376469510E-17, 1.000000000000000000, -0.000000000000000000 ) ) ;
#292 = UNCERTAINTY_MEASURE_WITH_UNIT (LENGTH_MEASURE( 1.000000000000000082E-05 ), #176, 'distance_accuracy_value', 'NONE');
#293 = DIRECTION ( 'NONE',  ( -3.768143997376469510E-17, 1.000000000000000000, 0.000000000000000000 ) ) ;
#294 = CARTESIAN_POINT ( 'NONE',  ( -6.123233995736763571E-17, 2.000000000000000000, 0.000000000000000000 ) ) ;
#295 = AXIS2_PLACEMENT_3D ( 'NONE', #269, #56, #108 ) ;
#296 = ORIENTED_EDGE ( 'NONE', *, *, #159, .T. ) ;
#297 = DIRECTION ( 'NONE',  ( 0.000000000000000000, 0.000000000000000000, -1.000000000000000000 ) ) ;
#298 = CIRCLE ( 'NONE', #106, 0.1250000000000000000 ) ;
#299 = VERTEX_POINT ( 'NONE', #3 ) ;
#300 = FILL_AREA_STYLE_COLOUR ( '', #142 ) ;
#301 = FACE_OUTER_BOUND ( 'NONE', #10, .T. ) ;
#302 = LINE ( 'NONE', #164, #149 ) ;
#303 = DIRECTION ( 'NONE',  ( -0.000000000000000000, -1.000000000000000000, -0.000000000000000000 ) ) ;
#304 = EDGE_CURVE ( 'NONE', #141, #216, #195, .T. ) ;
#305 =( NAMED_UNIT ( * ) PLANE_ANGLE_UNIT ( ) SI_UNIT ( $, .RADIAN. ) );
#306 = PRESENTATION_STYLE_ASSIGNMENT (( #174 ) ) ;
#307 = PRODUCT_DEFINITION_SHAPE ( 'NONE', 'NONE',  #122 ) ;
#308 = EDGE_LOOP ( 'NONE', ( #77, #93 ) ) ;
#309 = LENGTH_MEASURE_WITH_UNIT ( LENGTH_MEASURE( 0.02539999999999999897 ), #151 );
ENDSEC;
END-ISO-10303-21;
