ISO-10303-21;
HEADER;
FILE_DESCRIPTION (( 'STEP AP214' ),
    '1' );
FILE_NAME ('84790.STEP',
    '2023-07-05T16:29:14',
    ( '' ),
    ( '' ),
    'SwSTEP 2.0',
    'SolidWorks 2023',
    '' );
FILE_SCHEMA (( 'AUTOMOTIVE_DESIGN' ));
ENDSEC;

DATA;
#1 = AXIS2_PLACEMENT_3D ( 'NONE', #173, #208, #232 ) ;
#2 = CARTESIAN_POINT ( 'NONE',  ( 0.000000000000000000, 0.3749999999999987232, 0.000000000000000000 ) ) ;
#3 = ORIENTED_EDGE ( 'NONE', *, *, #260, .F. ) ;
#4 = EDGE_CURVE ( 'NONE', #43, #57, #130, .T. ) ;
#5 = CARTESIAN_POINT ( 'NONE',  ( 0.3749999999999999445, 0.3749999999999986677, 4.592425496802574219E-17 ) ) ;
#6 =( CONVERSION_BASED_UNIT ( 'INCH', #264 ) LENGTH_UNIT ( ) NAMED_UNIT ( #32 ) );
#7 = PRESENTATION_STYLE_ASSIGNMENT (( #69 ) ) ;
#8 = SURFACE_STYLE_USAGE ( .BOTH. , #108 ) ;
#9 = CLOSED_SHELL ( 'NONE', ( #243, #143, #231 ) ) ;
#10 = AXIS2_PLACEMENT_3D ( 'NONE', #166, #42, #175 ) ;
#11 =( LENGTH_UNIT ( ) NAMED_UNIT ( * ) SI_UNIT ( $, .METRE. ) );
#12 = FACE_OUTER_BOUND ( 'NONE', #247, .T. ) ;
#13 = FILL_AREA_STYLE_COLOUR ( '', #14 ) ;
#14 = COLOUR_RGB ( '',0.7921568627450980005, 0.8196078431372548767, 0.9333333333333333481 ) ;
#15 = CARTESIAN_POINT ( 'NONE',  ( 0.000000000000000000, 39.37007874015748143, 0.000000000000000000 ) ) ;
#16 = AXIS2_PLACEMENT_3D ( 'NONE', #250, #163, #128 ) ;
#17 = CIRCLE ( 'NONE', #55, 0.3749999999999999445 ) ;
#18 = DIRECTION ( 'NONE',  ( -1.000000000000000000, 0.000000000000000000, 0.000000000000000000 ) ) ;
#19 = ORIENTED_EDGE ( 'NONE', *, *, #114, .T. ) ;
#20 = CARTESIAN_POINT ( 'NONE',  ( 0.000000000000000000, 0.3749999999999987232, 0.000000000000000000 ) ) ;
#21 = ORIENTED_EDGE ( 'NONE', *, *, #123, .T. ) ;
#22 = CARTESIAN_POINT ( 'NONE',  ( 0.3749999999999998890, 3.000000000000000444, 0.000000000000000000 ) ) ;
#23 =( GEOMETRIC_REPRESENTATION_CONTEXT ( 3 ) GLOBAL_UNCERTAINTY_ASSIGNED_CONTEXT ( ( #177 ) ) GLOBAL_UNIT_ASSIGNED_CONTEXT ( ( #53, #213, #51 ) ) REPRESENTATION_CONTEXT ( 'NONE', 'WORKASPACE' ) );
#24 = PRODUCT_RELATED_PRODUCT_CATEGORY ( 'part', '', ( #157 ) ) ;
#25 = ORIENTED_EDGE ( 'NONE', *, *, #4, .T. ) ;
#26 = CARTESIAN_POINT ( 'NONE',  ( -0.3749999999999992784, 0.3749999999999985012, 0.000000000000000000 ) ) ;
#27 = EDGE_LOOP ( 'NONE', ( #50, #178 ) ) ;
#28 = PRESENTATION_STYLE_ASSIGNMENT (( #99 ) ) ;
#29 = FACE_OUTER_BOUND ( 'NONE', #82, .T. ) ;
#30 = SURFACE_SIDE_STYLE ('',( #189 ) ) ;
#31 = SURFACE_STYLE_FILL_AREA ( #45 ) ;
#32 = DIMENSIONAL_EXPONENTS ( 1.000000000000000000, 0.000000000000000000, 0.000000000000000000, 0.000000000000000000, 0.000000000000000000, 0.000000000000000000, 0.000000000000000000 ) ;
#33 = LENGTH_MEASURE_WITH_UNIT ( LENGTH_MEASURE( 0.02539999999999999897 ), #229 );
#34 = CARTESIAN_POINT ( 'NONE',  ( -6.123233995736772199E-17, 3.000000000000000444, 0.000000000000000000 ) ) ;
#35 = COLOUR_RGB ( '',1.000000000000000000, 0.000000000000000000, 0.000000000000000000 ) ;
#36 = DIMENSIONAL_EXPONENTS ( 1.000000000000000000, 0.000000000000000000, 0.000000000000000000, 0.000000000000000000, 0.000000000000000000, 0.000000000000000000, 0.000000000000000000 ) ;
#37 = PRESENTATION_LAYER_ASSIGNMENT (  '', '', ( #151 ) ) ;
#38 = ORIENTED_EDGE ( 'NONE', *, *, #4, .F. ) ;
#39 = STYLED_ITEM ( 'NONE', ( #227 ), #126 ) ;
#40 = DIRECTION ( 'NONE',  ( -1.457912856127801637E-16, 1.000000000000000000, -0.000000000000000000 ) ) ;
#41 = CARTESIAN_POINT ( 'NONE',  ( 0.000000000000000000, 0.3749999999999987232, 0.000000000000000000 ) ) ;
#42 = DIRECTION ( 'NONE',  ( 0.000000000000000000, 0.000000000000000000, 1.000000000000000000 ) ) ;
#43 = VERTEX_POINT ( 'NONE', #150 ) ;
#44 = DIRECTION ( 'NONE',  ( -1.457912856127801637E-16, 1.000000000000000000, -0.000000000000000000 ) ) ;
#45 = FILL_AREA_STYLE ('',( #67 ) ) ;
#46 = FILL_AREA_STYLE_COLOUR ( '', #202 ) ;
#47 = DIRECTION ( 'NONE',  ( -1.000000000000000000, 0.000000000000000000, 0.000000000000000000 ) ) ;
#48 = FILL_AREA_STYLE_COLOUR ( '', #168 ) ;
#49 = AXIS2_PLACEMENT_3D ( 'NONE', #22, #104, #95 ) ;
#50 = ORIENTED_EDGE ( 'NONE', *, *, #174, .F. ) ;
#51 =( NAMED_UNIT ( * ) SI_UNIT ( $, .STERADIAN. ) SOLID_ANGLE_UNIT ( ) );
#52 = DIRECTION ( 'NONE',  ( -1.000000000000000000, 0.000000000000000000, 0.000000000000000000 ) ) ;
#53 =( CONVERSION_BASED_UNIT ( 'INCH', #33 ) LENGTH_UNIT ( ) NAMED_UNIT ( #73 ) );
#54 =( GEOMETRIC_REPRESENTATION_CONTEXT ( 3 ) GLOBAL_UNCERTAINTY_ASSIGNED_CONTEXT ( ( #221 ) ) GLOBAL_UNIT_ASSIGNED_CONTEXT ( ( #154, #209, #100 ) ) REPRESENTATION_CONTEXT ( 'NONE', 'WORKASPACE' ) );
#55 = AXIS2_PLACEMENT_3D ( 'NONE', #68, #245, #248 ) ;
#56 = AXIS2_PLACEMENT_3D ( 'NONE', #205, #65, #223 ) ;
#57 = VERTEX_POINT ( 'NONE', #204 ) ;
#58 = UNCERTAINTY_MEASURE_WITH_UNIT (LENGTH_MEASURE( 1.000000000000000082E-05 ), #6, 'distance_accuracy_value', 'NONE');
#59 = CIRCLE ( 'NONE', #70, 0.3749999999999999445 ) ;
#60 = CARTESIAN_POINT ( 'NONE',  ( 3.214697847761804542E-16, 0.3749999999999986122, 0.000000000000000000 ) ) ;
#61 = PLANE ( 'NONE',  #49 ) ;
#62 = ADVANCED_FACE ( 'NONE', ( #29 ), #185, .T. ) ;
#63 = EDGE_LOOP ( 'NONE', ( #161, #25 ) ) ;
#64 =( NAMED_UNIT ( * ) PLANE_ANGLE_UNIT ( ) SI_UNIT ( $, .RADIAN. ) );
#65 = DIRECTION ( 'NONE',  ( -1.457912856127801637E-16, 1.000000000000000000, -0.000000000000000000 ) ) ;
#66 = FACE_OUTER_BOUND ( 'NONE', #249, .T. ) ;
#67 = FILL_AREA_STYLE_COLOUR ( '', #135 ) ;
#68 = CARTESIAN_POINT ( 'NONE',  ( -6.123233995736770966E-17, 3.000000000000000444, 0.000000000000000000 ) ) ;
#69 = SURFACE_STYLE_USAGE ( .BOTH. , #184 ) ;
#70 = AXIS2_PLACEMENT_3D ( 'NONE', #2, #265, #81 ) ;
#71 = PRODUCT_DEFINITION ( 'UNKNOWN', '', #242, #86 ) ;
#72 = FILL_AREA_STYLE ('',( #13 ) ) ;
#73 = DIMENSIONAL_EXPONENTS ( 1.000000000000000000, 0.000000000000000000, 0.000000000000000000, 0.000000000000000000, 0.000000000000000000, 0.000000000000000000, 0.000000000000000000 ) ;
#74 = PRESENTATION_LAYER_ASSIGNMENT (  '', '', ( #129 ) ) ;
#75 = AXIS2_PLACEMENT_3D ( 'NONE', #60, #44, #214 ) ;
#76 = ORIENTED_EDGE ( 'NONE', *, *, #253, .F. ) ;
#77 =( LENGTH_UNIT ( ) NAMED_UNIT ( * ) SI_UNIT ( $, .METRE. ) );
#78 = FACE_OUTER_BOUND ( 'NONE', #27, .T. ) ;
#79 = ORIENTED_EDGE ( 'NONE', *, *, #159, .T. ) ;
#80 = CIRCLE ( 'NONE', #56, 0.3749999999999996114 ) ;
#81 = DIRECTION ( 'NONE',  ( 0.000000000000000000, 0.000000000000000000, -1.000000000000000000 ) ) ;
#82 = EDGE_LOOP ( 'NONE', ( #21, #239, #76, #225 ) ) ;
#83 = EDGE_CURVE ( 'NONE', #196, #57, #188, .T. ) ;
#84 = LENGTH_MEASURE_WITH_UNIT ( LENGTH_MEASURE( 0.02539999999999999897 ), #197 );
#85 = LINE ( 'NONE', #145, #97 ) ;
#86 = PRODUCT_DEFINITION_CONTEXT ( 'detailed design', #160, 'design' ) ;
#87 = PLANE ( 'NONE',  #110 ) ;
#88 = CARTESIAN_POINT ( 'NONE',  ( 0.3749999999999997780, 3.000000000000000444, 4.592425496802572370E-17 ) ) ;
#89 =( CONVERSION_BASED_UNIT ( 'INCH', #124 ) LENGTH_UNIT ( ) NAMED_UNIT ( #36 ) );
#90 =( LENGTH_UNIT ( ) NAMED_UNIT ( * ) SI_UNIT ( $, .METRE. ) );
#91 = VECTOR ( 'NONE', #252, 39.37007874015748143 ) ;
#92 = CARTESIAN_POINT ( 'NONE',  ( -6.123233995736770966E-17, 3.000000000000000444, 0.000000000000000000 ) ) ;
#93 = AXIS2_PLACEMENT_3D ( 'NONE', #15, #148, #132 ) ;
#94 = PRODUCT_CONTEXT ( 'NONE', #153, 'mechanical' ) ;
#95 = DIRECTION ( 'NONE',  ( 1.000000000000000000, 1.457912856127801637E-16, 0.000000000000000000 ) ) ;
#96 = CLOSED_SHELL ( 'NONE', ( #62, #218, #131, #199 ) ) ;
#97 = VECTOR ( 'NONE', #106, 39.37007874015748143 ) ;
#98 = EDGE_CURVE ( 'NONE', #121, #43, #147, .T. ) ;
#99 = SURFACE_STYLE_USAGE ( .BOTH. , #120 ) ;
#100 =( NAMED_UNIT ( * ) SI_UNIT ( $, .STERADIAN. ) SOLID_ANGLE_UNIT ( ) );
#101 = ORIENTED_EDGE ( 'NONE', *, *, #192, .T. ) ;
#102 = CIRCLE ( 'NONE', #75, 0.3749999999999996114 ) ;
#103 = VERTEX_POINT ( 'NONE', #187 ) ;
#104 = DIRECTION ( 'NONE',  ( 1.457912856127801637E-16, -1.000000000000000000, 0.000000000000000000 ) ) ;
#105 = DIRECTION ( 'NONE',  ( 0.000000000000000000, 0.7071067811865463515, 0.7071067811865486830 ) ) ;
#106 = DIRECTION ( 'NONE',  ( 8.659560562354947649E-17, 0.7071067811865463515, -0.7071067811865486830 ) ) ;
#107 = DIRECTION ( 'NONE',  ( 0.000000000000000000, 1.000000000000000000, 0.000000000000000000 ) ) ;
#108 = SURFACE_SIDE_STYLE ('',( #31 ) ) ;
#109 = CARTESIAN_POINT ( 'NONE',  ( 0.000000000000000000, 0.3749999999999987232, 0.3749999999999999445 ) ) ;
#110 = AXIS2_PLACEMENT_3D ( 'NONE', #20, #107, #183 ) ;
#111 = DIRECTION ( 'NONE',  ( -1.457912856127801637E-16, 1.000000000000000000, -0.000000000000000000 ) ) ;
#112 = CARTESIAN_POINT ( 'NONE',  ( 0.000000000000000000, 0.000000000000000000, 0.000000000000000000 ) ) ;
#113 = FACE_OUTER_BOUND ( 'NONE', #198, .T. ) ;
#114 = EDGE_CURVE ( 'NONE', #103, #201, #127, .T. ) ;
#115 =( NAMED_UNIT ( * ) SI_UNIT ( $, .STERADIAN. ) SOLID_ANGLE_UNIT ( ) );
#116 = CONICAL_SURFACE ( 'NONE', #93, 39.37007874015760933, 0.7853981633974499443 ) ;
#117 = DIMENSIONAL_EXPONENTS ( 1.000000000000000000, 0.000000000000000000, 0.000000000000000000, 0.000000000000000000, 0.000000000000000000, 0.000000000000000000, 0.000000000000000000 ) ;
#118 = AXIS2_PLACEMENT_3D ( 'NONE', #34, #210, #52 ) ;
#119 = FILL_AREA_STYLE_COLOUR ( '', #35 ) ;
#120 = SURFACE_SIDE_STYLE ('',( #195 ) ) ;
#121 = VERTEX_POINT ( 'NONE', #5 ) ;
#122 = STYLED_ITEM ( 'NONE', ( #7 ), #206 ) ;
#123 = EDGE_CURVE ( 'NONE', #196, #121, #80, .T. ) ;
#124 = LENGTH_MEASURE_WITH_UNIT ( LENGTH_MEASURE( 0.02539999999999999897 ), #142 );
#125 = FILL_AREA_STYLE ('',( #46 ) ) ;
#126 = MANIFOLD_SOLID_BREP ( 'Revolve - Tool Body (Pointed)', #96 ) ;
#127 = LINE ( 'NONE', #112, #158 ) ;
#128 = DIRECTION ( 'NONE',  ( 0.000000000000000000, 0.000000000000000000, 1.000000000000000000 ) ) ;
#129 = STYLED_ITEM ( 'NONE', ( #28 ), #143 ) ;
#130 = CIRCLE ( 'NONE', #176, 0.3749999999999999445 ) ;
#131 = ADVANCED_FACE ( 'NONE', ( #219 ), #230, .T. ) ;
#132 = DIRECTION ( 'NONE',  ( 0.000000000000000000, 0.000000000000000000, 1.000000000000000000 ) ) ;
#133 = SHAPE_DEFINITION_REPRESENTATION ( #261, #258 ) ;
#134 = PRESENTATION_LAYER_ASSIGNMENT (  '', '', ( #262 ) ) ;
#135 = COLOUR_RGB ( '',0.7921568627450980005, 0.8196078431372548767, 0.9333333333333333481 ) ;
#136 = ORIENTED_EDGE ( 'NONE', *, *, #260, .T. ) ;
#137 = VECTOR ( 'NONE', #111, 39.37007874015748143 ) ;
#138 = CONICAL_SURFACE ( 'NONE', #16, 39.37007874015760933, 0.7853981633974499443 ) ;
#139 = FACE_OUTER_BOUND ( 'NONE', #63, .T. ) ;
#140 = UNCERTAINTY_MEASURE_WITH_UNIT (LENGTH_MEASURE( 1.000000000000000082E-05 ), #263, 'distance_accuracy_value', 'NONE');
#141 = ORIENTED_EDGE ( 'NONE', *, *, #98, .F. ) ;
#142 =( LENGTH_UNIT ( ) NAMED_UNIT ( * ) SI_UNIT ( $, .METRE. ) );
#143 = ADVANCED_FACE ( 'NONE', ( #78 ), #87, .T. ) ;
#144 = ORIENTED_EDGE ( 'NONE', *, *, #114, .F. ) ;
#145 = CARTESIAN_POINT ( 'NONE',  ( 0.000000000000000000, 0.000000000000000000, 0.000000000000000000 ) ) ;
#146 = AXIS2_PLACEMENT_3D ( 'NONE', #238, #40, #18 ) ;
#147 = LINE ( 'NONE', #88, #91 ) ;
#148 = DIRECTION ( 'NONE',  ( 0.000000000000000000, 1.000000000000000000, 0.000000000000000000 ) ) ;
#149 = SURFACE_STYLE_USAGE ( .BOTH. , #30 ) ;
#150 = CARTESIAN_POINT ( 'NONE',  ( 0.3749999999999998890, 3.000000000000000444, 4.592425496802572986E-17 ) ) ;
#151 = STYLED_ITEM ( 'NONE', ( #152 ), #231 ) ;
#152 = PRESENTATION_STYLE_ASSIGNMENT (( #171 ) ) ;
#153 = APPLICATION_CONTEXT ( 'automotive_design' ) ;
#154 =( CONVERSION_BASED_UNIT ( 'INCH', #170 ) LENGTH_UNIT ( ) NAMED_UNIT ( #212 ) );
#155 = APPLICATION_PROTOCOL_DEFINITION ( 'draft international standard', 'automotive_design', 1998, #153 ) ;
#156 =( NAMED_UNIT ( * ) PLANE_ANGLE_UNIT ( ) SI_UNIT ( $, .RADIAN. ) );
#157 = PRODUCT ( '84790', '84790', '', ( #94 ) ) ;
#158 = VECTOR ( 'NONE', #105, 39.37007874015748143 ) ;
#159 = EDGE_CURVE ( 'NONE', #121, #196, #102, .T. ) ;
#160 = APPLICATION_CONTEXT ( 'automotive_design' ) ;
#161 = ORIENTED_EDGE ( 'NONE', *, *, #253, .T. ) ;
#162 = FILL_AREA_STYLE ('',( #119 ) ) ;
#163 = DIRECTION ( 'NONE',  ( 0.000000000000000000, 1.000000000000000000, 0.000000000000000000 ) ) ;
#164 = DIRECTION ( 'NONE',  ( 0.000000000000000000, 0.000000000000000000, -1.000000000000000000 ) ) ;
#165 = EDGE_LOOP ( 'NONE', ( #141, #79, #237, #38 ) ) ;
#166 = CARTESIAN_POINT ( 'NONE',  ( 0.000000000000000000, 0.000000000000000000, 0.000000000000000000 ) ) ;
#167 = DIRECTION ( 'NONE',  ( -1.457912856127801637E-16, 1.000000000000000000, -0.000000000000000000 ) ) ;
#168 = COLOUR_RGB ( '',1.000000000000000000, 0.000000000000000000, 0.000000000000000000 ) ;
#169 = FILL_AREA_STYLE ('',( #48 ) ) ;
#170 = LENGTH_MEASURE_WITH_UNIT ( LENGTH_MEASURE( 0.02539999999999999897 ), #11 );
#171 = SURFACE_STYLE_USAGE ( .BOTH. , #224 ) ;
#172 = CARTESIAN_POINT ( 'NONE',  ( -0.3749999999999998890, 3.000000000000000444, 0.000000000000000000 ) ) ;
#173 = CARTESIAN_POINT ( 'NONE',  ( 3.214697847761804049E-16, 0.3749999999999987232, 0.000000000000000000 ) ) ;
#174 = EDGE_CURVE ( 'NONE', #201, #220, #240, .T. ) ;
#175 = DIRECTION ( 'NONE',  ( 1.000000000000000000, 0.000000000000000000, 0.000000000000000000 ) ) ;
#176 = AXIS2_PLACEMENT_3D ( 'NONE', #92, #167, #47 ) ;
#177 = UNCERTAINTY_MEASURE_WITH_UNIT (LENGTH_MEASURE( 1.000000000000000082E-05 ), #53, 'distance_accuracy_value', 'NONE');
#178 = ORIENTED_EDGE ( 'NONE', *, *, #192, .F. ) ;
#179 = MECHANICAL_DESIGN_GEOMETRIC_PRESENTATION_REPRESENTATION (  '', ( #151 ), #23 ) ;
#180 =( NAMED_UNIT ( * ) SI_UNIT ( $, .STERADIAN. ) SOLID_ANGLE_UNIT ( ) );
#181 = ORIENTED_EDGE ( 'NONE', *, *, #174, .T. ) ;
#182 = UNCERTAINTY_MEASURE_WITH_UNIT (LENGTH_MEASURE( 1.000000000000000082E-05 ), #89, 'distance_accuracy_value', 'NONE');
#183 = DIRECTION ( 'NONE',  ( 0.000000000000000000, -0.000000000000000000, 1.000000000000000000 ) ) ;
#184 = SURFACE_SIDE_STYLE ('',( #251 ) ) ;
#185 = CYLINDRICAL_SURFACE ( 'NONE', #118, 0.3749999999999998335 ) ;
#186 = SURFACE_STYLE_FILL_AREA ( #169 ) ;
#187 = CARTESIAN_POINT ( 'NONE',  ( 0.000000000000000000, 0.000000000000000000, 0.000000000000000000 ) ) ;
#188 = LINE ( 'NONE', #172, #137 ) ;
#189 = SURFACE_STYLE_FILL_AREA ( #125 ) ;
#190 = CARTESIAN_POINT ( 'NONE',  ( 4.592425496802574219E-17, 0.3749999999999987232, -0.3749999999999999445 ) ) ;
#191 = DIMENSIONAL_EXPONENTS ( 1.000000000000000000, 0.000000000000000000, 0.000000000000000000, 0.000000000000000000, 0.000000000000000000, 0.000000000000000000, 0.000000000000000000 ) ;
#192 = EDGE_CURVE ( 'NONE', #220, #201, #59, .T. ) ;
#193 =( GEOMETRIC_REPRESENTATION_CONTEXT ( 3 ) GLOBAL_UNCERTAINTY_ASSIGNED_CONTEXT ( ( #182 ) ) GLOBAL_UNIT_ASSIGNED_CONTEXT ( ( #89, #236, #200 ) ) REPRESENTATION_CONTEXT ( 'NONE', 'WORKASPACE' ) );
#194 = MECHANICAL_DESIGN_GEOMETRIC_PRESENTATION_REPRESENTATION (  '', ( #262 ), #255 ) ;
#195 = SURFACE_STYLE_FILL_AREA ( #162 ) ;
#196 = VERTEX_POINT ( 'NONE', #26 ) ;
#197 =( LENGTH_UNIT ( ) NAMED_UNIT ( * ) SI_UNIT ( $, .METRE. ) );
#198 = EDGE_LOOP ( 'NONE', ( #144, #136, #101 ) ) ;
#199 = ADVANCED_FACE ( 'NONE', ( #139 ), #61, .F. ) ;
#200 =( NAMED_UNIT ( * ) SI_UNIT ( $, .STERADIAN. ) SOLID_ANGLE_UNIT ( ) );
#201 = VERTEX_POINT ( 'NONE', #109 ) ;
#202 = COLOUR_RGB ( '',1.000000000000000000, 0.000000000000000000, 0.000000000000000000 ) ;
#203 = DIRECTION ( 'NONE',  ( -0.000000000000000000, -1.000000000000000000, -0.000000000000000000 ) ) ;
#204 = CARTESIAN_POINT ( 'NONE',  ( -0.3750000000000000555, 3.000000000000000444, 0.000000000000000000 ) ) ;
#205 = CARTESIAN_POINT ( 'NONE',  ( 3.214697847761804542E-16, 0.3749999999999986122, 0.000000000000000000 ) ) ;
#206 = MANIFOLD_SOLID_BREP ( 'Revolve - Cutting Edge', #9 ) ;
#207 = PRESENTATION_LAYER_ASSIGNMENT (  '', '', ( #122 ) ) ;
#208 = DIRECTION ( 'NONE',  ( -1.457912856127801637E-16, 1.000000000000000000, 0.000000000000000000 ) ) ;
#209 =( NAMED_UNIT ( * ) PLANE_ANGLE_UNIT ( ) SI_UNIT ( $, .RADIAN. ) );
#210 = DIRECTION ( 'NONE',  ( -1.457912856127801637E-16, 1.000000000000000000, -0.000000000000000000 ) ) ;
#211 = PLANE ( 'NONE',  #1 ) ;
#212 = DIMENSIONAL_EXPONENTS ( 1.000000000000000000, 0.000000000000000000, 0.000000000000000000, 0.000000000000000000, 0.000000000000000000, 0.000000000000000000, 0.000000000000000000 ) ;
#213 =( NAMED_UNIT ( * ) PLANE_ANGLE_UNIT ( ) SI_UNIT ( $, .RADIAN. ) );
#214 = DIRECTION ( 'NONE',  ( -1.000000000000000000, -1.821231995776177451E-16, 0.000000000000000000 ) ) ;
#215 =( GEOMETRIC_REPRESENTATION_CONTEXT ( 3 ) GLOBAL_UNCERTAINTY_ASSIGNED_CONTEXT ( ( #140 ) ) GLOBAL_UNIT_ASSIGNED_CONTEXT ( ( #263, #222, #246 ) ) REPRESENTATION_CONTEXT ( 'NONE', 'WORKASPACE' ) );
#216 = ORIENTED_EDGE ( 'NONE', *, *, #123, .F. ) ;
#217 = ORIENTED_EDGE ( 'NONE', *, *, #159, .F. ) ;
#218 = ADVANCED_FACE ( 'NONE', ( #66 ), #211, .F. ) ;
#219 = FACE_OUTER_BOUND ( 'NONE', #165, .T. ) ;
#220 = VERTEX_POINT ( 'NONE', #190 ) ;
#221 = UNCERTAINTY_MEASURE_WITH_UNIT (LENGTH_MEASURE( 1.000000000000000082E-05 ), #154, 'distance_accuracy_value', 'NONE');
#222 =( NAMED_UNIT ( * ) PLANE_ANGLE_UNIT ( ) SI_UNIT ( $, .RADIAN. ) );
#223 = DIRECTION ( 'NONE',  ( -1.000000000000000000, -1.821231995776177451E-16, 0.000000000000000000 ) ) ;
#224 = SURFACE_SIDE_STYLE ('',( #186 ) ) ;
#225 = ORIENTED_EDGE ( 'NONE', *, *, #83, .F. ) ;
#226 = PRESENTATION_STYLE_ASSIGNMENT (( #149 ) ) ;
#227 = PRESENTATION_STYLE_ASSIGNMENT (( #8 ) ) ;
#228 = AXIS2_PLACEMENT_3D ( 'NONE', #41, #203, #164 ) ;
#229 =( LENGTH_UNIT ( ) NAMED_UNIT ( * ) SI_UNIT ( $, .METRE. ) );
#230 = CYLINDRICAL_SURFACE ( 'NONE', #146, 0.3749999999999998335 ) ;
#231 = ADVANCED_FACE ( 'NONE', ( #12 ), #116, .T. ) ;
#232 = DIRECTION ( 'NONE',  ( -1.000000000000000000, -1.457912856127801637E-16, 0.000000000000000000 ) ) ;
#233 =( CONVERSION_BASED_UNIT ( 'INCH', #256 ) LENGTH_UNIT ( ) NAMED_UNIT ( #117 ) );
#234 = MECHANICAL_DESIGN_GEOMETRIC_PRESENTATION_REPRESENTATION (  '', ( #39 ), #54 ) ;
#235 = MECHANICAL_DESIGN_GEOMETRIC_PRESENTATION_REPRESENTATION (  '', ( #129 ), #215 ) ;
#236 =( NAMED_UNIT ( * ) PLANE_ANGLE_UNIT ( ) SI_UNIT ( $, .RADIAN. ) );
#237 = ORIENTED_EDGE ( 'NONE', *, *, #83, .T. ) ;
#238 = CARTESIAN_POINT ( 'NONE',  ( -6.123233995736772199E-17, 3.000000000000000444, 0.000000000000000000 ) ) ;
#239 = ORIENTED_EDGE ( 'NONE', *, *, #98, .T. ) ;
#240 = CIRCLE ( 'NONE', #228, 0.3749999999999999445 ) ;
#241 = PRESENTATION_LAYER_ASSIGNMENT (  '', '', ( #39 ) ) ;
#242 = PRODUCT_DEFINITION_FORMATION_WITH_SPECIFIED_SOURCE ( 'ANY', '', #157, .NOT_KNOWN. ) ;
#243 = ADVANCED_FACE ( 'NONE', ( #113 ), #138, .T. ) ;
#244 = UNCERTAINTY_MEASURE_WITH_UNIT (LENGTH_MEASURE( 1.000000000000000082E-05 ), #233, 'distance_accuracy_value', 'NONE');
#245 = DIRECTION ( 'NONE',  ( -1.457912856127801637E-16, 1.000000000000000000, -0.000000000000000000 ) ) ;
#246 =( NAMED_UNIT ( * ) SI_UNIT ( $, .STERADIAN. ) SOLID_ANGLE_UNIT ( ) );
#247 = EDGE_LOOP ( 'NONE', ( #3, #19, #181 ) ) ;
#248 = DIRECTION ( 'NONE',  ( -1.000000000000000000, 0.000000000000000000, 0.000000000000000000 ) ) ;
#249 = EDGE_LOOP ( 'NONE', ( #216, #217 ) ) ;
#250 = CARTESIAN_POINT ( 'NONE',  ( 0.000000000000000000, 39.37007874015748143, 0.000000000000000000 ) ) ;
#251 = SURFACE_STYLE_FILL_AREA ( #72 ) ;
#252 = DIRECTION ( 'NONE',  ( -1.457912856127801637E-16, 1.000000000000000000, -0.000000000000000000 ) ) ;
#253 = EDGE_CURVE ( 'NONE', #57, #43, #17, .T. ) ;
#254 =( GEOMETRIC_REPRESENTATION_CONTEXT ( 3 ) GLOBAL_UNCERTAINTY_ASSIGNED_CONTEXT ( ( #244 ) ) GLOBAL_UNIT_ASSIGNED_CONTEXT ( ( #233, #156, #115 ) ) REPRESENTATION_CONTEXT ( 'NONE', 'WORKASPACE' ) );
#255 =( GEOMETRIC_REPRESENTATION_CONTEXT ( 3 ) GLOBAL_UNCERTAINTY_ASSIGNED_CONTEXT ( ( #58 ) ) GLOBAL_UNIT_ASSIGNED_CONTEXT ( ( #6, #64, #180 ) ) REPRESENTATION_CONTEXT ( 'NONE', 'WORKASPACE' ) );
#256 = LENGTH_MEASURE_WITH_UNIT ( LENGTH_MEASURE( 0.02539999999999999897 ), #90 );
#257 = APPLICATION_PROTOCOL_DEFINITION ( 'draft international standard', 'automotive_design', 1998, #160 ) ;
#258 = ADVANCED_BREP_SHAPE_REPRESENTATION ( '84790', ( #206, #126, #10 ), #193 ) ;
#259 = MECHANICAL_DESIGN_GEOMETRIC_PRESENTATION_REPRESENTATION (  '', ( #122 ), #254 ) ;
#260 = EDGE_CURVE ( 'NONE', #103, #220, #85, .T. ) ;
#261 = PRODUCT_DEFINITION_SHAPE ( 'NONE', 'NONE',  #71 ) ;
#262 = STYLED_ITEM ( 'NONE', ( #226 ), #243 ) ;
#263 =( CONVERSION_BASED_UNIT ( 'INCH', #84 ) LENGTH_UNIT ( ) NAMED_UNIT ( #191 ) );
#264 = LENGTH_MEASURE_WITH_UNIT ( LENGTH_MEASURE( 0.02539999999999999897 ), #77 );
#265 = DIRECTION ( 'NONE',  ( -0.000000000000000000, -1.000000000000000000, -0.000000000000000000 ) ) ;
ENDSEC;
END-ISO-10303-21;
