ISO-10303-21;
HEADER;
FILE_DESCRIPTION (( 'STEP AP214' ),
    '1' );
FILE_NAME ('01707.STEP',
    '2023-06-22T14:45:15',
    ( '' ),
    ( '' ),
    'SwSTEP 2.0',
    'SolidWorks 2023',
    '' );
FILE_SCHEMA (( 'AUTOMOTIVE_DESIGN' ));
ENDSEC;

DATA;
#1 = DIRECTION ( 'NONE',  ( -1.000000000000000000, -2.449293598294703764E-17, 0.000000000000000000 ) ) ;
#2 = ORIENTED_EDGE ( 'NONE', *, *, #177, .F. ) ;
#3 = DIRECTION ( 'NONE',  ( 0.000000000000000000, 0.000000000000000000, -1.000000000000000000 ) ) ;
#4 = LENGTH_MEASURE_WITH_UNIT ( LENGTH_MEASURE( 0.02539999999999999897 ), #129 );
#5 = SURFACE_STYLE_FILL_AREA ( #171 ) ;
#6 = FACE_OUTER_BOUND ( 'NONE', #195, .T. ) ;
#7 = PRESENTATION_LAYER_ASSIGNMENT (  '', '', ( #105 ) ) ;
#8 = CIRCLE ( 'NONE', #234, 0.3750000000000000555 ) ;
#9 = STYLED_ITEM ( 'NONE', ( #290 ), #256 ) ;
#10 = ORIENTED_EDGE ( 'NONE', *, *, #177, .T. ) ;
#11 = CARTESIAN_POINT ( 'NONE',  ( -0.3750000000000000555, 4.000000000000000000, 0.000000000000000000 ) ) ;
#12 = CARTESIAN_POINT ( 'NONE',  ( 7.582401355855259480E-33, 4.000000000000000000, 0.000000000000000000 ) ) ;
#13 = ADVANCED_FACE ( 'NONE', ( #263 ), #244, .F. ) ;
#14 =( CONVERSION_BASED_UNIT ( 'INCH', #179 ) LENGTH_UNIT ( ) NAMED_UNIT ( #21 ) );
#15 = SURFACE_STYLE_USAGE ( .BOTH. , #68 ) ;
#16 = PRODUCT_DEFINITION_SHAPE ( 'NONE', 'NONE',  #50 ) ;
#17 = DIMENSIONAL_EXPONENTS ( 1.000000000000000000, 0.000000000000000000, 0.000000000000000000, 0.000000000000000000, 0.000000000000000000, 0.000000000000000000, 0.000000000000000000 ) ;
#18 = LENGTH_MEASURE_WITH_UNIT ( LENGTH_MEASURE( 0.02539999999999999897 ), #67 );
#19 = AXIS2_PLACEMENT_3D ( 'NONE', #107, #66, #81 ) ;
#20 = CLOSED_SHELL ( 'NONE', ( #277, #222, #229, #13 ) ) ;
#21 = DIMENSIONAL_EXPONENTS ( 1.000000000000000000, 0.000000000000000000, 0.000000000000000000, 0.000000000000000000, 0.000000000000000000, 0.000000000000000000, 0.000000000000000000 ) ;
#22 = FACE_OUTER_BOUND ( 'NONE', #166, .T. ) ;
#23 = EDGE_CURVE ( 'NONE', #96, #249, #226, .T. ) ;
#24 = CARTESIAN_POINT ( 'NONE',  ( 0.3750000000000000555, 6.500000000000000000, 4.592425496802576068E-17 ) ) ;
#25 = CYLINDRICAL_SURFACE ( 'NONE', #276, 0.3750000000000001110 ) ;
#26 = ORIENTED_EDGE ( 'NONE', *, *, #101, .F. ) ;
#27 = ADVANCED_FACE ( 'NONE', ( #119 ), #112, .T. ) ;
#28 = EDGE_LOOP ( 'NONE', ( #32, #189, #216, #285 ) ) ;
#29 = CARTESIAN_POINT ( 'NONE',  ( 0.3750000000000000555, 6.500000000000000000, 0.000000000000000000 ) ) ;
#30 =( NAMED_UNIT ( * ) PLANE_ANGLE_UNIT ( ) SI_UNIT ( $, .RADIAN. ) );
#31 = VECTOR ( 'NONE', #251, 39.37007874015748143 ) ;
#32 = ORIENTED_EDGE ( 'NONE', *, *, #57, .F. ) ;
#33 = CYLINDRICAL_SURFACE ( 'NONE', #120, 0.3750000000000001110 ) ;
#34 = FILL_AREA_STYLE_COLOUR ( '', #218 ) ;
#35 =( GEOMETRIC_REPRESENTATION_CONTEXT ( 3 ) GLOBAL_UNCERTAINTY_ASSIGNED_CONTEXT ( ( #267 ) ) GLOBAL_UNIT_ASSIGNED_CONTEXT ( ( #149, #295, #146 ) ) REPRESENTATION_CONTEXT ( 'NONE', 'WORKASPACE' ) );
#36 = CARTESIAN_POINT ( 'NONE',  ( 0.000000000000000000, 0.000000000000000000, 0.000000000000000000 ) ) ;
#37 =( NAMED_UNIT ( * ) PLANE_ANGLE_UNIT ( ) SI_UNIT ( $, .RADIAN. ) );
#38 =( NAMED_UNIT ( * ) PLANE_ANGLE_UNIT ( ) SI_UNIT ( $, .RADIAN. ) );
#39 = APPLICATION_CONTEXT ( 'automotive_design' ) ;
#40 = APPLICATION_PROTOCOL_DEFINITION ( 'draft international standard', 'automotive_design', 1998, #132 ) ;
#41 =( LENGTH_UNIT ( ) NAMED_UNIT ( * ) SI_UNIT ( $, .METRE. ) );
#42 =( GEOMETRIC_REPRESENTATION_CONTEXT ( 3 ) GLOBAL_UNCERTAINTY_ASSIGNED_CONTEXT ( ( #135 ) ) GLOBAL_UNIT_ASSIGNED_CONTEXT ( ( #198, #30, #144 ) ) REPRESENTATION_CONTEXT ( 'NONE', 'WORKASPACE' ) );
#43 = FILL_AREA_STYLE_COLOUR ( '', #130 ) ;
#44 = DIMENSIONAL_EXPONENTS ( 1.000000000000000000, 0.000000000000000000, 0.000000000000000000, 0.000000000000000000, 0.000000000000000000, 0.000000000000000000, 0.000000000000000000 ) ;
#45 = DIRECTION ( 'NONE',  ( 0.000000000000000000, 0.000000000000000000, -1.000000000000000000 ) ) ;
#46 = DIMENSIONAL_EXPONENTS ( 1.000000000000000000, 0.000000000000000000, 0.000000000000000000, 0.000000000000000000, 0.000000000000000000, 0.000000000000000000, 0.000000000000000000 ) ;
#47 = PLANE ( 'NONE',  #74 ) ;
#48 = PRESENTATION_LAYER_ASSIGNMENT (  '', '', ( #176 ) ) ;
#49 = FILL_AREA_STYLE ('',( #69 ) ) ;
#50 = PRODUCT_DEFINITION ( 'UNKNOWN', '', #103, #161 ) ;
#51 = ORIENTED_EDGE ( 'NONE', *, *, #57, .T. ) ;
#52 = VECTOR ( 'NONE', #184, 39.37007874015748143 ) ;
#53 = EDGE_CURVE ( 'NONE', #241, #73, #8, .T. ) ;
#54 = ORIENTED_EDGE ( 'NONE', *, *, #71, .F. ) ;
#55 = DIRECTION ( 'NONE',  ( 2.449293598294703764E-17, -1.000000000000000000, 0.000000000000000000 ) ) ;
#56 = AXIS2_PLACEMENT_3D ( 'NONE', #111, #158, #45 ) ;
#57 = EDGE_CURVE ( 'NONE', #249, #175, #257, .T. ) ;
#58 = CARTESIAN_POINT ( 'NONE',  ( 0.3750000000000000555, 4.000000000000000000, 4.592425496802576068E-17 ) ) ;
#59 = DIRECTION ( 'NONE',  ( -2.449293598294704072E-17, 1.000000000000000000, -0.000000000000000000 ) ) ;
#60 = ORIENTED_EDGE ( 'NONE', *, *, #264, .F. ) ;
#61 = PRESENTATION_LAYER_ASSIGNMENT (  '', '', ( #118 ) ) ;
#62 = SURFACE_SIDE_STYLE ('',( #183 ) ) ;
#63 =( NAMED_UNIT ( * ) SI_UNIT ( $, .STERADIAN. ) SOLID_ANGLE_UNIT ( ) );
#64 = SURFACE_STYLE_FILL_AREA ( #131 ) ;
#65 = CIRCLE ( 'NONE', #92, 0.3750000000000000555 ) ;
#66 = DIRECTION ( 'NONE',  ( -2.449293598294704072E-17, 1.000000000000000000, -0.000000000000000000 ) ) ;
#67 =( LENGTH_UNIT ( ) NAMED_UNIT ( * ) SI_UNIT ( $, .METRE. ) );
#68 = SURFACE_SIDE_STYLE ('',( #64 ) ) ;
#69 = FILL_AREA_STYLE_COLOUR ( '', #173 ) ;
#70 =( NAMED_UNIT ( * ) PLANE_ANGLE_UNIT ( ) SI_UNIT ( $, .RADIAN. ) );
#71 = EDGE_CURVE ( 'NONE', #73, #163, #85, .T. ) ;
#72 = CARTESIAN_POINT ( 'NONE',  ( -6.123233995736759873E-17, 6.500000000000000000, 0.000000000000000000 ) ) ;
#73 = VERTEX_POINT ( 'NONE', #230 ) ;
#74 = AXIS2_PLACEMENT_3D ( 'NONE', #239, #306, #1 ) ;
#75 = PRESENTATION_STYLE_ASSIGNMENT (( #100 ) ) ;
#76 = CARTESIAN_POINT ( 'NONE',  ( 7.582401355855259480E-33, 4.000000000000000000, 0.000000000000000000 ) ) ;
#77 = DIRECTION ( 'NONE',  ( -0.000000000000000000, -1.000000000000000000, -0.000000000000000000 ) ) ;
#78 = AXIS2_PLACEMENT_3D ( 'NONE', #250, #110, #272 ) ;
#79 = AXIS2_PLACEMENT_3D ( 'NONE', #297, #157, #225 ) ;
#80 = SURFACE_STYLE_USAGE ( .BOTH. , #220 ) ;
#81 = DIRECTION ( 'NONE',  ( -1.000000000000000000, 0.000000000000000000, 0.000000000000000000 ) ) ;
#82 = ORIENTED_EDGE ( 'NONE', *, *, #187, .F. ) ;
#83 = DIRECTION ( 'NONE',  ( -2.449293598294703764E-17, 1.000000000000000000, -0.000000000000000000 ) ) ;
#84 = MECHANICAL_DESIGN_GEOMETRIC_PRESENTATION_REPRESENTATION (  '', ( #118 ), #207 ) ;
#85 = LINE ( 'NONE', #154, #246 ) ;
#86 = LINE ( 'NONE', #208, #31 ) ;
#87 = AXIS2_PLACEMENT_3D ( 'NONE', #72, #210, #281 ) ;
#88 = CARTESIAN_POINT ( 'NONE',  ( 0.3750000000000000555, 6.500000000000000000, 4.592425496802576068E-17 ) ) ;
#89 = CARTESIAN_POINT ( 'NONE',  ( 0.000000000000000000, 4.000000000000000000, 0.000000000000000000 ) ) ;
#90 = CARTESIAN_POINT ( 'NONE',  ( 0.000000000000000000, 0.000000000000000000, -0.3750000000000000555 ) ) ;
#91 = PRODUCT ( '01707', '01707', '', ( #268 ) ) ;
#92 = AXIS2_PLACEMENT_3D ( 'NONE', #186, #160, #188 ) ;
#93 = CIRCLE ( 'NONE', #253, 0.3750000000000000555 ) ;
#94 = UNCERTAINTY_MEASURE_WITH_UNIT (LENGTH_MEASURE( 1.000000000000000082E-05 ), #108, 'distance_accuracy_value', 'NONE');
#95 = CARTESIAN_POINT ( 'NONE',  ( 4.592425496802575451E-17, 0.000000000000000000, 0.3750000000000000555 ) ) ;
#96 = VERTEX_POINT ( 'NONE', #11 ) ;
#97 = ORIENTED_EDGE ( 'NONE', *, *, #128, .F. ) ;
#98 = ORIENTED_EDGE ( 'NONE', *, *, #294, .F. ) ;
#99 = CIRCLE ( 'NONE', #133, 0.3750000000000000555 ) ;
#100 = SURFACE_STYLE_USAGE ( .BOTH. , #127 ) ;
#101 = EDGE_CURVE ( 'NONE', #124, #163, #139, .T. ) ;
#102 = CARTESIAN_POINT ( 'NONE',  ( -6.123233995736759873E-17, 6.500000000000000000, 0.000000000000000000 ) ) ;
#103 = PRODUCT_DEFINITION_FORMATION_WITH_SPECIFIED_SOURCE ( 'ANY', '', #91, .NOT_KNOWN. ) ;
#104 = DIRECTION ( 'NONE',  ( -2.449293598294704072E-17, 1.000000000000000000, -0.000000000000000000 ) ) ;
#105 = STYLED_ITEM ( 'NONE', ( #262 ), #232 ) ;
#106 = EDGE_LOOP ( 'NONE', ( #307, #213 ) ) ;
#107 = CARTESIAN_POINT ( 'NONE',  ( -6.123233995736759873E-17, 6.500000000000000000, 0.000000000000000000 ) ) ;
#108 =( CONVERSION_BASED_UNIT ( 'INCH', #152 ) LENGTH_UNIT ( ) NAMED_UNIT ( #271 ) );
#109 = DIRECTION ( 'NONE',  ( -0.000000000000000000, -1.000000000000000000, -0.000000000000000000 ) ) ;
#110 = DIRECTION ( 'NONE',  ( 0.000000000000000000, 1.000000000000000000, 0.000000000000000000 ) ) ;
#111 = CARTESIAN_POINT ( 'NONE',  ( 0.000000000000000000, 0.000000000000000000, 0.000000000000000000 ) ) ;
#112 = CYLINDRICAL_SURFACE ( 'NONE', #265, 0.3750000000000000555 ) ;
#113 =( CONVERSION_BASED_UNIT ( 'INCH', #18 ) LENGTH_UNIT ( ) NAMED_UNIT ( #17 ) );
#114 = FILL_AREA_STYLE_COLOUR ( '', #156 ) ;
#115 = DIRECTION ( 'NONE',  ( -2.449293598294704072E-17, 1.000000000000000000, -0.000000000000000000 ) ) ;
#116 = CYLINDRICAL_SURFACE ( 'NONE', #292, 0.3750000000000000555 ) ;
#117 = MECHANICAL_DESIGN_GEOMETRIC_PRESENTATION_REPRESENTATION (  '', ( #9 ), #35 ) ;
#118 = STYLED_ITEM ( 'NONE', ( #137 ), #27 ) ;
#119 = FACE_OUTER_BOUND ( 'NONE', #201, .T. ) ;
#120 = AXIS2_PLACEMENT_3D ( 'NONE', #102, #104, #126 ) ;
#121 = CARTESIAN_POINT ( 'NONE',  ( -6.123233995736759873E-17, 6.500000000000000000, 0.000000000000000000 ) ) ;
#122 = ORIENTED_EDGE ( 'NONE', *, *, #53, .T. ) ;
#123 =( LENGTH_UNIT ( ) NAMED_UNIT ( * ) SI_UNIT ( $, .METRE. ) );
#124 = VERTEX_POINT ( 'NONE', #299 ) ;
#125 = DIRECTION ( 'NONE',  ( 1.000000000000000000, 2.449293598294703764E-17, 0.000000000000000000 ) ) ;
#126 = DIRECTION ( 'NONE',  ( -1.000000000000000000, 0.000000000000000000, 0.000000000000000000 ) ) ;
#127 = SURFACE_SIDE_STYLE ('',( #199 ) ) ;
#128 = EDGE_CURVE ( 'NONE', #96, #214, #86, .T. ) ;
#129 =( LENGTH_UNIT ( ) NAMED_UNIT ( * ) SI_UNIT ( $, .METRE. ) );
#130 = COLOUR_RGB ( '',1.000000000000000000, 0.000000000000000000, 0.000000000000000000 ) ;
#131 = FILL_AREA_STYLE ('',( #203 ) ) ;
#132 = APPLICATION_CONTEXT ( 'automotive_design' ) ;
#133 = AXIS2_PLACEMENT_3D ( 'NONE', #196, #77, #3 ) ;
#134 = DIRECTION ( 'NONE',  ( -0.000000000000000000, -1.000000000000000000, -0.000000000000000000 ) ) ;
#135 = UNCERTAINTY_MEASURE_WITH_UNIT (LENGTH_MEASURE( 1.000000000000000082E-05 ), #198, 'distance_accuracy_value', 'NONE');
#136 = FILL_AREA_STYLE ('',( #43 ) ) ;
#137 = PRESENTATION_STYLE_ASSIGNMENT (( #15 ) ) ;
#138 = DIRECTION ( 'NONE',  ( 0.000000000000000000, 0.000000000000000000, -1.000000000000000000 ) ) ;
#139 = CIRCLE ( 'NONE', #56, 0.3750000000000000555 ) ;
#140 = DIRECTION ( 'NONE',  ( -1.000000000000000000, 0.000000000000000000, 0.000000000000000000 ) ) ;
#141 = STYLED_ITEM ( 'NONE', ( #284 ), #233 ) ;
#142 = SURFACE_SIDE_STYLE ('',( #190 ) ) ;
#143 = ORIENTED_EDGE ( 'NONE', *, *, #53, .F. ) ;
#144 =( NAMED_UNIT ( * ) SI_UNIT ( $, .STERADIAN. ) SOLID_ANGLE_UNIT ( ) );
#145 = ADVANCED_FACE ( 'NONE', ( #180 ), #274, .T. ) ;
#146 =( NAMED_UNIT ( * ) SI_UNIT ( $, .STERADIAN. ) SOLID_ANGLE_UNIT ( ) );
#147 = ORIENTED_EDGE ( 'NONE', *, *, #264, .T. ) ;
#148 = AXIS2_PLACEMENT_3D ( 'NONE', #164, #237, #138 ) ;
#149 =( CONVERSION_BASED_UNIT ( 'INCH', #245 ) LENGTH_UNIT ( ) NAMED_UNIT ( #46 ) );
#150 = FACE_OUTER_BOUND ( 'NONE', #242, .T. ) ;
#151 = PRESENTATION_LAYER_ASSIGNMENT (  '', '', ( #9 ) ) ;
#152 = LENGTH_MEASURE_WITH_UNIT ( LENGTH_MEASURE( 0.02539999999999999897 ), #275 );
#153 = DIRECTION ( 'NONE',  ( -1.000000000000000000, 0.000000000000000000, 0.000000000000000000 ) ) ;
#154 = CARTESIAN_POINT ( 'NONE',  ( 0.000000000000000000, 0.000000000000000000, -0.3750000000000000555 ) ) ;
#155 = STYLED_ITEM ( 'NONE', ( #75 ), #289 ) ;
#156 = COLOUR_RGB ( '',1.000000000000000000, 0.000000000000000000, 0.000000000000000000 ) ;
#157 = DIRECTION ( 'NONE',  ( 0.000000000000000000, 0.000000000000000000, 1.000000000000000000 ) ) ;
#158 = DIRECTION ( 'NONE',  ( -0.000000000000000000, -1.000000000000000000, -0.000000000000000000 ) ) ;
#159 =( LENGTH_UNIT ( ) NAMED_UNIT ( * ) SI_UNIT ( $, .METRE. ) );
#160 = DIRECTION ( 'NONE',  ( -0.000000000000000000, -1.000000000000000000, -0.000000000000000000 ) ) ;
#161 = PRODUCT_DEFINITION_CONTEXT ( 'detailed design', #132, 'design' ) ;
#162 =( NAMED_UNIT ( * ) SI_UNIT ( $, .STERADIAN. ) SOLID_ANGLE_UNIT ( ) );
#163 = VERTEX_POINT ( 'NONE', #90 ) ;
#164 = CARTESIAN_POINT ( 'NONE',  ( 0.000000000000000000, 0.000000000000000000, 0.000000000000000000 ) ) ;
#165 = COLOUR_RGB ( '',0.7921568627450980005, 0.8196078431372548767, 0.9333333333333333481 ) ;
#166 = EDGE_LOOP ( 'NONE', ( #197, #98 ) ) ;
#167 =( NAMED_UNIT ( * ) PLANE_ANGLE_UNIT ( ) SI_UNIT ( $, .RADIAN. ) );
#168 = EDGE_LOOP ( 'NONE', ( #2, #122, #287, #26 ) ) ;
#169 =( LENGTH_UNIT ( ) NAMED_UNIT ( * ) SI_UNIT ( $, .METRE. ) );
#170 = DIRECTION ( 'NONE',  ( -2.449293598294704072E-17, 1.000000000000000000, -0.000000000000000000 ) ) ;
#171 = FILL_AREA_STYLE ('',( #114 ) ) ;
#172 = CLOSED_SHELL ( 'NONE', ( #27, #289, #256, #145 ) ) ;
#173 = COLOUR_RGB ( '',0.7921568627450980005, 0.8196078431372548767, 0.9333333333333333481 ) ;
#174 = LENGTH_MEASURE_WITH_UNIT ( LENGTH_MEASURE( 0.02539999999999999897 ), #123 );
#175 = VERTEX_POINT ( 'NONE', #24 ) ;
#176 = STYLED_ITEM ( 'NONE', ( #224 ), #145 ) ;
#177 = EDGE_CURVE ( 'NONE', #241, #124, #286, .T. ) ;
#178 = DIMENSIONAL_EXPONENTS ( 1.000000000000000000, 0.000000000000000000, 0.000000000000000000, 0.000000000000000000, 0.000000000000000000, 0.000000000000000000, 0.000000000000000000 ) ;
#179 = LENGTH_MEASURE_WITH_UNIT ( LENGTH_MEASURE( 0.02539999999999999897 ), #41 );
#180 = FACE_OUTER_BOUND ( 'NONE', #221, .T. ) ;
#181 = EDGE_CURVE ( 'NONE', #73, #241, #65, .T. ) ;
#182 = DIRECTION ( 'NONE',  ( -1.000000000000000000, 0.000000000000000000, 0.000000000000000000 ) ) ;
#183 = SURFACE_STYLE_FILL_AREA ( #136 ) ;
#184 = DIRECTION ( 'NONE',  ( -0.000000000000000000, -1.000000000000000000, -0.000000000000000000 ) ) ;
#185 = UNCERTAINTY_MEASURE_WITH_UNIT (LENGTH_MEASURE( 1.000000000000000082E-05 ), #14, 'distance_accuracy_value', 'NONE');
#186 = CARTESIAN_POINT ( 'NONE',  ( 0.000000000000000000, 4.000000000000000000, 0.000000000000000000 ) ) ;
#187 = EDGE_CURVE ( 'NONE', #214, #175, #240, .T. ) ;
#188 = DIRECTION ( 'NONE',  ( 0.000000000000000000, 0.000000000000000000, -1.000000000000000000 ) ) ;
#189 = ORIENTED_EDGE ( 'NONE', *, *, #294, .T. ) ;
#190 = SURFACE_STYLE_FILL_AREA ( #49 ) ;
#191 = ORIENTED_EDGE ( 'NONE', *, *, #181, .T. ) ;
#192 = FILL_AREA_STYLE ('',( #261 ) ) ;
#193 = CIRCLE ( 'NONE', #19, 0.3750000000000001110 ) ;
#194 = AXIS2_PLACEMENT_3D ( 'NONE', #29, #55, #125 ) ;
#195 = EDGE_LOOP ( 'NONE', ( #296, #51, #82, #97 ) ) ;
#196 = CARTESIAN_POINT ( 'NONE',  ( 0.000000000000000000, 0.000000000000000000, 0.000000000000000000 ) ) ;
#197 = ORIENTED_EDGE ( 'NONE', *, *, #23, .F. ) ;
#198 =( CONVERSION_BASED_UNIT ( 'INCH', #174 ) LENGTH_UNIT ( ) NAMED_UNIT ( #44 ) );
#199 = SURFACE_STYLE_FILL_AREA ( #288 ) ;
#200 =( CONVERSION_BASED_UNIT ( 'INCH', #4 ) LENGTH_UNIT ( ) NAMED_UNIT ( #301 ) );
#201 = EDGE_LOOP ( 'NONE', ( #191, #10, #60, #54 ) ) ;
#202 =( NAMED_UNIT ( * ) PLANE_ANGLE_UNIT ( ) SI_UNIT ( $, .RADIAN. ) );
#203 = FILL_AREA_STYLE_COLOUR ( '', #254 ) ;
#204 =( NAMED_UNIT ( * ) SI_UNIT ( $, .STERADIAN. ) SOLID_ANGLE_UNIT ( ) );
#205 = MECHANICAL_DESIGN_GEOMETRIC_PRESENTATION_REPRESENTATION (  '', ( #155 ), #211 ) ;
#206 = ADVANCED_BREP_SHAPE_REPRESENTATION ( '01707', ( #232, #233, #79 ), #238 ) ;
#207 =( GEOMETRIC_REPRESENTATION_CONTEXT ( 3 ) GLOBAL_UNCERTAINTY_ASSIGNED_CONTEXT ( ( #185 ) ) GLOBAL_UNIT_ASSIGNED_CONTEXT ( ( #14, #38, #270 ) ) REPRESENTATION_CONTEXT ( 'NONE', 'WORKASPACE' ) );
#208 = CARTESIAN_POINT ( 'NONE',  ( -0.3750000000000001665, 6.500000000000000000, 0.000000000000000000 ) ) ;
#209 = LENGTH_MEASURE_WITH_UNIT ( LENGTH_MEASURE( 0.02539999999999999897 ), #159 );
#210 = DIRECTION ( 'NONE',  ( -2.449293598294704072E-17, 1.000000000000000000, -0.000000000000000000 ) ) ;
#211 =( GEOMETRIC_REPRESENTATION_CONTEXT ( 3 ) GLOBAL_UNCERTAINTY_ASSIGNED_CONTEXT ( ( #223 ) ) GLOBAL_UNIT_ASSIGNED_CONTEXT ( ( #200, #167, #63 ) ) REPRESENTATION_CONTEXT ( 'NONE', 'WORKASPACE' ) );
#212 = MECHANICAL_DESIGN_GEOMETRIC_PRESENTATION_REPRESENTATION (  '', ( #141 ), #42 ) ;
#213 = ORIENTED_EDGE ( 'NONE', *, *, #300, .T. ) ;
#214 = VERTEX_POINT ( 'NONE', #282 ) ;
#215 = CARTESIAN_POINT ( 'NONE',  ( 0.000000000000000000, 0.000000000000000000, 0.000000000000000000 ) ) ;
#216 = ORIENTED_EDGE ( 'NONE', *, *, #128, .T. ) ;
#217 = DIRECTION ( 'NONE',  ( 0.000000000000000000, 0.000000000000000000, -1.000000000000000000 ) ) ;
#218 = COLOUR_RGB ( '',1.000000000000000000, 0.000000000000000000, 0.000000000000000000 ) ;
#219 = MECHANICAL_DESIGN_GEOMETRIC_PRESENTATION_REPRESENTATION (  '', ( #105 ), #305 ) ;
#220 = SURFACE_SIDE_STYLE ('',( #5 ) ) ;
#221 = EDGE_LOOP ( 'NONE', ( #147, #283 ) ) ;
#222 = ADVANCED_FACE ( 'NONE', ( #22 ), #47, .F. ) ;
#223 = UNCERTAINTY_MEASURE_WITH_UNIT (LENGTH_MEASURE( 1.000000000000000082E-05 ), #200, 'distance_accuracy_value', 'NONE');
#224 = PRESENTATION_STYLE_ASSIGNMENT (( #231 ) ) ;
#225 = DIRECTION ( 'NONE',  ( 1.000000000000000000, 0.000000000000000000, 0.000000000000000000 ) ) ;
#226 = CIRCLE ( 'NONE', #228, 0.3750000000000000555 ) ;
#227 = SHAPE_DEFINITION_REPRESENTATION ( #16, #206 ) ;
#228 = AXIS2_PLACEMENT_3D ( 'NONE', #76, #170, #153 ) ;
#229 = ADVANCED_FACE ( 'NONE', ( #303 ), #25, .T. ) ;
#230 = CARTESIAN_POINT ( 'NONE',  ( 0.000000000000000000, 4.000000000000000000, -0.3750000000000000555 ) ) ;
#231 = SURFACE_STYLE_USAGE ( .BOTH. , #62 ) ;
#232 = MANIFOLD_SOLID_BREP ( 'Revolve - Cutting Edge', #172 ) ;
#233 = MANIFOLD_SOLID_BREP ( 'Revolve - Tool Body (Straight Shanked)', #20 ) ;
#234 = AXIS2_PLACEMENT_3D ( 'NONE', #89, #109, #298 ) ;
#235 = SURFACE_SIDE_STYLE ('',( #258 ) ) ;
#236 = SURFACE_STYLE_USAGE ( .BOTH. , #142 ) ;
#237 = DIRECTION ( 'NONE',  ( 0.000000000000000000, -1.000000000000000000, -0.000000000000000000 ) ) ;
#238 =( GEOMETRIC_REPRESENTATION_CONTEXT ( 3 ) GLOBAL_UNCERTAINTY_ASSIGNED_CONTEXT ( ( #94 ) ) GLOBAL_UNIT_ASSIGNED_CONTEXT ( ( #108, #37, #204 ) ) REPRESENTATION_CONTEXT ( 'NONE', 'WORKASPACE' ) );
#239 = CARTESIAN_POINT ( 'NONE',  ( 1.124819836996391367E-34, 4.000000000000000000, 0.000000000000000000 ) ) ;
#240 = CIRCLE ( 'NONE', #87, 0.3750000000000001110 ) ;
#241 = VERTEX_POINT ( 'NONE', #266 ) ;
#242 = EDGE_LOOP ( 'NONE', ( #309, #143 ) ) ;
#243 = FACE_OUTER_BOUND ( 'NONE', #168, .T. ) ;
#244 = PLANE ( 'NONE',  #194 ) ;
#245 = LENGTH_MEASURE_WITH_UNIT ( LENGTH_MEASURE( 0.02539999999999999897 ), #169 );
#246 = VECTOR ( 'NONE', #134, 39.37007874015748143 ) ;
#247 = PRODUCT_RELATED_PRODUCT_CATEGORY ( 'part', '', ( #91 ) ) ;
#248 = PLANE ( 'NONE',  #78 ) ;
#249 = VERTEX_POINT ( 'NONE', #58 ) ;
#250 = CARTESIAN_POINT ( 'NONE',  ( 0.000000000000000000, 4.000000000000000000, 0.000000000000000000 ) ) ;
#251 = DIRECTION ( 'NONE',  ( -2.449293598294703764E-17, 1.000000000000000000, -0.000000000000000000 ) ) ;
#252 = APPLICATION_PROTOCOL_DEFINITION ( 'draft international standard', 'automotive_design', 1998, #39 ) ;
#253 = AXIS2_PLACEMENT_3D ( 'NONE', #12, #59, #182 ) ;
#254 = COLOUR_RGB ( '',1.000000000000000000, 0.000000000000000000, 0.000000000000000000 ) ;
#255 = UNCERTAINTY_MEASURE_WITH_UNIT (LENGTH_MEASURE( 1.000000000000000082E-05 ), #308, 'distance_accuracy_value', 'NONE');
#256 = ADVANCED_FACE ( 'NONE', ( #243 ), #116, .T. ) ;
#257 = LINE ( 'NONE', #88, #269 ) ;
#258 = SURFACE_STYLE_FILL_AREA ( #192 ) ;
#259 = MECHANICAL_DESIGN_GEOMETRIC_PRESENTATION_REPRESENTATION (  '', ( #176 ), #280 ) ;
#260 = SURFACE_STYLE_USAGE ( .BOTH. , #235 ) ;
#261 = FILL_AREA_STYLE_COLOUR ( '', #165 ) ;
#262 = PRESENTATION_STYLE_ASSIGNMENT (( #260 ) ) ;
#263 = FACE_OUTER_BOUND ( 'NONE', #106, .T. ) ;
#264 = EDGE_CURVE ( 'NONE', #163, #124, #99, .T. ) ;
#265 = AXIS2_PLACEMENT_3D ( 'NONE', #36, #278, #273 ) ;
#266 = CARTESIAN_POINT ( 'NONE',  ( 4.592425496802575451E-17, 4.000000000000000000, 0.3750000000000000555 ) ) ;
#267 = UNCERTAINTY_MEASURE_WITH_UNIT (LENGTH_MEASURE( 1.000000000000000082E-05 ), #149, 'distance_accuracy_value', 'NONE');
#268 = PRODUCT_CONTEXT ( 'NONE', #39, 'mechanical' ) ;
#269 = VECTOR ( 'NONE', #83, 39.37007874015748143 ) ;
#270 =( NAMED_UNIT ( * ) SI_UNIT ( $, .STERADIAN. ) SOLID_ANGLE_UNIT ( ) );
#271 = DIMENSIONAL_EXPONENTS ( 1.000000000000000000, 0.000000000000000000, 0.000000000000000000, 0.000000000000000000, 0.000000000000000000, 0.000000000000000000, 0.000000000000000000 ) ;
#272 = DIRECTION ( 'NONE',  ( 0.000000000000000000, -0.000000000000000000, 1.000000000000000000 ) ) ;
#273 = DIRECTION ( 'NONE',  ( 0.000000000000000000, 0.000000000000000000, -1.000000000000000000 ) ) ;
#274 = PLANE ( 'NONE',  #148 ) ;
#275 =( LENGTH_UNIT ( ) NAMED_UNIT ( * ) SI_UNIT ( $, .METRE. ) );
#276 = AXIS2_PLACEMENT_3D ( 'NONE', #121, #115, #140 ) ;
#277 = ADVANCED_FACE ( 'NONE', ( #6 ), #33, .T. ) ;
#278 = DIRECTION ( 'NONE',  ( -0.000000000000000000, -1.000000000000000000, -0.000000000000000000 ) ) ;
#279 = UNCERTAINTY_MEASURE_WITH_UNIT (LENGTH_MEASURE( 1.000000000000000082E-05 ), #113, 'distance_accuracy_value', 'NONE');
#280 =( GEOMETRIC_REPRESENTATION_CONTEXT ( 3 ) GLOBAL_UNCERTAINTY_ASSIGNED_CONTEXT ( ( #279 ) ) GLOBAL_UNIT_ASSIGNED_CONTEXT ( ( #113, #202, #162 ) ) REPRESENTATION_CONTEXT ( 'NONE', 'WORKASPACE' ) );
#281 = DIRECTION ( 'NONE',  ( -1.000000000000000000, 0.000000000000000000, 0.000000000000000000 ) ) ;
#282 = CARTESIAN_POINT ( 'NONE',  ( -0.3750000000000001665, 6.500000000000000000, 0.000000000000000000 ) ) ;
#283 = ORIENTED_EDGE ( 'NONE', *, *, #101, .T. ) ;
#284 = PRESENTATION_STYLE_ASSIGNMENT (( #236 ) ) ;
#285 = ORIENTED_EDGE ( 'NONE', *, *, #300, .F. ) ;
#286 = LINE ( 'NONE', #95, #52 ) ;
#287 = ORIENTED_EDGE ( 'NONE', *, *, #71, .T. ) ;
#288 = FILL_AREA_STYLE ('',( #34 ) ) ;
#289 = ADVANCED_FACE ( 'NONE', ( #150 ), #248, .T. ) ;
#290 = PRESENTATION_STYLE_ASSIGNMENT (( #80 ) ) ;
#291 = DIRECTION ( 'NONE',  ( -0.000000000000000000, -1.000000000000000000, -0.000000000000000000 ) ) ;
#292 = AXIS2_PLACEMENT_3D ( 'NONE', #215, #291, #217 ) ;
#293 = PRESENTATION_LAYER_ASSIGNMENT (  '', '', ( #141 ) ) ;
#294 = EDGE_CURVE ( 'NONE', #249, #96, #93, .T. ) ;
#295 =( NAMED_UNIT ( * ) PLANE_ANGLE_UNIT ( ) SI_UNIT ( $, .RADIAN. ) );
#296 = ORIENTED_EDGE ( 'NONE', *, *, #23, .T. ) ;
#297 = CARTESIAN_POINT ( 'NONE',  ( 0.000000000000000000, 0.000000000000000000, 0.000000000000000000 ) ) ;
#298 = DIRECTION ( 'NONE',  ( 0.000000000000000000, 0.000000000000000000, -1.000000000000000000 ) ) ;
#299 = CARTESIAN_POINT ( 'NONE',  ( 4.592425496802575451E-17, 0.000000000000000000, 0.3750000000000000555 ) ) ;
#300 = EDGE_CURVE ( 'NONE', #175, #214, #193, .T. ) ;
#301 = DIMENSIONAL_EXPONENTS ( 1.000000000000000000, 0.000000000000000000, 0.000000000000000000, 0.000000000000000000, 0.000000000000000000, 0.000000000000000000, 0.000000000000000000 ) ;
#302 =( NAMED_UNIT ( * ) SI_UNIT ( $, .STERADIAN. ) SOLID_ANGLE_UNIT ( ) );
#303 = FACE_OUTER_BOUND ( 'NONE', #28, .T. ) ;
#304 = PRESENTATION_LAYER_ASSIGNMENT (  '', '', ( #155 ) ) ;
#305 =( GEOMETRIC_REPRESENTATION_CONTEXT ( 3 ) GLOBAL_UNCERTAINTY_ASSIGNED_CONTEXT ( ( #255 ) ) GLOBAL_UNIT_ASSIGNED_CONTEXT ( ( #308, #70, #302 ) ) REPRESENTATION_CONTEXT ( 'NONE', 'WORKASPACE' ) );
#306 = DIRECTION ( 'NONE',  ( -2.449293598294703764E-17, 1.000000000000000000, 0.000000000000000000 ) ) ;
#307 = ORIENTED_EDGE ( 'NONE', *, *, #187, .T. ) ;
#308 =( CONVERSION_BASED_UNIT ( 'INCH', #209 ) LENGTH_UNIT ( ) NAMED_UNIT ( #178 ) );
#309 = ORIENTED_EDGE ( 'NONE', *, *, #181, .F. ) ;
ENDSEC;
END-ISO-10303-21;
