ISO-10303-21;
HEADER;
FILE_DESCRIPTION (( 'STEP AP214' ),
    '1' );
FILE_NAME ('Micro_DR-187-2.STEP',
    '2021-09-01T15:31:40',
    ( '' ),
    ( '' ),
    'SwSTEP 2.0',
    'SolidWorks 2020',
    '' );
FILE_SCHEMA (( 'AUTOMOTIVE_DESIGN' ));
ENDSEC;

DATA;
#1 = DIRECTION ( 'NONE',  ( -0.0000000000000000000, -0.0000000000000000000, 1.000000000000000000 ) ) ;
#2 = DIRECTION ( 'NONE',  ( 1.000000000000000000, 0.0000000000000000000, 0.0000000000000000000 ) ) ;
#3 = CIRCLE ( 'NONE', #170, 0.09375000000000001388 ) ;
#4 = ORIENTED_EDGE ( 'NONE', *, *, #124, .T. ) ;
#5 = CARTESIAN_POINT ( 'NONE',  ( 0.0000000000000000000, 0.0000000000000000000, 2.750000000000000000 ) ) ;
#6 = DIRECTION ( 'NONE',  ( 0.4999999999999972800, 0.0000000000000000000, 0.8660254037844402619 ) ) ;
#7 = EDGE_CURVE ( 'NONE', #49, #118, #311, .T. ) ;
#8 = DIRECTION ( 'NONE',  ( -0.0000000000000000000, -0.0000000000000000000, 1.000000000000000000 ) ) ;
#9 = ORIENTED_EDGE ( 'NONE', *, *, #38, .F. ) ;
#10 = ORIENTED_EDGE ( 'NONE', *, *, #179, .F. ) ;
#11 = PRESENTATION_LAYER_ASSIGNMENT (  '', '', ( #154 ) ) ;
#12 = FACE_OUTER_BOUND ( 'NONE', #142, .T. ) ;
#13 = VERTEX_POINT ( 'NONE', #272 ) ;
#14 = MANIFOLD_SOLID_BREP ( 'Cut-Revolve1', #100 ) ;
#15 = ORIENTED_EDGE ( 'NONE', *, *, #179, .T. ) ;
#16 = ORIENTED_EDGE ( 'NONE', *, *, #159, .F. ) ;
#17 = ADVANCED_FACE ( 'NONE', ( #89 ), #290, .T. ) ;
#18 = ORIENTED_EDGE ( 'NONE', *, *, #319, .T. ) ;
#19 = CARTESIAN_POINT ( 'NONE',  ( 0.07875000000000008382, 9.644093543285414426E-18, 2.750000000000000000 ) ) ;
#20 = CIRCLE ( 'NONE', #203, 0.07875000000000008382 ) ;
#21 = SURFACE_STYLE_USAGE ( .BOTH. , #269 ) ;
#22 = CARTESIAN_POINT ( 'NONE',  ( 0.0000000000000000000, 0.0000000000000000000, 2.750000000000000000 ) ) ;
#23 = VERTEX_POINT ( 'NONE', #84 ) ;
#24 = DIRECTION ( 'NONE',  ( -0.0000000000000000000, -0.0000000000000000000, 1.000000000000000000 ) ) ;
#25 = EDGE_CURVE ( 'NONE', #13, #214, #243, .T. ) ;
#26 = DIRECTION ( 'NONE',  ( 1.000000000000000000, 0.0000000000000000000, 0.0000000000000000000 ) ) ;
#27 = PRODUCT_RELATED_PRODUCT_CATEGORY ( 'part', '', ( #45 ) ) ;
#28 = LENGTH_MEASURE_WITH_UNIT ( LENGTH_MEASURE( 0.02539999999999999897 ), #144 );
#29 =( CONVERSION_BASED_UNIT ( 'INCH', #198 ) LENGTH_UNIT ( ) NAMED_UNIT ( #252 ) );
#30 = AXIS2_PLACEMENT_3D ( 'NONE', #92, #194, #166 ) ;
#31 = DIRECTION ( 'NONE',  ( 1.000000000000000000, 0.0000000000000000000, 0.0000000000000000000 ) ) ;
#32 =( NAMED_UNIT ( * ) SI_UNIT ( $, .STERADIAN. ) SOLID_ANGLE_UNIT ( ) );
#33 = CARTESIAN_POINT ( 'NONE',  ( -0.09370000000000043572, 1.147494050801075457E-17, 1.625000000000000222 ) ) ;
#34 = LINE ( 'NONE', #33, #236 ) ;
#35 = COLOUR_RGB ( '',0.7921568627450980005, 0.8196078431372548767, 0.9333333333333333481 ) ;
#36 =( GEOMETRIC_REPRESENTATION_CONTEXT ( 3 ) GLOBAL_UNCERTAINTY_ASSIGNED_CONTEXT ( ( #239 ) ) GLOBAL_UNIT_ASSIGNED_CONTEXT ( ( #29, #149, #32 ) ) REPRESENTATION_CONTEXT ( 'NONE', 'WORKASPACE' ) );
#37 = CARTESIAN_POINT ( 'NONE',  ( -0.09370000000000019980, 1.147494050801072375E-17, 2.734999999999999432 ) ) ;
#38 = EDGE_CURVE ( 'NONE', #217, #271, #281, .T. ) ;
#39 = DIRECTION ( 'NONE',  ( -0.0000000000000000000, -0.0000000000000000000, -1.000000000000000000 ) ) ;
#40 = LINE ( 'NONE', #229, #197 ) ;
#41 = AXIS2_PLACEMENT_3D ( 'NONE', #254, #101, #127 ) ;
#42 = CARTESIAN_POINT ( 'NONE',  ( 0.09369999999999992224, 0.0000000000000000000, 0.05630064000288188819 ) ) ;
#43 = DIRECTION ( 'NONE',  ( 1.000000000000000000, 0.0000000000000000000, 0.0000000000000000000 ) ) ;
#44 = LINE ( 'NONE', #139, #138 ) ;
#45 = PRODUCT ( 'Micro_DR-187-2', 'Micro_DR-187-2', '', ( #73 ) ) ;
#46 = FILL_AREA_STYLE ('',( #267 ) ) ;
#47 = FACE_OUTER_BOUND ( 'NONE', #68, .T. ) ;
#48 = ORIENTED_EDGE ( 'NONE', *, *, #67, .T. ) ;
#49 = VERTEX_POINT ( 'NONE', #42 ) ;
#50 = PRODUCT_DEFINITION ( 'UNKNOWN', '', #250, #126 ) ;
#51 = ORIENTED_EDGE ( 'NONE', *, *, #98, .T. ) ;
#52 = DIRECTION ( 'NONE',  ( -0.8571673007021143320, 1.049727191138621284E-16, 0.5150380749100510469 ) ) ;
#53 = DIMENSIONAL_EXPONENTS ( 1.000000000000000000, 0.0000000000000000000, 0.0000000000000000000, 0.0000000000000000000, 0.0000000000000000000, 0.0000000000000000000, 0.0000000000000000000 ) ;
#54 = CARTESIAN_POINT ( 'NONE',  ( 0.0000000000000000000, 0.0000000000000000000, 1.625000000000000222 ) ) ;
#55 = FACE_OUTER_BOUND ( 'NONE', #88, .T. ) ;
#56 = VECTOR ( 'NONE', #52, 39.37007874015747433 ) ;
#57 = DIRECTION ( 'NONE',  ( -0.0000000000000000000, -0.0000000000000000000, 1.000000000000000000 ) ) ;
#58 = CONICAL_SURFACE ( 'NONE', #314, 0.07875000000000008382, 0.7853981633974375098 ) ;
#59 = CARTESIAN_POINT ( 'NONE',  ( 0.0000000000000000000, 0.0000000000000000000, 2.734999999999999432 ) ) ;
#60 = DIRECTION ( 'NONE',  ( 0.8571673007021143320, 0.0000000000000000000, 0.5150380749100510469 ) ) ;
#61 = ORIENTED_EDGE ( 'NONE', *, *, #67, .F. ) ;
#62 = VERTEX_POINT ( 'NONE', #135 ) ;
#63 = DIRECTION ( 'NONE',  ( 1.000000000000000000, 0.0000000000000000000, 0.0000000000000000000 ) ) ;
#64 = ORIENTED_EDGE ( 'NONE', *, *, #288, .F. ) ;
#65 = ORIENTED_EDGE ( 'NONE', *, *, #172, .F. ) ;
#66 = ORIENTED_EDGE ( 'NONE', *, *, #225, .F. ) ;
#67 = EDGE_CURVE ( 'NONE', #97, #161, #3, .T. ) ;
#68 = EDGE_LOOP ( 'NONE', ( #15, #317, #141, #212 ) ) ;
#69 = DIRECTION ( 'NONE',  ( 1.000000000000000000, 0.0000000000000000000, 0.0000000000000000000 ) ) ;
#70 = PRESENTATION_LAYER_ASSIGNMENT (  '', '', ( #280 ) ) ;
#71 = SURFACE_STYLE_FILL_AREA ( #46 ) ;
#72 = LINE ( 'NONE', #221, #56 ) ;
#73 = PRODUCT_CONTEXT ( 'NONE', #105, 'mechanical' ) ;
#74 = DIRECTION ( 'NONE',  ( 1.000000000000000000, 0.0000000000000000000, 0.0000000000000000000 ) ) ;
#75 = DIRECTION ( 'NONE',  ( 0.0000000000000000000, 0.0000000000000000000, -1.000000000000000000 ) ) ;
#76 = FACE_OUTER_BOUND ( 'NONE', #160, .T. ) ;
#77 = ADVANCED_FACE ( 'NONE', ( #99 ), #90, .T. ) ;
#78 = ADVANCED_FACE ( 'NONE', ( #247 ), #298, .T. ) ;
#79 = DIRECTION ( 'NONE',  ( 1.000000000000000000, 0.0000000000000000000, 0.0000000000000000000 ) ) ;
#80 = CARTESIAN_POINT ( 'NONE',  ( 0.0000000000000000000, 0.0000000000000000000, 39.37007874015748143 ) ) ;
#81 = SURFACE_SIDE_STYLE ('',( #260 ) ) ;
#82 = ORIENTED_EDGE ( 'NONE', *, *, #87, .T. ) ;
#83 = CIRCLE ( 'NONE', #219, 0.07875000000000008382 ) ;
#84 = CARTESIAN_POINT ( 'NONE',  ( 0.0000000000000000000, 0.0000000000000000000, 0.0000000000000000000 ) ) ;
#85 = CARTESIAN_POINT ( 'NONE',  ( 0.09370000000000043572, 0.0000000000000000000, 1.625000000000000222 ) ) ;
#86 = CARTESIAN_POINT ( 'NONE',  ( 0.0000000000000000000, 0.0000000000000000000, 2.734999999999999432 ) ) ;
#87 = EDGE_CURVE ( 'NONE', #118, #271, #155, .T. ) ;
#88 = EDGE_LOOP ( 'NONE', ( #199, #115, #51, #48 ) ) ;
#89 = FACE_OUTER_BOUND ( 'NONE', #318, .T. ) ;
#90 = CONICAL_SURFACE ( 'NONE', #303, 65.52281426576898582, 1.029744258676658308 ) ;
#91 = ORIENTED_EDGE ( 'NONE', *, *, #312, .T. ) ;
#92 = CARTESIAN_POINT ( 'NONE',  ( 0.0000000000000000000, 0.0000000000000000000, 1.625000000000000222 ) ) ;
#93 = ORIENTED_EDGE ( 'NONE', *, *, #278, .F. ) ;
#94 = VERTEX_POINT ( 'NONE', #259 ) ;
#95 = MECHANICAL_DESIGN_GEOMETRIC_PRESENTATION_REPRESENTATION (  '', ( #154 ), #103 ) ;
#96 = DIRECTION ( 'NONE',  ( 1.000000000000000000, 0.0000000000000000000, 0.0000000000000000000 ) ) ;
#97 = VERTEX_POINT ( 'NONE', #282 ) ;
#98 = EDGE_CURVE ( 'NONE', #62, #97, #40, .T. ) ;
#99 = FACE_OUTER_BOUND ( 'NONE', #192, .T. ) ;
#100 = CLOSED_SHELL ( 'NONE', ( #17, #240, #104, #178, #116, #128, #255, #136, #78, #77, #148 ) ) ;
#101 = DIRECTION ( 'NONE',  ( -0.0000000000000000000, -0.0000000000000000000, -1.000000000000000000 ) ) ;
#102 = CIRCLE ( 'NONE', #285, 0.09369999999999996387 ) ;
#103 =( GEOMETRIC_REPRESENTATION_CONTEXT ( 3 ) GLOBAL_UNCERTAINTY_ASSIGNED_CONTEXT ( ( #316 ) ) GLOBAL_UNIT_ASSIGNED_CONTEXT ( ( #262, #207, #300 ) ) REPRESENTATION_CONTEXT ( 'NONE', 'WORKASPACE' ) );
#104 = ADVANCED_FACE ( 'NONE', ( #232 ), #123, .T. ) ;
#105 = APPLICATION_CONTEXT ( 'automotive_design' ) ;
#106 = DIRECTION ( 'NONE',  ( 0.0000000000000000000, 0.0000000000000000000, 1.000000000000000000 ) ) ;
#107 = LINE ( 'NONE', #306, #184 ) ;
#108 = AXIS2_PLACEMENT_3D ( 'NONE', #304, #277, #74 ) ;
#109 = DIRECTION ( 'NONE',  ( 1.000000000000000000, 0.0000000000000000000, 0.0000000000000000000 ) ) ;
#110 = PRESENTATION_STYLE_ASSIGNMENT (( #181 ) ) ;
#111 = DIRECTION ( 'NONE',  ( 1.000000000000000000, 0.0000000000000000000, 0.0000000000000000000 ) ) ;
#112 = DIRECTION ( 'NONE',  ( 0.0000000000000000000, 0.0000000000000000000, -1.000000000000000000 ) ) ;
#113 = MECHANICAL_DESIGN_GEOMETRIC_PRESENTATION_REPRESENTATION (  '', ( #280 ), #234 ) ;
#114 = AXIS2_PLACEMENT_3D ( 'NONE', #86, #162, #187 ) ;
#115 = ORIENTED_EDGE ( 'NONE', *, *, #171, .T. ) ;
#116 = ADVANCED_FACE ( 'NONE', ( #47 ), #246, .T. ) ;
#117 = CARTESIAN_POINT ( 'NONE',  ( 0.0000000000000000000, 0.0000000000000000000, 2.750000000000000000 ) ) ;
#118 = VERTEX_POINT ( 'NONE', #175 ) ;
#119 = CIRCLE ( 'NONE', #114, 0.09375000000000001388 ) ;
#120 = PRESENTATION_STYLE_ASSIGNMENT (( #21 ) ) ;
#121 = ORIENTED_EDGE ( 'NONE', *, *, #124, .F. ) ;
#122 = APPLICATION_PROTOCOL_DEFINITION ( 'draft international standard', 'automotive_design', 1998, #283 ) ;
#123 = CONICAL_SURFACE ( 'NONE', #158, 0.09370000000000043572, 0.5235987755982957070 ) ;
#124 = EDGE_CURVE ( 'NONE', #271, #97, #34, .T. ) ;
#125 = DIMENSIONAL_EXPONENTS ( 1.000000000000000000, 0.0000000000000000000, 0.0000000000000000000, 0.0000000000000000000, 0.0000000000000000000, 0.0000000000000000000, 0.0000000000000000000 ) ;
#126 = PRODUCT_DEFINITION_CONTEXT ( 'detailed design', #283, 'design' ) ;
#127 = DIRECTION ( 'NONE',  ( -1.000000000000000000, 0.0000000000000000000, 0.0000000000000000000 ) ) ;
#128 = ADVANCED_FACE ( 'NONE', ( #55 ), #307, .T. ) ;
#129 = CARTESIAN_POINT ( 'NONE',  ( -0.09370000000000043572, 1.147800212500859275E-17, 1.625000000000000222 ) ) ;
#130 = CARTESIAN_POINT ( 'NONE',  ( 0.0000000000000000000, 0.0000000000000000000, 2.750000000000000000 ) ) ;
#131 = AXIS2_PLACEMENT_3D ( 'NONE', #224, #1, #111 ) ;
#132 = DIRECTION ( 'NONE',  ( -0.0000000000000000000, -0.0000000000000000000, -1.000000000000000000 ) ) ;
#133 =( LENGTH_UNIT ( ) NAMED_UNIT ( * ) SI_UNIT ( $, .METRE. ) );
#134 = ORIENTED_EDGE ( 'NONE', *, *, #226, .F. ) ;
#135 = CARTESIAN_POINT ( 'NONE',  ( -0.09375000000000001388, 0.0000000000000000000, 2.734999999999999432 ) ) ;
#136 = ADVANCED_FACE ( 'NONE', ( #151 ), #58, .T. ) ;
#137 = CARTESIAN_POINT ( 'NONE',  ( 0.09375000000000001388, 1.148106374200643863E-17, 1.625086602540377845 ) ) ;
#138 = VECTOR ( 'NONE', #263, 39.37007874015748143 ) ;
#139 = CARTESIAN_POINT ( 'NONE',  ( -0.07875000000000008382, 0.0000000000000000000, 2.750000000000000000 ) ) ;
#140 =( CONVERSION_BASED_UNIT ( 'INCH', #28 ) LENGTH_UNIT ( ) NAMED_UNIT ( #125 ) );
#141 = ORIENTED_EDGE ( 'NONE', *, *, #225, .T. ) ;
#142 = EDGE_LOOP ( 'NONE', ( #196, #310, #10, #65 ) ) ;
#143 = EDGE_LOOP ( 'NONE', ( #242, #167, #248, #16 ) ) ;
#144 =( LENGTH_UNIT ( ) NAMED_UNIT ( * ) SI_UNIT ( $, .METRE. ) );
#145 = CARTESIAN_POINT ( 'NONE',  ( 0.0000000000000000000, 0.0000000000000000000, 0.0000000000000000000 ) ) ;
#146 = ORIENTED_EDGE ( 'NONE', *, *, #25, .F. ) ;
#147 = EDGE_CURVE ( 'NONE', #13, #94, #20, .T. ) ;
#148 = ADVANCED_FACE ( 'NONE', ( #205 ), #301, .T. ) ;
#149 =( NAMED_UNIT ( * ) PLANE_ANGLE_UNIT ( ) SI_UNIT ( $, .RADIAN. ) );
#150 = AXIS2_PLACEMENT_3D ( 'NONE', #59, #112, #235 ) ;
#151 = FACE_OUTER_BOUND ( 'NONE', #296, .T. ) ;
#152 = CARTESIAN_POINT ( 'NONE',  ( 0.0000000000000000000, 0.0000000000000000000, 0.05630064000288188819 ) ) ;
#153 = VECTOR ( 'NONE', #60, 39.37007874015747433 ) ;
#154 = STYLED_ITEM ( 'NONE', ( #110 ), #264 ) ;
#155 = LINE ( 'NONE', #37, #257 ) ;
#156 = CARTESIAN_POINT ( 'NONE',  ( 0.09375000000000001388, 1.148106374200643863E-17, 2.750000000000000000 ) ) ;
#157 = FILL_AREA_STYLE_COLOUR ( '', #299 ) ;
#158 = AXIS2_PLACEMENT_3D ( 'NONE', #183, #284, #286 ) ;
#159 = EDGE_CURVE ( 'NONE', #271, #217, #249, .T. ) ;
#160 = EDGE_LOOP ( 'NONE', ( #210, #91, #292 ) ) ;
#161 = VERTEX_POINT ( 'NONE', #137 ) ;
#162 = DIRECTION ( 'NONE',  ( 0.0000000000000000000, 0.0000000000000000000, -1.000000000000000000 ) ) ;
#163 = AXIS2_PLACEMENT_3D ( 'NONE', #22, #222, #174 ) ;
#164 = DIRECTION ( 'NONE',  ( 1.000000000000000000, 0.0000000000000000000, 0.0000000000000000000 ) ) ;
#165 = CARTESIAN_POINT ( 'NONE',  ( 0.0000000000000000000, 0.0000000000000000000, 0.05630064000288188819 ) ) ;
#166 = DIRECTION ( 'NONE',  ( 1.000000000000000000, 0.0000000000000000000, 0.0000000000000000000 ) ) ;
#167 = ORIENTED_EDGE ( 'NONE', *, *, #278, .T. ) ;
#168 = PRODUCT_DEFINITION_SHAPE ( 'NONE', 'NONE',  #50 ) ;
#169 = AXIS2_PLACEMENT_3D ( 'NONE', #165, #244, #164 ) ;
#170 = AXIS2_PLACEMENT_3D ( 'NONE', #233, #24, #31 ) ;
#171 = EDGE_CURVE ( 'NONE', #214, #62, #291, .T. ) ;
#172 = EDGE_CURVE ( 'NONE', #94, #62, #44, .T. ) ;
#173 = DIRECTION ( 'NONE',  ( 0.0000000000000000000, 0.0000000000000000000, 1.000000000000000000 ) ) ;
#174 = DIRECTION ( 'NONE',  ( -1.000000000000000000, 0.0000000000000000000, 0.0000000000000000000 ) ) ;
#175 = CARTESIAN_POINT ( 'NONE',  ( -0.09369999999999992224, 1.147494050801069140E-17, 0.05630064000288188819 ) ) ;
#176 = CARTESIAN_POINT ( 'NONE',  ( 0.0000000000000000000, 0.0000000000000000000, 2.750000000000000000 ) ) ;
#177 = AXIS2_PLACEMENT_3D ( 'NONE', #241, #191, #63 ) ;
#178 = ADVANCED_FACE ( 'NONE', ( #12 ), #189, .T. ) ;
#179 = EDGE_CURVE ( 'NONE', #62, #214, #119, .T. ) ;
#180 = DIRECTION ( 'NONE',  ( -0.0000000000000000000, -0.0000000000000000000, 1.000000000000000000 ) ) ;
#181 = SURFACE_STYLE_USAGE ( .BOTH. , #81 ) ;
#182 = LINE ( 'NONE', #156, #245 ) ;
#183 = CARTESIAN_POINT ( 'NONE',  ( 0.0000000000000000000, 0.0000000000000000000, 1.625000000000000222 ) ) ;
#184 = VECTOR ( 'NONE', #180, 39.37007874015748143 ) ;
#185 = CARTESIAN_POINT ( 'NONE',  ( 0.0000000000000000000, 0.0000000000000000000, 1.625086602540377845 ) ) ;
#186 =( NAMED_UNIT ( * ) SI_UNIT ( $, .STERADIAN. ) SOLID_ANGLE_UNIT ( ) );
#187 = DIRECTION ( 'NONE',  ( 1.000000000000000000, 0.0000000000000000000, 0.0000000000000000000 ) ) ;
#188 = ORIENTED_EDGE ( 'NONE', *, *, #171, .F. ) ;
#189 = CONICAL_SURFACE ( 'NONE', #231, 0.07875000000000008382, 0.7853981633974375098 ) ;
#190 = EDGE_CURVE ( 'NONE', #23, #49, #265, .T. ) ;
#191 = DIRECTION ( 'NONE',  ( -0.0000000000000000000, -0.0000000000000000000, 1.000000000000000000 ) ) ;
#192 = EDGE_LOOP ( 'NONE', ( #238, #321, #93 ) ) ;
#193 = ORIENTED_EDGE ( 'NONE', *, *, #7, .T. ) ;
#194 = DIRECTION ( 'NONE',  ( -0.0000000000000000000, -0.0000000000000000000, 1.000000000000000000 ) ) ;
#195 = EDGE_LOOP ( 'NONE', ( #121, #275, #315, #61 ) ) ;
#196 = ORIENTED_EDGE ( 'NONE', *, *, #147, .F. ) ;
#197 = VECTOR ( 'NONE', #132, 39.37007874015748143 ) ;
#198 = LENGTH_MEASURE_WITH_UNIT ( LENGTH_MEASURE( 0.02539999999999999897 ), #251 );
#199 = ORIENTED_EDGE ( 'NONE', *, *, #256, .F. ) ;
#200 = CONICAL_SURFACE ( 'NONE', #223, 65.52281426576898582, 1.029744258676658308 ) ;
#201 = DIRECTION ( 'NONE',  ( 0.0000000000000000000, 0.0000000000000000000, 1.000000000000000000 ) ) ;
#202 = LINE ( 'NONE', #305, #323 ) ;
#203 = AXIS2_PLACEMENT_3D ( 'NONE', #5, #201, #109 ) ;
#204 = DIRECTION ( 'NONE',  ( 1.000000000000000000, 0.0000000000000000000, -0.0000000000000000000 ) ) ;
#205 = FACE_OUTER_BOUND ( 'NONE', #143, .T. ) ;
#206 = DIRECTION ( 'NONE',  ( -0.0000000000000000000, -0.0000000000000000000, 1.000000000000000000 ) ) ;
#207 =( NAMED_UNIT ( * ) PLANE_ANGLE_UNIT ( ) SI_UNIT ( $, .RADIAN. ) );
#208 = DIRECTION ( 'NONE',  ( 0.0000000000000000000, 0.0000000000000000000, -1.000000000000000000 ) ) ;
#209 = AXIS2_PLACEMENT_3D ( 'NONE', #185, #287, #258 ) ;
#210 = ORIENTED_EDGE ( 'NONE', *, *, #190, .F. ) ;
#211 = DIRECTION ( 'NONE',  ( -1.000000000000000000, 0.0000000000000000000, 0.0000000000000000000 ) ) ;
#212 = ORIENTED_EDGE ( 'NONE', *, *, #98, .F. ) ;
#213 = AXIS2_PLACEMENT_3D ( 'NONE', #54, #8, #43 ) ;
#214 = VERTEX_POINT ( 'NONE', #313 ) ;
#215 = DIRECTION ( 'NONE',  ( 0.7071067811865400232, 8.659560562354840414E-17, -0.7071067811865551223 ) ) ;
#216 = CARTESIAN_POINT ( 'NONE',  ( 0.0000000000000000000, 0.0000000000000000000, 39.37007874015748143 ) ) ;
#217 = VERTEX_POINT ( 'NONE', #85 ) ;
#218 = ORIENTED_EDGE ( 'NONE', *, *, #172, .T. ) ;
#219 = AXIS2_PLACEMENT_3D ( 'NONE', #274, #173, #96 ) ;
#220 = DIRECTION ( 'NONE',  ( 0.0000000000000000000, 0.0000000000000000000, 1.000000000000000000 ) ) ;
#221 = CARTESIAN_POINT ( 'NONE',  ( 0.0000000000000000000, 0.0000000000000000000, 0.0000000000000000000 ) ) ;
#222 = DIRECTION ( 'NONE',  ( -0.0000000000000000000, -0.0000000000000000000, -1.000000000000000000 ) ) ;
#223 = AXIS2_PLACEMENT_3D ( 'NONE', #80, #206, #79 ) ;
#224 = CARTESIAN_POINT ( 'NONE',  ( 0.0000000000000000000, 0.0000000000000000000, 1.625000000000000222 ) ) ;
#225 = EDGE_CURVE ( 'NONE', #161, #97, #276, .T. ) ;
#226 = EDGE_CURVE ( 'NONE', #217, #161, #202, .T. ) ;
#227 = FACE_OUTER_BOUND ( 'NONE', #294, .T. ) ;
#228 = DIRECTION ( 'NONE',  ( -0.0000000000000000000, -0.0000000000000000000, 1.000000000000000000 ) ) ;
#229 = CARTESIAN_POINT ( 'NONE',  ( -0.09375000000000001388, 0.0000000000000000000, 2.750000000000000000 ) ) ;
#230 = DIRECTION ( 'NONE',  ( -1.000000000000000000, 0.0000000000000000000, 0.0000000000000000000 ) ) ;
#231 = AXIS2_PLACEMENT_3D ( 'NONE', #117, #208, #211 ) ;
#232 = FACE_OUTER_BOUND ( 'NONE', #237, .T. ) ;
#233 = CARTESIAN_POINT ( 'NONE',  ( 0.0000000000000000000, 0.0000000000000000000, 1.625086602540377845 ) ) ;
#234 =( GEOMETRIC_REPRESENTATION_CONTEXT ( 3 ) GLOBAL_UNCERTAINTY_ASSIGNED_CONTEXT ( ( #297 ) ) GLOBAL_UNIT_ASSIGNED_CONTEXT ( ( #140, #295, #186 ) ) REPRESENTATION_CONTEXT ( 'NONE', 'WORKASPACE' ) );
#235 = DIRECTION ( 'NONE',  ( 1.000000000000000000, 0.0000000000000000000, 0.0000000000000000000 ) ) ;
#236 = VECTOR ( 'NONE', #322, 39.37007874015748143 ) ;
#237 = EDGE_LOOP ( 'NONE', ( #268, #4, #66, #134 ) ) ;
#238 = ORIENTED_EDGE ( 'NONE', *, *, #312, .F. ) ;
#239 = UNCERTAINTY_MEASURE_WITH_UNIT (LENGTH_MEASURE( 1.000000000000000082E-05 ), #29, 'distance_accuracy_value', 'NONE');
#240 = ADVANCED_FACE ( 'NONE', ( #76 ), #200, .T. ) ;
#241 = CARTESIAN_POINT ( 'NONE',  ( 0.0000000000000000000, 0.0000000000000000000, 2.734999999999999432 ) ) ;
#242 = ORIENTED_EDGE ( 'NONE', *, *, #87, .F. ) ;
#243 = LINE ( 'NONE', #19, #266 ) ;
#244 = DIRECTION ( 'NONE',  ( -0.0000000000000000000, -0.0000000000000000000, 1.000000000000000000 ) ) ;
#245 = VECTOR ( 'NONE', #39, 39.37007874015748143 ) ;
#246 = CYLINDRICAL_SURFACE ( 'NONE', #163, 0.09375000000000001388 ) ;
#247 = FACE_OUTER_BOUND ( 'NONE', #195, .T. ) ;
#248 = ORIENTED_EDGE ( 'NONE', *, *, #288, .T. ) ;
#249 = CIRCLE ( 'NONE', #213, 0.09370000000000043572 ) ;
#250 = PRODUCT_DEFINITION_FORMATION_WITH_SPECIFIED_SOURCE ( 'ANY', '', #45, .NOT_KNOWN. ) ;
#251 =( LENGTH_UNIT ( ) NAMED_UNIT ( * ) SI_UNIT ( $, .METRE. ) );
#252 = DIMENSIONAL_EXPONENTS ( 1.000000000000000000, 0.0000000000000000000, 0.0000000000000000000, 0.0000000000000000000, 0.0000000000000000000, 0.0000000000000000000, 0.0000000000000000000 ) ;
#253 = APPLICATION_PROTOCOL_DEFINITION ( 'draft international standard', 'automotive_design', 1998, #105 ) ;
#254 = CARTESIAN_POINT ( 'NONE',  ( 0.0000000000000000000, 0.0000000000000000000, 2.750000000000000000 ) ) ;
#255 = ADVANCED_FACE ( 'NONE', ( #227 ), #279, .T. ) ;
#256 = EDGE_CURVE ( 'NONE', #214, #161, #182, .T. ) ;
#257 = VECTOR ( 'NONE', #57, 39.37007874015748143 ) ;
#258 = DIRECTION ( 'NONE',  ( 1.000000000000000000, 0.0000000000000000000, 0.0000000000000000000 ) ) ;
#259 = CARTESIAN_POINT ( 'NONE',  ( -0.07875000000000008382, 0.0000000000000000000, 2.750000000000000000 ) ) ;
#260 = SURFACE_STYLE_FILL_AREA ( #308 ) ;
#261 = AXIS2_PLACEMENT_3D ( 'NONE', #145, #220, #26 ) ;
#262 =( CONVERSION_BASED_UNIT ( 'INCH', #309 ) LENGTH_UNIT ( ) NAMED_UNIT ( #53 ) );
#263 = DIRECTION ( 'NONE',  ( -0.7071067811865400232, 0.0000000000000000000, -0.7071067811865551223 ) ) ;
#264 = ADVANCED_BREP_SHAPE_REPRESENTATION ( 'Micro_DR-187-2', ( #14, #261 ), #36 ) ;
#265 = LINE ( 'NONE', #289, #153 ) ;
#266 = VECTOR ( 'NONE', #215, 39.37007874015748143 ) ;
#267 = FILL_AREA_STYLE_COLOUR ( '', #35 ) ;
#268 = ORIENTED_EDGE ( 'NONE', *, *, #38, .T. ) ;
#269 = SURFACE_SIDE_STYLE ('',( #71 ) ) ;
#270 = ORIENTED_EDGE ( 'NONE', *, *, #319, .F. ) ;
#271 = VERTEX_POINT ( 'NONE', #129 ) ;
#272 = CARTESIAN_POINT ( 'NONE',  ( 0.07875000000000008382, 1.056257864264592576E-17, 2.750000000000000000 ) ) ;
#273 = SHAPE_DEFINITION_REPRESENTATION ( #168, #264 ) ;
#274 = CARTESIAN_POINT ( 'NONE',  ( 0.0000000000000000000, 0.0000000000000000000, 2.750000000000000000 ) ) ;
#275 = ORIENTED_EDGE ( 'NONE', *, *, #159, .T. ) ;
#276 = CIRCLE ( 'NONE', #209, 0.09375000000000001388 ) ;
#277 = DIRECTION ( 'NONE',  ( -0.0000000000000000000, -0.0000000000000000000, 1.000000000000000000 ) ) ;
#278 = EDGE_CURVE ( 'NONE', #118, #49, #102, .T. ) ;
#279 = PLANE ( 'NONE',  #320 ) ;
#280 = STYLED_ITEM ( 'NONE', ( #120 ), #14 ) ;
#281 = CIRCLE ( 'NONE', #30, 0.09370000000000043572 ) ;
#282 = CARTESIAN_POINT ( 'NONE',  ( -0.09375000000000001388, 0.0000000000000000000, 1.625086602540377845 ) ) ;
#283 = APPLICATION_CONTEXT ( 'automotive_design' ) ;
#284 = DIRECTION ( 'NONE',  ( -0.0000000000000000000, -0.0000000000000000000, 1.000000000000000000 ) ) ;
#285 = AXIS2_PLACEMENT_3D ( 'NONE', #152, #228, #2 ) ;
#286 = DIRECTION ( 'NONE',  ( 1.000000000000000000, 0.0000000000000000000, 0.0000000000000000000 ) ) ;
#287 = DIRECTION ( 'NONE',  ( -0.0000000000000000000, -0.0000000000000000000, 1.000000000000000000 ) ) ;
#288 = EDGE_CURVE ( 'NONE', #49, #217, #107, .T. ) ;
#289 = CARTESIAN_POINT ( 'NONE',  ( 0.0000000000000000000, 0.0000000000000000000, 0.0000000000000000000 ) ) ;
#290 = CYLINDRICAL_SURFACE ( 'NONE', #177, 0.09370000000000019980 ) ;
#291 = CIRCLE ( 'NONE', #150, 0.09375000000000001388 ) ;
#292 = ORIENTED_EDGE ( 'NONE', *, *, #7, .F. ) ;
#293 = ORIENTED_EDGE ( 'NONE', *, *, #147, .T. ) ;
#294 = EDGE_LOOP ( 'NONE', ( #18, #293 ) ) ;
#295 =( NAMED_UNIT ( * ) PLANE_ANGLE_UNIT ( ) SI_UNIT ( $, .RADIAN. ) );
#296 = EDGE_LOOP ( 'NONE', ( #146, #270, #218, #188 ) ) ;
#297 = UNCERTAINTY_MEASURE_WITH_UNIT (LENGTH_MEASURE( 1.000000000000000082E-05 ), #140, 'distance_accuracy_value', 'NONE');
#298 = CONICAL_SURFACE ( 'NONE', #131, 0.09370000000000043572, 0.5235987755982957070 ) ;
#299 = COLOUR_RGB ( '',0.7921568627450980005, 0.8196078431372548767, 0.9333333333333333481 ) ;
#300 =( NAMED_UNIT ( * ) SI_UNIT ( $, .STERADIAN. ) SOLID_ANGLE_UNIT ( ) );
#301 = CYLINDRICAL_SURFACE ( 'NONE', #108, 0.09370000000000019980 ) ;
#302 = DIRECTION ( 'NONE',  ( -0.0000000000000000000, -0.0000000000000000000, 1.000000000000000000 ) ) ;
#303 = AXIS2_PLACEMENT_3D ( 'NONE', #216, #302, #69 ) ;
#304 = CARTESIAN_POINT ( 'NONE',  ( 0.0000000000000000000, 0.0000000000000000000, 2.734999999999999432 ) ) ;
#305 = CARTESIAN_POINT ( 'NONE',  ( 0.09370000000000043572, 0.0000000000000000000, 1.625000000000000222 ) ) ;
#306 = CARTESIAN_POINT ( 'NONE',  ( 0.09370000000000019980, 0.0000000000000000000, 2.734999999999999432 ) ) ;
#307 = CYLINDRICAL_SURFACE ( 'NONE', #41, 0.09375000000000001388 ) ;
#308 = FILL_AREA_STYLE ('',( #157 ) ) ;
#309 = LENGTH_MEASURE_WITH_UNIT ( LENGTH_MEASURE( 0.02539999999999999897 ), #133 );
#310 = ORIENTED_EDGE ( 'NONE', *, *, #25, .T. ) ;
#311 = CIRCLE ( 'NONE', #169, 0.09369999999999996387 ) ;
#312 = EDGE_CURVE ( 'NONE', #23, #118, #72, .T. ) ;
#313 = CARTESIAN_POINT ( 'NONE',  ( 0.09375000000000001388, 1.148106374200643863E-17, 2.734999999999999432 ) ) ;
#314 = AXIS2_PLACEMENT_3D ( 'NONE', #130, #75, #230 ) ;
#315 = ORIENTED_EDGE ( 'NONE', *, *, #226, .T. ) ;
#316 = UNCERTAINTY_MEASURE_WITH_UNIT (LENGTH_MEASURE( 1.000000000000000082E-05 ), #262, 'distance_accuracy_value', 'NONE');
#317 = ORIENTED_EDGE ( 'NONE', *, *, #256, .T. ) ;
#318 = EDGE_LOOP ( 'NONE', ( #193, #82, #9, #64 ) ) ;
#319 = EDGE_CURVE ( 'NONE', #94, #13, #83, .T. ) ;
#320 = AXIS2_PLACEMENT_3D ( 'NONE', #176, #106, #204 ) ;
#321 = ORIENTED_EDGE ( 'NONE', *, *, #190, .T. ) ;
#322 = DIRECTION ( 'NONE',  ( -0.4999999999999972800, 6.123233995736732756E-17, 0.8660254037844402619 ) ) ;
#323 = VECTOR ( 'NONE', #6, 39.37007874015748143 ) ;
ENDSEC;
END-ISO-10303-21;
