ISO-10303-21;
HEADER;
FILE_DESCRIPTION (( 'STEP AP214' ),
    '1' );
FILE_NAME ('83856.STEP',
    '2023-07-05T16:20:59',
    ( '' ),
    ( '' ),
    'SwSTEP 2.0',
    'SolidWorks 2023',
    '' );
FILE_SCHEMA (( 'AUTOMOTIVE_DESIGN' ));
ENDSEC;

DATA;
#1 = STYLED_ITEM ( 'NONE', ( #14 ), #212 ) ;
#2 = EDGE_CURVE ( 'NONE', #127, #143, #70, .T. ) ;
#3 = FILL_AREA_STYLE_COLOUR ( '', #182 ) ;
#4 = CIRCLE ( 'NONE', #20, 0.06249999999999960448 ) ;
#5 = ORIENTED_EDGE ( 'NONE', *, *, #186, .T. ) ;
#6 = DIRECTION ( 'NONE',  ( -1.000000000000000000, 0.000000000000000000, 0.000000000000000000 ) ) ;
#7 = FILL_AREA_STYLE_COLOUR ( '', #233 ) ;
#8 = CARTESIAN_POINT ( 'NONE',  ( 1.836970198721030181E-16, 1.500000000000000222, 0.000000000000000000 ) ) ;
#9 = PRESENTATION_STYLE_ASSIGNMENT (( #110 ) ) ;
#10 = LENGTH_MEASURE_WITH_UNIT ( LENGTH_MEASURE( 0.02539999999999999897 ), #211 );
#11 = PRODUCT_DEFINITION_CONTEXT ( 'detailed design', #137, 'design' ) ;
#12 = DIMENSIONAL_EXPONENTS ( 1.000000000000000000, 0.000000000000000000, 0.000000000000000000, 0.000000000000000000, 0.000000000000000000, 0.000000000000000000, 0.000000000000000000 ) ;
#13 = FACE_OUTER_BOUND ( 'NONE', #52, .T. ) ;
#14 = PRESENTATION_STYLE_ASSIGNMENT (( #155 ) ) ;
#15 = DIRECTION ( 'NONE',  ( -1.000000000000000000, 0.000000000000000000, 0.000000000000000000 ) ) ;
#16 = CARTESIAN_POINT ( 'NONE',  ( 1.574041360807990457E-18, 0.03608439182435142084, 0.000000000000000000 ) ) ;
#17 = ADVANCED_FACE ( 'NONE', ( #148 ), #106, .T. ) ;
#18 = DIRECTION ( 'NONE',  ( -1.311087047537675563E-16, 1.000000000000000000, 0.000000000000000000 ) ) ;
#19 = UNCERTAINTY_MEASURE_WITH_UNIT (LENGTH_MEASURE( 1.000000000000000082E-05 ), #177, 'distance_accuracy_value', 'NONE');
#20 = AXIS2_PLACEMENT_3D ( 'NONE', #66, #109, #68 ) ;
#21 = MANIFOLD_SOLID_BREP ( 'Revolve - Cutting Edge', #238 ) ;
#22 = EDGE_CURVE ( 'NONE', #207, #65, #144, .T. ) ;
#23 = PRODUCT_RELATED_PRODUCT_CATEGORY ( 'part', '', ( #58 ) ) ;
#24 = PRESENTATION_LAYER_ASSIGNMENT (  '', '', ( #119 ) ) ;
#25 = FILL_AREA_STYLE ('',( #248 ) ) ;
#26 = UNCERTAINTY_MEASURE_WITH_UNIT (LENGTH_MEASURE( 1.000000000000000082E-05 ), #191, 'distance_accuracy_value', 'NONE');
#27 = EDGE_LOOP ( 'NONE', ( #5, #48 ) ) ;
#28 = EDGE_CURVE ( 'NONE', #46, #207, #195, .T. ) ;
#29 =( LENGTH_UNIT ( ) NAMED_UNIT ( * ) SI_UNIT ( $, .METRE. ) );
#30 = VERTEX_POINT ( 'NONE', #38 ) ;
#31 = SURFACE_SIDE_STYLE ('',( #86 ) ) ;
#32 = CIRCLE ( 'NONE', #180, 0.06249999999999960448 ) ;
#33 = MECHANICAL_DESIGN_GEOMETRIC_PRESENTATION_REPRESENTATION (  '', ( #187 ), #174 ) ;
#34 = SURFACE_STYLE_FILL_AREA ( #55 ) ;
#35 = PRESENTATION_STYLE_ASSIGNMENT (( #175 ) ) ;
#36 = STYLED_ITEM ( 'NONE', ( #35 ), #37 ) ;
#37 = ADVANCED_FACE ( 'NONE', ( #240 ), #139, .T. ) ;
#38 = CARTESIAN_POINT ( 'NONE',  ( -0.06249999999999922978, 0.03608439182435148329, 0.000000000000000000 ) ) ;
#39 = APPLICATION_PROTOCOL_DEFINITION ( 'draft international standard', 'automotive_design', 1998, #122 ) ;
#40 = CARTESIAN_POINT ( 'NONE',  ( 3.756290991288361679E-16, 0.03608439182435149023, 0.000000000000000000 ) ) ;
#41 = STYLED_ITEM ( 'NONE', ( #166 ), #17 ) ;
#42 =( GEOMETRIC_REPRESENTATION_CONTEXT ( 3 ) GLOBAL_UNCERTAINTY_ASSIGNED_CONTEXT ( ( #218 ) ) GLOBAL_UNIT_ASSIGNED_CONTEXT ( ( #179, #71, #95 ) ) REPRESENTATION_CONTEXT ( 'NONE', 'WORKASPACE' ) );
#43 = ADVANCED_FACE ( 'NONE', ( #13 ), #138, .F. ) ;
#44 = VECTOR ( 'NONE', #80, 39.37007874015748143 ) ;
#45 = CARTESIAN_POINT ( 'NONE',  ( 1.836970198721030181E-16, 1.500000000000000222, 0.000000000000000000 ) ) ;
#46 = VERTEX_POINT ( 'NONE', #201 ) ;
#47 = FACE_OUTER_BOUND ( 'NONE', #27, .T. ) ;
#48 = ORIENTED_EDGE ( 'NONE', *, *, #22, .T. ) ;
#49 = PLANE ( 'NONE',  #226 ) ;
#50 = ORIENTED_EDGE ( 'NONE', *, *, #229, .T. ) ;
#51 = LENGTH_MEASURE_WITH_UNIT ( LENGTH_MEASURE( 0.02539999999999999897 ), #197 );
#52 = EDGE_LOOP ( 'NONE', ( #235, #104 ) ) ;
#53 = CARTESIAN_POINT ( 'NONE',  ( 1.574041360807989494E-18, 0.03608439182435140696, 0.000000000000000000 ) ) ;
#54 =( CONVERSION_BASED_UNIT ( 'INCH', #261 ) LENGTH_UNIT ( ) NAMED_UNIT ( #193 ) );
#55 = FILL_AREA_STYLE ('',( #3 ) ) ;
#56 = DIRECTION ( 'NONE',  ( -1.311087047537675563E-16, 1.000000000000000000, -0.000000000000000000 ) ) ;
#57 = LINE ( 'NONE', #83, #44 ) ;
#58 = PRODUCT ( '83856', '83856', '', ( #222 ) ) ;
#59 = AXIS2_PLACEMENT_3D ( 'NONE', #253, #259, #15 ) ;
#60 = ADVANCED_FACE ( 'NONE', ( #99 ), #97, .T. ) ;
#61 = VERTEX_POINT ( 'NONE', #264 ) ;
#62 = VECTOR ( 'NONE', #181, 39.37007874015748143 ) ;
#63 = EDGE_CURVE ( 'NONE', #30, #65, #57, .T. ) ;
#64 = DIRECTION ( 'NONE',  ( -1.311087047537675563E-16, 1.000000000000000000, -0.000000000000000000 ) ) ;
#65 = VERTEX_POINT ( 'NONE', #158 ) ;
#66 = CARTESIAN_POINT ( 'NONE',  ( 3.756290991288361679E-16, 0.03608439182435149023, 0.000000000000000000 ) ) ;
#67 = ORIENTED_EDGE ( 'NONE', *, *, #229, .F. ) ;
#68 = DIRECTION ( 'NONE',  ( -1.000000000000000000, -1.365923996832140237E-16, 0.000000000000000000 ) ) ;
#69 = FILL_AREA_STYLE ('',( #213 ) ) ;
#70 = LINE ( 'NONE', #216, #142 ) ;
#71 =( NAMED_UNIT ( * ) PLANE_ANGLE_UNIT ( ) SI_UNIT ( $, .RADIAN. ) );
#72 = FILL_AREA_STYLE ('',( #7 ) ) ;
#73 = DIRECTION ( 'NONE',  ( 1.000000000000000000, -6.829619984160659279E-17, 0.000000000000000000 ) ) ;
#74 = DIRECTION ( 'NONE',  ( 4.362111376214893589E-17, 1.000000000000000000, 0.000000000000000000 ) ) ;
#75 = MECHANICAL_DESIGN_GEOMETRIC_PRESENTATION_REPRESENTATION (  '', ( #36 ), #102 ) ;
#76 = AXIS2_PLACEMENT_3D ( 'NONE', #149, #128, #184 ) ;
#77 =( NAMED_UNIT ( * ) PLANE_ANGLE_UNIT ( ) SI_UNIT ( $, .RADIAN. ) );
#78 = SURFACE_SIDE_STYLE ('',( #34 ) ) ;
#79 = LENGTH_MEASURE_WITH_UNIT ( LENGTH_MEASURE( 0.02539999999999999897 ), #245 );
#80 = DIRECTION ( 'NONE',  ( -1.311087047537675563E-16, 1.000000000000000000, -0.000000000000000000 ) ) ;
#81 = PRESENTATION_LAYER_ASSIGNMENT (  '', '', ( #36 ) ) ;
#82 = CIRCLE ( 'NONE', #204, 0.06249999999999999306 ) ;
#83 = CARTESIAN_POINT ( 'NONE',  ( -0.06249999999999951428, 1.500000000000000222, 0.000000000000000000 ) ) ;
#84 =( GEOMETRIC_REPRESENTATION_CONTEXT ( 3 ) GLOBAL_UNCERTAINTY_ASSIGNED_CONTEXT ( ( #200 ) ) GLOBAL_UNIT_ASSIGNED_CONTEXT ( ( #196, #117, #176 ) ) REPRESENTATION_CONTEXT ( 'NONE', 'WORKASPACE' ) );
#85 = EDGE_CURVE ( 'NONE', #46, #30, #32, .T. ) ;
#86 = SURFACE_STYLE_FILL_AREA ( #69 ) ;
#87 = EDGE_LOOP ( 'NONE', ( #124, #151, #236 ) ) ;
#88 = ORIENTED_EDGE ( 'NONE', *, *, #121, .T. ) ;
#89 = CARTESIAN_POINT ( 'NONE',  ( 0.000000000000000000, 0.000000000000000000, 0.000000000000000000 ) ) ;
#90 = SURFACE_STYLE_USAGE ( .BOTH. , #112 ) ;
#91 = MECHANICAL_DESIGN_GEOMETRIC_PRESENTATION_REPRESENTATION (  '', ( #1 ), #250 ) ;
#92 =( CONVERSION_BASED_UNIT ( 'INCH', #164 ) LENGTH_UNIT ( ) NAMED_UNIT ( #210 ) );
#93 = DIRECTION ( 'NONE',  ( -1.000000000000000000, 1.281975124255702555E-16, 0.000000000000000000 ) ) ;
#94 = CARTESIAN_POINT ( 'NONE',  ( 0.06249999999999988898, 1.500000000000000222, 7.654042494670920567E-18 ) ) ;
#95 =( NAMED_UNIT ( * ) SI_UNIT ( $, .STERADIAN. ) SOLID_ANGLE_UNIT ( ) );
#96 = ADVANCED_BREP_SHAPE_REPRESENTATION ( '83856', ( #21, #103, #220 ), #42 ) ;
#97 = CYLINDRICAL_SURFACE ( 'NONE', #192, 0.06249999999999970163 ) ;
#98 = EDGE_CURVE ( 'NONE', #127, #61, #101, .T. ) ;
#99 = FACE_OUTER_BOUND ( 'NONE', #188, .T. ) ;
#100 = AXIS2_PLACEMENT_3D ( 'NONE', #8, #64, #6 ) ;
#101 = LINE ( 'NONE', #141, #62 ) ;
#102 =( GEOMETRIC_REPRESENTATION_CONTEXT ( 3 ) GLOBAL_UNCERTAINTY_ASSIGNED_CONTEXT ( ( #241 ) ) GLOBAL_UNIT_ASSIGNED_CONTEXT ( ( #54, #199, #157 ) ) REPRESENTATION_CONTEXT ( 'NONE', 'WORKASPACE' ) );
#103 = MANIFOLD_SOLID_BREP ( 'Revolve - Tool Body (Pointed)', #205 ) ;
#104 = ORIENTED_EDGE ( 'NONE', *, *, #85, .F. ) ;
#105 = DIRECTION ( 'NONE',  ( 4.362111376214893589E-17, 1.000000000000000000, 0.000000000000000000 ) ) ;
#106 = CONICAL_SURFACE ( 'NONE', #198, 68.19097667594040502, 1.047197551196599852 ) ;
#107 = SURFACE_STYLE_FILL_AREA ( #25 ) ;
#108 = ORIENTED_EDGE ( 'NONE', *, *, #98, .F. ) ;
#109 = DIRECTION ( 'NONE',  ( -1.311087047537675563E-16, 1.000000000000000000, -0.000000000000000000 ) ) ;
#110 = SURFACE_STYLE_USAGE ( .BOTH. , #31 ) ;
#111 =( GEOMETRIC_REPRESENTATION_CONTEXT ( 3 ) GLOBAL_UNCERTAINTY_ASSIGNED_CONTEXT ( ( #26 ) ) GLOBAL_UNIT_ASSIGNED_CONTEXT ( ( #191, #231, #171 ) ) REPRESENTATION_CONTEXT ( 'NONE', 'WORKASPACE' ) );
#112 = SURFACE_SIDE_STYLE ('',( #152 ) ) ;
#113 = DIRECTION ( 'NONE',  ( 0.000000000000000000, 0.000000000000000000, 1.000000000000000000 ) ) ;
#114 = ADVANCED_FACE ( 'NONE', ( #230 ), #225, .T. ) ;
#115 = DIRECTION ( 'NONE',  ( 4.362111376214893589E-17, 1.000000000000000000, 0.000000000000000000 ) ) ;
#116 = SURFACE_SIDE_STYLE ('',( #219 ) ) ;
#117 =( NAMED_UNIT ( * ) PLANE_ANGLE_UNIT ( ) SI_UNIT ( $, .RADIAN. ) );
#118 = DIRECTION ( 'NONE',  ( 1.000000000000000000, -6.829619984160659279E-17, 0.000000000000000000 ) ) ;
#119 = STYLED_ITEM ( 'NONE', ( #9 ), #21 ) ;
#120 = CIRCLE ( 'NONE', #163, 0.06249999999999979183 ) ;
#121 = EDGE_CURVE ( 'NONE', #30, #46, #4, .T. ) ;
#122 = APPLICATION_CONTEXT ( 'automotive_design' ) ;
#123 = PRODUCT_DEFINITION_FORMATION_WITH_SPECIFIED_SOURCE ( 'ANY', '', #58, .NOT_KNOWN. ) ;
#124 = ORIENTED_EDGE ( 'NONE', *, *, #2, .F. ) ;
#125 = PLANE ( 'NONE',  #76 ) ;
#126 = DIRECTION ( 'NONE',  ( -1.311087047537675563E-16, 1.000000000000000000, -0.000000000000000000 ) ) ;
#127 = VERTEX_POINT ( 'NONE', #89 ) ;
#128 = DIRECTION ( 'NONE',  ( 1.311087047537675563E-16, -1.000000000000000000, 0.000000000000000000 ) ) ;
#129 = DIMENSIONAL_EXPONENTS ( 1.000000000000000000, 0.000000000000000000, 0.000000000000000000, 0.000000000000000000, 0.000000000000000000, 0.000000000000000000, 0.000000000000000000 ) ;
#130 = DIRECTION ( 'NONE',  ( -0.8660254037844397068, 0.4999999999999981681, 0.000000000000000000 ) ) ;
#131 = MECHANICAL_DESIGN_GEOMETRIC_PRESENTATION_REPRESENTATION (  '', ( #41 ), #111 ) ;
#132 = CIRCLE ( 'NONE', #160, 0.06249999999999999306 ) ;
#133 = ORIENTED_EDGE ( 'NONE', *, *, #63, .T. ) ;
#134 =( LENGTH_UNIT ( ) NAMED_UNIT ( * ) SI_UNIT ( $, .METRE. ) );
#135 = DIRECTION ( 'NONE',  ( -1.000000000000000000, 4.362111376214893589E-17, 0.000000000000000000 ) ) ;
#136 = CARTESIAN_POINT ( 'NONE',  ( 1.574041360807990457E-18, 0.03608439182435142084, 0.000000000000000000 ) ) ;
#137 = APPLICATION_CONTEXT ( 'automotive_design' ) ;
#138 = PLANE ( 'NONE',  #159 ) ;
#139 = CONICAL_SURFACE ( 'NONE', #244, 68.19097667594040502, 1.047197551196599852 ) ;
#140 = FILL_AREA_STYLE ('',( #172 ) ) ;
#141 = CARTESIAN_POINT ( 'NONE',  ( 0.000000000000000000, 0.000000000000000000, 0.000000000000000000 ) ) ;
#142 = VECTOR ( 'NONE', #130, 39.37007874015748143 ) ;
#143 = VERTEX_POINT ( 'NONE', #146 ) ;
#144 = CIRCLE ( 'NONE', #59, 0.06249999999999979183 ) ;
#145 = PRESENTATION_STYLE_ASSIGNMENT (( #209 ) ) ;
#146 = CARTESIAN_POINT ( 'NONE',  ( -0.06249999999999997918, 0.03608439182435142778, 0.000000000000000000 ) ) ;
#147 = ORIENTED_EDGE ( 'NONE', *, *, #247, .F. ) ;
#148 = FACE_OUTER_BOUND ( 'NONE', #87, .T. ) ;
#149 = CARTESIAN_POINT ( 'NONE',  ( 0.06249999999999997918, 1.500000000000000222, 0.000000000000000000 ) ) ;
#150 = ORIENTED_EDGE ( 'NONE', *, *, #22, .F. ) ;
#151 = ORIENTED_EDGE ( 'NONE', *, *, #98, .T. ) ;
#152 = SURFACE_STYLE_FILL_AREA ( #72 ) ;
#153 =( NAMED_UNIT ( * ) SI_UNIT ( $, .STERADIAN. ) SOLID_ANGLE_UNIT ( ) );
#154 = DIRECTION ( 'NONE',  ( -1.311087047537675563E-16, 1.000000000000000000, -0.000000000000000000 ) ) ;
#155 = SURFACE_STYLE_USAGE ( .BOTH. , #78 ) ;
#156 = CARTESIAN_POINT ( 'NONE',  ( 0.000000000000000000, 0.000000000000000000, 0.000000000000000000 ) ) ;
#157 =( NAMED_UNIT ( * ) SI_UNIT ( $, .STERADIAN. ) SOLID_ANGLE_UNIT ( ) );
#158 = CARTESIAN_POINT ( 'NONE',  ( -0.06249999999999960448, 1.500000000000000222, 0.000000000000000000 ) ) ;
#159 = AXIS2_PLACEMENT_3D ( 'NONE', #265, #18, #221 ) ;
#160 = AXIS2_PLACEMENT_3D ( 'NONE', #16, #237, #118 ) ;
#161 = DIRECTION ( 'NONE',  ( -1.311087047537675563E-16, 1.000000000000000000, -0.000000000000000000 ) ) ;
#162 = EDGE_LOOP ( 'NONE', ( #214, #249, #133, #150 ) ) ;
#163 = AXIS2_PLACEMENT_3D ( 'NONE', #45, #126, #232 ) ;
#164 = LENGTH_MEASURE_WITH_UNIT ( LENGTH_MEASURE( 0.02539999999999999897 ), #29 );
#165 = ORIENTED_EDGE ( 'NONE', *, *, #28, .T. ) ;
#166 = PRESENTATION_STYLE_ASSIGNMENT (( #90 ) ) ;
#167 =( NAMED_UNIT ( * ) PLANE_ANGLE_UNIT ( ) SI_UNIT ( $, .RADIAN. ) );
#168 = PRODUCT_DEFINITION_SHAPE ( 'NONE', 'NONE',  #262 ) ;
#169 = MECHANICAL_DESIGN_GEOMETRIC_PRESENTATION_REPRESENTATION (  '', ( #119 ), #84 ) ;
#170 = CARTESIAN_POINT ( 'NONE',  ( 0.06249999999999999306, 1.500000000000000222, 7.654042494670926730E-18 ) ) ;
#171 =( NAMED_UNIT ( * ) SI_UNIT ( $, .STERADIAN. ) SOLID_ANGLE_UNIT ( ) );
#172 = FILL_AREA_STYLE_COLOUR ( '', #208 ) ;
#173 = DIRECTION ( 'NONE',  ( -4.362111376214893589E-17, -1.000000000000000000, -0.000000000000000000 ) ) ;
#174 =( GEOMETRIC_REPRESENTATION_CONTEXT ( 3 ) GLOBAL_UNCERTAINTY_ASSIGNED_CONTEXT ( ( #246 ) ) GLOBAL_UNIT_ASSIGNED_CONTEXT ( ( #92, #167, #252 ) ) REPRESENTATION_CONTEXT ( 'NONE', 'WORKASPACE' ) );
#175 = SURFACE_STYLE_USAGE ( .BOTH. , #116 ) ;
#176 =( NAMED_UNIT ( * ) SI_UNIT ( $, .STERADIAN. ) SOLID_ANGLE_UNIT ( ) );
#177 =( CONVERSION_BASED_UNIT ( 'INCH', #194 ) LENGTH_UNIT ( ) NAMED_UNIT ( #12 ) );
#178 = CARTESIAN_POINT ( 'NONE',  ( 1.836970198721030181E-16, 1.500000000000000222, 0.000000000000000000 ) ) ;
#179 =( CONVERSION_BASED_UNIT ( 'INCH', #51 ) LENGTH_UNIT ( ) NAMED_UNIT ( #239 ) );
#180 = AXIS2_PLACEMENT_3D ( 'NONE', #40, #161, #224 ) ;
#181 = DIRECTION ( 'NONE',  ( 0.8660254037844397068, 0.4999999999999981126, 1.060575238724908024E-16 ) ) ;
#182 = COLOUR_RGB ( '',1.000000000000000000, 0.000000000000000000, 0.000000000000000000 ) ;
#183 = ORIENTED_EDGE ( 'NONE', *, *, #2, .T. ) ;
#184 = DIRECTION ( 'NONE',  ( 1.000000000000000000, 1.311087047537675563E-16, 0.000000000000000000 ) ) ;
#185 = EDGE_LOOP ( 'NONE', ( #108, #183, #50 ) ) ;
#186 = EDGE_CURVE ( 'NONE', #65, #207, #120, .T. ) ;
#187 = STYLED_ITEM ( 'NONE', ( #145 ), #103 ) ;
#188 = EDGE_LOOP ( 'NONE', ( #88, #165, #251, #206 ) ) ;
#189 = SURFACE_SIDE_STYLE ('',( #107 ) ) ;
#190 = CARTESIAN_POINT ( 'NONE',  ( 1.717366683549170749E-15, 39.37007874015748143, 0.000000000000000000 ) ) ;
#191 =( CONVERSION_BASED_UNIT ( 'INCH', #10 ) LENGTH_UNIT ( ) NAMED_UNIT ( #129 ) );
#192 = AXIS2_PLACEMENT_3D ( 'NONE', #178, #56, #223 ) ;
#193 = DIMENSIONAL_EXPONENTS ( 1.000000000000000000, 0.000000000000000000, 0.000000000000000000, 0.000000000000000000, 0.000000000000000000, 0.000000000000000000, 0.000000000000000000 ) ;
#194 = LENGTH_MEASURE_WITH_UNIT ( LENGTH_MEASURE( 0.02539999999999999897 ), #134 );
#195 = LINE ( 'NONE', #94, #257 ) ;
#196 =( CONVERSION_BASED_UNIT ( 'INCH', #79 ) LENGTH_UNIT ( ) NAMED_UNIT ( #217 ) );
#197 =( LENGTH_UNIT ( ) NAMED_UNIT ( * ) SI_UNIT ( $, .METRE. ) );
#198 = AXIS2_PLACEMENT_3D ( 'NONE', #190, #105, #93 ) ;
#199 =( NAMED_UNIT ( * ) PLANE_ANGLE_UNIT ( ) SI_UNIT ( $, .RADIAN. ) );
#200 = UNCERTAINTY_MEASURE_WITH_UNIT (LENGTH_MEASURE( 1.000000000000000082E-05 ), #196, 'distance_accuracy_value', 'NONE');
#201 = CARTESIAN_POINT ( 'NONE',  ( 0.06249999999999999306, 0.03608439182435150411, 7.654042494670926730E-18 ) ) ;
#202 =( LENGTH_UNIT ( ) NAMED_UNIT ( * ) SI_UNIT ( $, .METRE. ) );
#203 = ADVANCED_FACE ( 'NONE', ( #47 ), #125, .F. ) ;
#204 = AXIS2_PLACEMENT_3D ( 'NONE', #136, #173, #73 ) ;
#205 = CLOSED_SHELL ( 'NONE', ( #60, #43, #114, #203 ) ) ;
#206 = ORIENTED_EDGE ( 'NONE', *, *, #63, .F. ) ;
#207 = VERTEX_POINT ( 'NONE', #170 ) ;
#208 = COLOUR_RGB ( '',1.000000000000000000, 0.000000000000000000, 0.000000000000000000 ) ;
#209 = SURFACE_STYLE_USAGE ( .BOTH. , #189 ) ;
#210 = DIMENSIONAL_EXPONENTS ( 1.000000000000000000, 0.000000000000000000, 0.000000000000000000, 0.000000000000000000, 0.000000000000000000, 0.000000000000000000, 0.000000000000000000 ) ;
#211 =( LENGTH_UNIT ( ) NAMED_UNIT ( * ) SI_UNIT ( $, .METRE. ) );
#212 = ADVANCED_FACE ( 'NONE', ( #254 ), #49, .T. ) ;
#213 = FILL_AREA_STYLE_COLOUR ( '', #227 ) ;
#214 = ORIENTED_EDGE ( 'NONE', *, *, #28, .F. ) ;
#215 = COLOUR_RGB ( '',0.7921568627450980005, 0.8196078431372548767, 0.9333333333333333481 ) ;
#216 = CARTESIAN_POINT ( 'NONE',  ( 0.000000000000000000, 0.000000000000000000, 0.000000000000000000 ) ) ;
#217 = DIMENSIONAL_EXPONENTS ( 1.000000000000000000, 0.000000000000000000, 0.000000000000000000, 0.000000000000000000, 0.000000000000000000, 0.000000000000000000, 0.000000000000000000 ) ;
#218 = UNCERTAINTY_MEASURE_WITH_UNIT (LENGTH_MEASURE( 1.000000000000000082E-05 ), #179, 'distance_accuracy_value', 'NONE');
#219 = SURFACE_STYLE_FILL_AREA ( #140 ) ;
#220 = AXIS2_PLACEMENT_3D ( 'NONE', #156, #113, #242 ) ;
#221 = DIRECTION ( 'NONE',  ( -1.000000000000000000, -1.311087047537675563E-16, 0.000000000000000000 ) ) ;
#222 = PRODUCT_CONTEXT ( 'NONE', #122, 'mechanical' ) ;
#223 = DIRECTION ( 'NONE',  ( -1.000000000000000000, 0.000000000000000000, 0.000000000000000000 ) ) ;
#224 = DIRECTION ( 'NONE',  ( -1.000000000000000000, -1.365923996832140237E-16, 0.000000000000000000 ) ) ;
#225 = CYLINDRICAL_SURFACE ( 'NONE', #100, 0.06249999999999970163 ) ;
#226 = AXIS2_PLACEMENT_3D ( 'NONE', #53, #115, #135 ) ;
#227 = COLOUR_RGB ( '',0.7921568627450980005, 0.8196078431372548767, 0.9333333333333333481 ) ;
#228 = PRESENTATION_LAYER_ASSIGNMENT (  '', '', ( #41 ) ) ;
#229 = EDGE_CURVE ( 'NONE', #143, #61, #132, .T. ) ;
#230 = FACE_OUTER_BOUND ( 'NONE', #162, .T. ) ;
#231 =( NAMED_UNIT ( * ) PLANE_ANGLE_UNIT ( ) SI_UNIT ( $, .RADIAN. ) );
#232 = DIRECTION ( 'NONE',  ( -1.000000000000000000, 0.000000000000000000, 0.000000000000000000 ) ) ;
#233 = COLOUR_RGB ( '',1.000000000000000000, 0.000000000000000000, 0.000000000000000000 ) ;
#234 = PRESENTATION_LAYER_ASSIGNMENT (  '', '', ( #187 ) ) ;
#235 = ORIENTED_EDGE ( 'NONE', *, *, #121, .F. ) ;
#236 = ORIENTED_EDGE ( 'NONE', *, *, #247, .T. ) ;
#237 = DIRECTION ( 'NONE',  ( -4.362111376214893589E-17, -1.000000000000000000, -0.000000000000000000 ) ) ;
#238 = CLOSED_SHELL ( 'NONE', ( #17, #212, #37 ) ) ;
#239 = DIMENSIONAL_EXPONENTS ( 1.000000000000000000, 0.000000000000000000, 0.000000000000000000, 0.000000000000000000, 0.000000000000000000, 0.000000000000000000, 0.000000000000000000 ) ;
#240 = FACE_OUTER_BOUND ( 'NONE', #185, .T. ) ;
#241 = UNCERTAINTY_MEASURE_WITH_UNIT (LENGTH_MEASURE( 1.000000000000000082E-05 ), #54, 'distance_accuracy_value', 'NONE');
#242 = DIRECTION ( 'NONE',  ( 1.000000000000000000, 0.000000000000000000, 0.000000000000000000 ) ) ;
#243 = DIRECTION ( 'NONE',  ( -1.000000000000000000, 1.281975124255702555E-16, 0.000000000000000000 ) ) ;
#244 = AXIS2_PLACEMENT_3D ( 'NONE', #256, #74, #243 ) ;
#245 =( LENGTH_UNIT ( ) NAMED_UNIT ( * ) SI_UNIT ( $, .METRE. ) );
#246 = UNCERTAINTY_MEASURE_WITH_UNIT (LENGTH_MEASURE( 1.000000000000000082E-05 ), #92, 'distance_accuracy_value', 'NONE');
#247 = EDGE_CURVE ( 'NONE', #61, #143, #82, .T. ) ;
#248 = FILL_AREA_STYLE_COLOUR ( '', #215 ) ;
#249 = ORIENTED_EDGE ( 'NONE', *, *, #85, .T. ) ;
#250 =( GEOMETRIC_REPRESENTATION_CONTEXT ( 3 ) GLOBAL_UNCERTAINTY_ASSIGNED_CONTEXT ( ( #19 ) ) GLOBAL_UNIT_ASSIGNED_CONTEXT ( ( #177, #77, #153 ) ) REPRESENTATION_CONTEXT ( 'NONE', 'WORKASPACE' ) );
#251 = ORIENTED_EDGE ( 'NONE', *, *, #186, .F. ) ;
#252 =( NAMED_UNIT ( * ) SI_UNIT ( $, .STERADIAN. ) SOLID_ANGLE_UNIT ( ) );
#253 = CARTESIAN_POINT ( 'NONE',  ( 1.836970198721030181E-16, 1.500000000000000222, 0.000000000000000000 ) ) ;
#254 = FACE_OUTER_BOUND ( 'NONE', #255, .T. ) ;
#255 = EDGE_LOOP ( 'NONE', ( #67, #147 ) ) ;
#256 = CARTESIAN_POINT ( 'NONE',  ( 1.717366683549170749E-15, 39.37007874015748143, 0.000000000000000000 ) ) ;
#257 = VECTOR ( 'NONE', #154, 39.37007874015748143 ) ;
#258 = PRESENTATION_LAYER_ASSIGNMENT (  '', '', ( #1 ) ) ;
#259 = DIRECTION ( 'NONE',  ( -1.311087047537675563E-16, 1.000000000000000000, -0.000000000000000000 ) ) ;
#260 = APPLICATION_PROTOCOL_DEFINITION ( 'draft international standard', 'automotive_design', 1998, #137 ) ;
#261 = LENGTH_MEASURE_WITH_UNIT ( LENGTH_MEASURE( 0.02539999999999999897 ), #202 );
#262 = PRODUCT_DEFINITION ( 'UNKNOWN', '', #123, #11 ) ;
#263 = SHAPE_DEFINITION_REPRESENTATION ( #168, #96 ) ;
#264 = CARTESIAN_POINT ( 'NONE',  ( 0.06249999999999997918, 0.03608439182435141390, 7.654042494670954463E-18 ) ) ;
#265 = CARTESIAN_POINT ( 'NONE',  ( 3.756290991288361679E-16, 0.03608439182435138615, 0.000000000000000000 ) ) ;
ENDSEC;
END-ISO-10303-21;
