ISO-10303-21;
HEADER;
FILE_DESCRIPTION (( 'STEP AP214' ),
    '1' );
FILE_NAME ('05217.STEP',
    '2023-06-22T15:57:45',
    ( '' ),
    ( '' ),
    'SwSTEP 2.0',
    'SolidWorks 2023',
    '' );
FILE_SCHEMA (( 'AUTOMOTIVE_DESIGN' ));
ENDSEC;

DATA;
#1 = CARTESIAN_POINT ( 'NONE',  ( 1.913510623667739463E-17, 0.000000000000000000, 0.1562500000000000000 ) ) ;
#2 = DIRECTION ( 'NONE',  ( -0.000000000000000000, -1.000000000000000000, -0.000000000000000000 ) ) ;
#3 = DIMENSIONAL_EXPONENTS ( 1.000000000000000000, 0.000000000000000000, 0.000000000000000000, 0.000000000000000000, 0.000000000000000000, 0.000000000000000000, 0.000000000000000000 ) ;
#4 =( NAMED_UNIT ( * ) PLANE_ANGLE_UNIT ( ) SI_UNIT ( $, .RADIAN. ) );
#5 = PRODUCT_RELATED_PRODUCT_CATEGORY ( 'part', '', ( #137 ) ) ;
#6 = SURFACE_STYLE_USAGE ( .BOTH. , #133 ) ;
#7 = ADVANCED_FACE ( 'NONE', ( #39 ), #120, .T. ) ;
#8 = ORIENTED_EDGE ( 'NONE', *, *, #125, .T. ) ;
#9 = SHAPE_DEFINITION_REPRESENTATION ( #66, #95 ) ;
#10 = DIRECTION ( 'NONE',  ( 1.000000000000000000, 3.628583108584750472E-17, 0.000000000000000000 ) ) ;
#11 = VERTEX_POINT ( 'NONE', #74 ) ;
#12 = ORIENTED_EDGE ( 'NONE', *, *, #167, .F. ) ;
#13 = ORIENTED_EDGE ( 'NONE', *, *, #262, .T. ) ;
#14 = SURFACE_SIDE_STYLE ('',( #208 ) ) ;
#15 = EDGE_CURVE ( 'NONE', #219, #11, #242, .T. ) ;
#16 = CARTESIAN_POINT ( 'NONE',  ( -6.123233995736766036E-17, 2.500000000000000000, 0.000000000000000000 ) ) ;
#17 = DIRECTION ( 'NONE',  ( -0.000000000000000000, -1.000000000000000000, -0.000000000000000000 ) ) ;
#18 = CIRCLE ( 'NONE', #265, 0.1562500000000000000 ) ;
#19 = FACE_OUTER_BOUND ( 'NONE', #116, .T. ) ;
#20 = PRESENTATION_STYLE_ASSIGNMENT (( #236 ) ) ;
#21 = CARTESIAN_POINT ( 'NONE',  ( -6.123233995736766036E-17, 2.500000000000000000, 0.000000000000000000 ) ) ;
#22 =( NAMED_UNIT ( * ) PLANE_ANGLE_UNIT ( ) SI_UNIT ( $, .RADIAN. ) );
#23 = PLANE ( 'NONE',  #256 ) ;
#24 = CARTESIAN_POINT ( 'NONE',  ( 0.000000000000000000, 0.8125000000000001110, 0.000000000000000000 ) ) ;
#25 = LENGTH_MEASURE_WITH_UNIT ( LENGTH_MEASURE( 0.02539999999999999897 ), #28 );
#26 = CARTESIAN_POINT ( 'NONE',  ( 0.1562499999999999722, 2.500000000000000000, 1.913510623667739771E-17 ) ) ;
#27 = MECHANICAL_DESIGN_GEOMETRIC_PRESENTATION_REPRESENTATION (  '', ( #296 ), #34 ) ;
#28 =( LENGTH_UNIT ( ) NAMED_UNIT ( * ) SI_UNIT ( $, .METRE. ) );
#29 = STYLED_ITEM ( 'NONE', ( #155 ), #273 ) ;
#30 = EDGE_CURVE ( 'NONE', #289, #139, #250, .T. ) ;
#31 = CARTESIAN_POINT ( 'NONE',  ( 0.1562500000000000000, 0.8125000000000001110, 1.913510623667739771E-17 ) ) ;
#32 = DIMENSIONAL_EXPONENTS ( 1.000000000000000000, 0.000000000000000000, 0.000000000000000000, 0.000000000000000000, 0.000000000000000000, 0.000000000000000000, 0.000000000000000000 ) ;
#33 = CARTESIAN_POINT ( 'NONE',  ( 0.000000000000000000, 0.000000000000000000, 0.000000000000000000 ) ) ;
#34 =( GEOMETRIC_REPRESENTATION_CONTEXT ( 3 ) GLOBAL_UNCERTAINTY_ASSIGNED_CONTEXT ( ( #189 ) ) GLOBAL_UNIT_ASSIGNED_CONTEXT ( ( #239, #22, #101 ) ) REPRESENTATION_CONTEXT ( 'NONE', 'WORKASPACE' ) );
#35 = FACE_OUTER_BOUND ( 'NONE', #222, .T. ) ;
#36 = VERTEX_POINT ( 'NONE', #1 ) ;
#37 = ORIENTED_EDGE ( 'NONE', *, *, #293, .T. ) ;
#38 = EDGE_LOOP ( 'NONE', ( #203, #226 ) ) ;
#39 = FACE_OUTER_BOUND ( 'NONE', #68, .T. ) ;
#40 = DIRECTION ( 'NONE',  ( -3.628583108584750472E-17, 1.000000000000000000, -0.000000000000000000 ) ) ;
#41 =( GEOMETRIC_REPRESENTATION_CONTEXT ( 3 ) GLOBAL_UNCERTAINTY_ASSIGNED_CONTEXT ( ( #54 ) ) GLOBAL_UNIT_ASSIGNED_CONTEXT ( ( #131, #4, #183 ) ) REPRESENTATION_CONTEXT ( 'NONE', 'WORKASPACE' ) );
#42 = FACE_OUTER_BOUND ( 'NONE', #38, .T. ) ;
#43 = EDGE_CURVE ( 'NONE', #280, #36, #49, .T. ) ;
#44 = LINE ( 'NONE', #121, #215 ) ;
#45 = PRESENTATION_STYLE_ASSIGNMENT (( #79 ) ) ;
#46 = FACE_OUTER_BOUND ( 'NONE', #249, .T. ) ;
#47 = DIMENSIONAL_EXPONENTS ( 1.000000000000000000, 0.000000000000000000, 0.000000000000000000, 0.000000000000000000, 0.000000000000000000, 0.000000000000000000, 0.000000000000000000 ) ;
#48 = SURFACE_STYLE_FILL_AREA ( #73 ) ;
#49 = LINE ( 'NONE', #102, #70 ) ;
#50 = UNCERTAINTY_MEASURE_WITH_UNIT (LENGTH_MEASURE( 1.000000000000000082E-05 ), #134, 'distance_accuracy_value', 'NONE');
#51 = SURFACE_SIDE_STYLE ('',( #148 ) ) ;
#52 = DIRECTION ( 'NONE',  ( -3.628583108584750472E-17, 1.000000000000000000, 0.000000000000000000 ) ) ;
#53 = APPLICATION_CONTEXT ( 'automotive_design' ) ;
#54 = UNCERTAINTY_MEASURE_WITH_UNIT (LENGTH_MEASURE( 1.000000000000000082E-05 ), #131, 'distance_accuracy_value', 'NONE');
#55 = ORIENTED_EDGE ( 'NONE', *, *, #63, .T. ) ;
#56 =( NAMED_UNIT ( * ) SI_UNIT ( $, .STERADIAN. ) SOLID_ANGLE_UNIT ( ) );
#57 = EDGE_LOOP ( 'NONE', ( #163, #117 ) ) ;
#58 = CIRCLE ( 'NONE', #108, 0.1562500000000000833 ) ;
#59 = DIRECTION ( 'NONE',  ( 0.000000000000000000, 0.000000000000000000, -1.000000000000000000 ) ) ;
#60 = PRODUCT_DEFINITION_FORMATION_WITH_SPECIFIED_SOURCE ( 'ANY', '', #137, .NOT_KNOWN. ) ;
#61 = CARTESIAN_POINT ( 'NONE',  ( -0.1562500000000000000, 0.8125000000000001110, 0.000000000000000000 ) ) ;
#62 = ORIENTED_EDGE ( 'NONE', *, *, #167, .T. ) ;
#63 = EDGE_CURVE ( 'NONE', #289, #90, #198, .T. ) ;
#64 = UNCERTAINTY_MEASURE_WITH_UNIT (LENGTH_MEASURE( 1.000000000000000082E-05 ), #192, 'distance_accuracy_value', 'NONE');
#65 = MECHANICAL_DESIGN_GEOMETRIC_PRESENTATION_REPRESENTATION (  '', ( #135 ), #160 ) ;
#66 = PRODUCT_DEFINITION_SHAPE ( 'NONE', 'NONE',  #212 ) ;
#67 = PRESENTATION_STYLE_ASSIGNMENT (( #231 ) ) ;
#68 = EDGE_LOOP ( 'NONE', ( #297, #37, #303, #12 ) ) ;
#69 = DIRECTION ( 'NONE',  ( -0.000000000000000000, -1.000000000000000000, -0.000000000000000000 ) ) ;
#70 = VECTOR ( 'NONE', #238, 39.37007874015748143 ) ;
#71 =( GEOMETRIC_REPRESENTATION_CONTEXT ( 3 ) GLOBAL_UNCERTAINTY_ASSIGNED_CONTEXT ( ( #106 ) ) GLOBAL_UNIT_ASSIGNED_CONTEXT ( ( #221, #82, #56 ) ) REPRESENTATION_CONTEXT ( 'NONE', 'WORKASPACE' ) );
#72 = PRESENTATION_STYLE_ASSIGNMENT (( #195 ) ) ;
#73 = FILL_AREA_STYLE ('',( #178 ) ) ;
#74 = CARTESIAN_POINT ( 'NONE',  ( 0.000000000000000000, 0.000000000000000000, -0.1562500000000000000 ) ) ;
#75 = DIMENSIONAL_EXPONENTS ( 1.000000000000000000, 0.000000000000000000, 0.000000000000000000, 0.000000000000000000, 0.000000000000000000, 0.000000000000000000, 0.000000000000000000 ) ;
#76 = LENGTH_MEASURE_WITH_UNIT ( LENGTH_MEASURE( 0.02539999999999999897 ), #196 );
#77 = DIRECTION ( 'NONE',  ( -1.000000000000000000, 0.000000000000000000, 0.000000000000000000 ) ) ;
#78 = STYLED_ITEM ( 'NONE', ( #72 ), #268 ) ;
#79 = SURFACE_STYLE_USAGE ( .BOTH. , #51 ) ;
#80 = PLANE ( 'NONE',  #240 ) ;
#81 = AXIS2_PLACEMENT_3D ( 'NONE', #16, #274, #114 ) ;
#82 =( NAMED_UNIT ( * ) PLANE_ANGLE_UNIT ( ) SI_UNIT ( $, .RADIAN. ) );
#83 = FACE_OUTER_BOUND ( 'NONE', #252, .T. ) ;
#84 = ORIENTED_EDGE ( 'NONE', *, *, #143, .F. ) ;
#85 = APPLICATION_CONTEXT ( 'automotive_design' ) ;
#86 =( LENGTH_UNIT ( ) NAMED_UNIT ( * ) SI_UNIT ( $, .METRE. ) );
#87 = AXIS2_PLACEMENT_3D ( 'NONE', #21, #285, #216 ) ;
#88 = ADVANCED_FACE ( 'NONE', ( #264 ), #124, .F. ) ;
#89 = UNCERTAINTY_MEASURE_WITH_UNIT (LENGTH_MEASURE( 1.000000000000000082E-05 ), #168, 'distance_accuracy_value', 'NONE');
#90 = VERTEX_POINT ( 'NONE', #174 ) ;
#91 = DIRECTION ( 'NONE',  ( -3.628583108584750472E-17, 1.000000000000000000, -0.000000000000000000 ) ) ;
#92 = DIRECTION ( 'NONE',  ( 0.000000000000000000, 0.000000000000000000, 1.000000000000000000 ) ) ;
#93 = DIRECTION ( 'NONE',  ( 0.000000000000000000, 0.000000000000000000, -1.000000000000000000 ) ) ;
#94 = VECTOR ( 'NONE', #69, 39.37007874015748143 ) ;
#95 = ADVANCED_BREP_SHAPE_REPRESENTATION ( '05217', ( #268, #273, #154 ), #41 ) ;
#96 =( LENGTH_UNIT ( ) NAMED_UNIT ( * ) SI_UNIT ( $, .METRE. ) );
#97 = SURFACE_STYLE_FILL_AREA ( #305 ) ;
#98 = AXIS2_PLACEMENT_3D ( 'NONE', #217, #149, #261 ) ;
#99 = MECHANICAL_DESIGN_GEOMETRIC_PRESENTATION_REPRESENTATION (  '', ( #171 ), #71 ) ;
#100 = FILL_AREA_STYLE_COLOUR ( '', #200 ) ;
#101 =( NAMED_UNIT ( * ) SI_UNIT ( $, .STERADIAN. ) SOLID_ANGLE_UNIT ( ) );
#102 = CARTESIAN_POINT ( 'NONE',  ( 1.913510623667739463E-17, 0.000000000000000000, 0.1562500000000000000 ) ) ;
#103 = AXIS2_PLACEMENT_3D ( 'NONE', #179, #52, #286 ) ;
#104 = MECHANICAL_DESIGN_GEOMETRIC_PRESENTATION_REPRESENTATION (  '', ( #29 ), #245 ) ;
#105 = DIRECTION ( 'NONE',  ( -0.000000000000000000, -1.000000000000000000, -0.000000000000000000 ) ) ;
#106 = UNCERTAINTY_MEASURE_WITH_UNIT (LENGTH_MEASURE( 1.000000000000000082E-05 ), #221, 'distance_accuracy_value', 'NONE');
#107 = EDGE_CURVE ( 'NONE', #11, #36, #118, .T. ) ;
#108 = AXIS2_PLACEMENT_3D ( 'NONE', #187, #40, #211 ) ;
#109 =( LENGTH_UNIT ( ) NAMED_UNIT ( * ) SI_UNIT ( $, .METRE. ) );
#110 = ORIENTED_EDGE ( 'NONE', *, *, #107, .T. ) ;
#111 =( LENGTH_UNIT ( ) NAMED_UNIT ( * ) SI_UNIT ( $, .METRE. ) );
#112 = ORIENTED_EDGE ( 'NONE', *, *, #143, .T. ) ;
#113 = CARTESIAN_POINT ( 'NONE',  ( 0.000000000000000000, 0.000000000000000000, 0.000000000000000000 ) ) ;
#114 = DIRECTION ( 'NONE',  ( -1.000000000000000000, 0.000000000000000000, 0.000000000000000000 ) ) ;
#115 = ADVANCED_FACE ( 'NONE', ( #35 ), #80, .T. ) ;
#116 = EDGE_LOOP ( 'NONE', ( #13, #253, #246, #157 ) ) ;
#117 = ORIENTED_EDGE ( 'NONE', *, *, #293, .F. ) ;
#118 = CIRCLE ( 'NONE', #127, 0.1562500000000000000 ) ;
#119 = CIRCLE ( 'NONE', #142, 0.1562500000000000000 ) ;
#120 = CYLINDRICAL_SURFACE ( 'NONE', #98, 0.1562500000000000000 ) ;
#121 = CARTESIAN_POINT ( 'NONE',  ( -0.1562500000000001110, 2.500000000000000000, 0.000000000000000000 ) ) ;
#122 = AXIS2_PLACEMENT_3D ( 'NONE', #281, #309, #214 ) ;
#123 = FILL_AREA_STYLE ('',( #128 ) ) ;
#124 = PLANE ( 'NONE',  #103 ) ;
#125 = EDGE_CURVE ( 'NONE', #139, #289, #18, .T. ) ;
#126 = DIRECTION ( 'NONE',  ( -3.628583108584750472E-17, 1.000000000000000000, -0.000000000000000000 ) ) ;
#127 = AXIS2_PLACEMENT_3D ( 'NONE', #202, #185, #59 ) ;
#128 = FILL_AREA_STYLE_COLOUR ( '', #277 ) ;
#129 = DIMENSIONAL_EXPONENTS ( 1.000000000000000000, 0.000000000000000000, 0.000000000000000000, 0.000000000000000000, 0.000000000000000000, 0.000000000000000000, 0.000000000000000000 ) ;
#130 = LENGTH_MEASURE_WITH_UNIT ( LENGTH_MEASURE( 0.02539999999999999897 ), #304 );
#131 =( CONVERSION_BASED_UNIT ( 'INCH', #267 ) LENGTH_UNIT ( ) NAMED_UNIT ( #129 ) );
#132 =( GEOMETRIC_REPRESENTATION_CONTEXT ( 3 ) GLOBAL_UNCERTAINTY_ASSIGNED_CONTEXT ( ( #64 ) ) GLOBAL_UNIT_ASSIGNED_CONTEXT ( ( #192, #197, #173 ) ) REPRESENTATION_CONTEXT ( 'NONE', 'WORKASPACE' ) );
#133 = SURFACE_SIDE_STYLE ('',( #247 ) ) ;
#134 =( CONVERSION_BASED_UNIT ( 'INCH', #180 ) LENGTH_UNIT ( ) NAMED_UNIT ( #3 ) );
#135 = STYLED_ITEM ( 'NONE', ( #67 ), #115 ) ;
#136 = DIRECTION ( 'NONE',  ( -1.000000000000000000, 0.000000000000000000, 0.000000000000000000 ) ) ;
#137 = PRODUCT ( '05217', '05217', '', ( #251 ) ) ;
#138 = ORIENTED_EDGE ( 'NONE', *, *, #209, .F. ) ;
#139 = VERTEX_POINT ( 'NONE', #61 ) ;
#140 = AXIS2_PLACEMENT_3D ( 'NONE', #232, #17, #302 ) ;
#141 = CARTESIAN_POINT ( 'NONE',  ( 0.000000000000000000, 0.8125000000000000000, -0.1562500000000000000 ) ) ;
#142 = AXIS2_PLACEMENT_3D ( 'NONE', #186, #2, #243 ) ;
#143 = EDGE_CURVE ( 'NONE', #139, #205, #44, .T. ) ;
#144 = PLANE ( 'NONE',  #300 ) ;
#145 = STYLED_ITEM ( 'NONE', ( #45 ), #228 ) ;
#146 = COLOUR_RGB ( '',0.7921568627450980005, 0.8196078431372548767, 0.9333333333333333481 ) ;
#147 = SURFACE_SIDE_STYLE ('',( #191 ) ) ;
#148 = SURFACE_STYLE_FILL_AREA ( #123 ) ;
#149 = DIRECTION ( 'NONE',  ( -0.000000000000000000, -1.000000000000000000, -0.000000000000000000 ) ) ;
#150 = SURFACE_SIDE_STYLE ('',( #48 ) ) ;
#151 = MECHANICAL_DESIGN_GEOMETRIC_PRESENTATION_REPRESENTATION (  '', ( #145 ), #132 ) ;
#152 = ADVANCED_FACE ( 'NONE', ( #42 ), #144, .F. ) ;
#153 = CARTESIAN_POINT ( 'NONE',  ( -6.123233995736766036E-17, 2.500000000000000000, 0.000000000000000000 ) ) ;
#154 = AXIS2_PLACEMENT_3D ( 'NONE', #113, #92, #190 ) ;
#155 = PRESENTATION_STYLE_ASSIGNMENT (( #6 ) ) ;
#156 =( NAMED_UNIT ( * ) SI_UNIT ( $, .STERADIAN. ) SOLID_ANGLE_UNIT ( ) );
#157 = ORIENTED_EDGE ( 'NONE', *, *, #15, .F. ) ;
#158 = ORIENTED_EDGE ( 'NONE', *, *, #182, .F. ) ;
#159 = ORIENTED_EDGE ( 'NONE', *, *, #125, .F. ) ;
#160 =( GEOMETRIC_REPRESENTATION_CONTEXT ( 3 ) GLOBAL_UNCERTAINTY_ASSIGNED_CONTEXT ( ( #89 ) ) GLOBAL_UNIT_ASSIGNED_CONTEXT ( ( #168, #275, #227 ) ) REPRESENTATION_CONTEXT ( 'NONE', 'WORKASPACE' ) );
#161 = PRESENTATION_LAYER_ASSIGNMENT (  '', '', ( #29 ) ) ;
#162 = DIRECTION ( 'NONE',  ( 3.628583108584750472E-17, -1.000000000000000000, 0.000000000000000000 ) ) ;
#163 = ORIENTED_EDGE ( 'NONE', *, *, #262, .F. ) ;
#164 = FILL_AREA_STYLE_COLOUR ( '', #284 ) ;
#165 = PRESENTATION_LAYER_ASSIGNMENT (  '', '', ( #135 ) ) ;
#166 = LENGTH_MEASURE_WITH_UNIT ( LENGTH_MEASURE( 0.02539999999999999897 ), #86 );
#167 = EDGE_CURVE ( 'NONE', #36, #11, #176, .T. ) ;
#168 =( CONVERSION_BASED_UNIT ( 'INCH', #166 ) LENGTH_UNIT ( ) NAMED_UNIT ( #290 ) );
#169 = FILL_AREA_STYLE_COLOUR ( '', #199 ) ;
#170 =( NAMED_UNIT ( * ) SI_UNIT ( $, .STERADIAN. ) SOLID_ANGLE_UNIT ( ) );
#171 = STYLED_ITEM ( 'NONE', ( #259 ), #270 ) ;
#172 = SURFACE_STYLE_USAGE ( .BOTH. , #193 ) ;
#173 =( NAMED_UNIT ( * ) SI_UNIT ( $, .STERADIAN. ) SOLID_ANGLE_UNIT ( ) );
#174 = CARTESIAN_POINT ( 'NONE',  ( 0.1562500000000000000, 2.500000000000000000, 1.913510623667739771E-17 ) ) ;
#175 =( NAMED_UNIT ( * ) PLANE_ANGLE_UNIT ( ) SI_UNIT ( $, .RADIAN. ) );
#176 = CIRCLE ( 'NONE', #140, 0.1562500000000000000 ) ;
#177 = AXIS2_PLACEMENT_3D ( 'NONE', #33, #105, #223 ) ;
#178 = FILL_AREA_STYLE_COLOUR ( '', #146 ) ;
#179 = CARTESIAN_POINT ( 'NONE',  ( 1.028641826242700895E-34, 0.8125000000000000000, 0.000000000000000000 ) ) ;
#180 = LENGTH_MEASURE_WITH_UNIT ( LENGTH_MEASURE( 0.02539999999999999897 ), #109 );
#181 = DIMENSIONAL_EXPONENTS ( 1.000000000000000000, 0.000000000000000000, 0.000000000000000000, 0.000000000000000000, 0.000000000000000000, 0.000000000000000000, 0.000000000000000000 ) ;
#182 = EDGE_CURVE ( 'NONE', #90, #205, #306, .T. ) ;
#183 =( NAMED_UNIT ( * ) SI_UNIT ( $, .STERADIAN. ) SOLID_ANGLE_UNIT ( ) );
#184 = CYLINDRICAL_SURFACE ( 'NONE', #269, 0.1562500000000000278 ) ;
#185 = DIRECTION ( 'NONE',  ( -0.000000000000000000, -1.000000000000000000, -0.000000000000000000 ) ) ;
#186 = CARTESIAN_POINT ( 'NONE',  ( 0.000000000000000000, 0.8125000000000000000, 0.000000000000000000 ) ) ;
#187 = CARTESIAN_POINT ( 'NONE',  ( -6.123233995736766036E-17, 2.500000000000000000, 0.000000000000000000 ) ) ;
#188 = ORIENTED_EDGE ( 'NONE', *, *, #30, .T. ) ;
#189 = UNCERTAINTY_MEASURE_WITH_UNIT (LENGTH_MEASURE( 1.000000000000000082E-05 ), #239, 'distance_accuracy_value', 'NONE');
#190 = DIRECTION ( 'NONE',  ( 1.000000000000000000, 0.000000000000000000, 0.000000000000000000 ) ) ;
#191 = SURFACE_STYLE_FILL_AREA ( #210 ) ;
#192 =( CONVERSION_BASED_UNIT ( 'INCH', #241 ) LENGTH_UNIT ( ) NAMED_UNIT ( #181 ) );
#193 = SURFACE_SIDE_STYLE ('',( #97 ) ) ;
#194 = CLOSED_SHELL ( 'NONE', ( #258, #88, #283, #152 ) ) ;
#195 = SURFACE_STYLE_USAGE ( .BOTH. , #150 ) ;
#196 =( LENGTH_UNIT ( ) NAMED_UNIT ( * ) SI_UNIT ( $, .METRE. ) );
#197 =( NAMED_UNIT ( * ) PLANE_ANGLE_UNIT ( ) SI_UNIT ( $, .RADIAN. ) );
#198 = LINE ( 'NONE', #26, #244 ) ;
#199 = COLOUR_RGB ( '',1.000000000000000000, 0.000000000000000000, 0.000000000000000000 ) ;
#200 = COLOUR_RGB ( '',1.000000000000000000, 0.000000000000000000, 0.000000000000000000 ) ;
#201 = CARTESIAN_POINT ( 'NONE',  ( 1.913510623667739463E-17, 0.8125000000000000000, 0.1562500000000000000 ) ) ;
#202 = CARTESIAN_POINT ( 'NONE',  ( 0.000000000000000000, 0.000000000000000000, 0.000000000000000000 ) ) ;
#203 = ORIENTED_EDGE ( 'NONE', *, *, #209, .T. ) ;
#204 =( NAMED_UNIT ( * ) PLANE_ANGLE_UNIT ( ) SI_UNIT ( $, .RADIAN. ) );
#205 = VERTEX_POINT ( 'NONE', #295 ) ;
#206 = AXIS2_PLACEMENT_3D ( 'NONE', #24, #126, #77 ) ;
#207 = EDGE_LOOP ( 'NONE', ( #159, #224 ) ) ;
#208 = SURFACE_STYLE_FILL_AREA ( #298 ) ;
#209 = EDGE_CURVE ( 'NONE', #205, #90, #58, .T. ) ;
#210 = FILL_AREA_STYLE ('',( #169 ) ) ;
#211 = DIRECTION ( 'NONE',  ( -1.000000000000000000, 0.000000000000000000, 0.000000000000000000 ) ) ;
#212 = PRODUCT_DEFINITION ( 'UNKNOWN', '', #60, #266 ) ;
#213 = CARTESIAN_POINT ( 'NONE',  ( 0.1562500000000000000, 2.500000000000000000, 0.000000000000000000 ) ) ;
#214 = DIRECTION ( 'NONE',  ( 0.000000000000000000, 0.000000000000000000, -1.000000000000000000 ) ) ;
#215 = VECTOR ( 'NONE', #233, 39.37007874015748143 ) ;
#216 = DIRECTION ( 'NONE',  ( -1.000000000000000000, 0.000000000000000000, 0.000000000000000000 ) ) ;
#217 = CARTESIAN_POINT ( 'NONE',  ( 0.000000000000000000, 0.000000000000000000, 0.000000000000000000 ) ) ;
#218 = UNCERTAINTY_MEASURE_WITH_UNIT (LENGTH_MEASURE( 1.000000000000000082E-05 ), #308, 'distance_accuracy_value', 'NONE');
#219 = VERTEX_POINT ( 'NONE', #141 ) ;
#220 = FILL_AREA_STYLE ('',( #291 ) ) ;
#221 =( CONVERSION_BASED_UNIT ( 'INCH', #25 ) LENGTH_UNIT ( ) NAMED_UNIT ( #47 ) );
#222 = EDGE_LOOP ( 'NONE', ( #110, #62 ) ) ;
#223 = DIRECTION ( 'NONE',  ( 0.000000000000000000, 0.000000000000000000, -1.000000000000000000 ) ) ;
#224 = ORIENTED_EDGE ( 'NONE', *, *, #30, .F. ) ;
#225 = APPLICATION_PROTOCOL_DEFINITION ( 'draft international standard', 'automotive_design', 1998, #85 ) ;
#226 = ORIENTED_EDGE ( 'NONE', *, *, #182, .T. ) ;
#227 =( NAMED_UNIT ( * ) SI_UNIT ( $, .STERADIAN. ) SOLID_ANGLE_UNIT ( ) );
#228 = ADVANCED_FACE ( 'NONE', ( #299 ), #23, .T. ) ;
#229 = PRESENTATION_LAYER_ASSIGNMENT (  '', '', ( #296 ) ) ;
#230 = COLOUR_RGB ( '',0.7921568627450980005, 0.8196078431372548767, 0.9333333333333333481 ) ;
#231 = SURFACE_STYLE_USAGE ( .BOTH. , #14 ) ;
#232 = CARTESIAN_POINT ( 'NONE',  ( 0.000000000000000000, 0.000000000000000000, 0.000000000000000000 ) ) ;
#233 = DIRECTION ( 'NONE',  ( -3.628583108584750472E-17, 1.000000000000000000, -0.000000000000000000 ) ) ;
#234 = CLOSED_SHELL ( 'NONE', ( #270, #228, #7, #115 ) ) ;
#235 = PRESENTATION_LAYER_ASSIGNMENT (  '', '', ( #171 ) ) ;
#236 = SURFACE_STYLE_USAGE ( .BOTH. , #147 ) ;
#237 = CARTESIAN_POINT ( 'NONE',  ( 0.000000000000000000, 0.8125000000000000000, 0.000000000000000000 ) ) ;
#238 = DIRECTION ( 'NONE',  ( -0.000000000000000000, -1.000000000000000000, -0.000000000000000000 ) ) ;
#239 =( CONVERSION_BASED_UNIT ( 'INCH', #130 ) LENGTH_UNIT ( ) NAMED_UNIT ( #75 ) );
#240 = AXIS2_PLACEMENT_3D ( 'NONE', #255, #271, #93 ) ;
#241 = LENGTH_MEASURE_WITH_UNIT ( LENGTH_MEASURE( 0.02539999999999999897 ), #96 );
#242 = LINE ( 'NONE', #282, #94 ) ;
#243 = DIRECTION ( 'NONE',  ( 0.000000000000000000, 0.000000000000000000, -1.000000000000000000 ) ) ;
#244 = VECTOR ( 'NONE', #288, 39.37007874015748143 ) ;
#245 =( GEOMETRIC_REPRESENTATION_CONTEXT ( 3 ) GLOBAL_UNCERTAINTY_ASSIGNED_CONTEXT ( ( #50 ) ) GLOBAL_UNIT_ASSIGNED_CONTEXT ( ( #134, #204, #156 ) ) REPRESENTATION_CONTEXT ( 'NONE', 'WORKASPACE' ) );
#246 = ORIENTED_EDGE ( 'NONE', *, *, #107, .F. ) ;
#247 = SURFACE_STYLE_FILL_AREA ( #220 ) ;
#248 = DIRECTION ( 'NONE',  ( -3.628583108584750472E-17, 1.000000000000000000, -0.000000000000000000 ) ) ;
#249 = EDGE_LOOP ( 'NONE', ( #8, #55, #138, #84 ) ) ;
#250 = CIRCLE ( 'NONE', #206, 0.1562500000000000000 ) ;
#251 = PRODUCT_CONTEXT ( 'NONE', #85, 'mechanical' ) ;
#252 = EDGE_LOOP ( 'NONE', ( #294, #188, #112, #158 ) ) ;
#253 = ORIENTED_EDGE ( 'NONE', *, *, #43, .T. ) ;
#254 = DIRECTION ( 'NONE',  ( -1.000000000000000000, 0.000000000000000000, 0.000000000000000000 ) ) ;
#255 = CARTESIAN_POINT ( 'NONE',  ( 0.000000000000000000, 0.000000000000000000, 0.000000000000000000 ) ) ;
#256 = AXIS2_PLACEMENT_3D ( 'NONE', #237, #260, #263 ) ;
#257 = CYLINDRICAL_SURFACE ( 'NONE', #177, 0.1562500000000000000 ) ;
#258 = ADVANCED_FACE ( 'NONE', ( #46 ), #287, .T. ) ;
#259 = PRESENTATION_STYLE_ASSIGNMENT (( #172 ) ) ;
#260 = DIRECTION ( 'NONE',  ( 0.000000000000000000, 1.000000000000000000, 0.000000000000000000 ) ) ;
#261 = DIRECTION ( 'NONE',  ( 0.000000000000000000, 0.000000000000000000, -1.000000000000000000 ) ) ;
#262 = EDGE_CURVE ( 'NONE', #219, #280, #278, .T. ) ;
#263 = DIRECTION ( 'NONE',  ( 0.000000000000000000, -0.000000000000000000, 1.000000000000000000 ) ) ;
#264 = FACE_OUTER_BOUND ( 'NONE', #207, .T. ) ;
#265 = AXIS2_PLACEMENT_3D ( 'NONE', #279, #91, #254 ) ;
#266 = PRODUCT_DEFINITION_CONTEXT ( 'detailed design', #53, 'design' ) ;
#267 = LENGTH_MEASURE_WITH_UNIT ( LENGTH_MEASURE( 0.02539999999999999897 ), #111 );
#268 = MANIFOLD_SOLID_BREP ( 'Revolve - Cutting Edge', #234 ) ;
#269 = AXIS2_PLACEMENT_3D ( 'NONE', #153, #248, #136 ) ;
#270 = ADVANCED_FACE ( 'NONE', ( #19 ), #257, .T. ) ;
#271 = DIRECTION ( 'NONE',  ( 0.000000000000000000, -1.000000000000000000, -0.000000000000000000 ) ) ;
#272 = APPLICATION_PROTOCOL_DEFINITION ( 'draft international standard', 'automotive_design', 1998, #53 ) ;
#273 = MANIFOLD_SOLID_BREP ( 'Revolve - Tool Body (Straight Shanked)', #194 ) ;
#274 = DIRECTION ( 'NONE',  ( -3.628583108584750472E-17, 1.000000000000000000, -0.000000000000000000 ) ) ;
#275 =( NAMED_UNIT ( * ) PLANE_ANGLE_UNIT ( ) SI_UNIT ( $, .RADIAN. ) );
#276 = PRESENTATION_LAYER_ASSIGNMENT (  '', '', ( #145 ) ) ;
#277 = COLOUR_RGB ( '',1.000000000000000000, 0.000000000000000000, 0.000000000000000000 ) ;
#278 = CIRCLE ( 'NONE', #122, 0.1562500000000000000 ) ;
#279 = CARTESIAN_POINT ( 'NONE',  ( 0.000000000000000000, 0.8125000000000001110, 0.000000000000000000 ) ) ;
#280 = VERTEX_POINT ( 'NONE', #201 ) ;
#281 = CARTESIAN_POINT ( 'NONE',  ( 0.000000000000000000, 0.8125000000000000000, 0.000000000000000000 ) ) ;
#282 = CARTESIAN_POINT ( 'NONE',  ( 0.000000000000000000, 0.000000000000000000, -0.1562500000000000000 ) ) ;
#283 = ADVANCED_FACE ( 'NONE', ( #83 ), #184, .T. ) ;
#284 = COLOUR_RGB ( '',1.000000000000000000, 0.000000000000000000, 0.000000000000000000 ) ;
#285 = DIRECTION ( 'NONE',  ( -3.628583108584750472E-17, 1.000000000000000000, -0.000000000000000000 ) ) ;
#286 = DIRECTION ( 'NONE',  ( -1.000000000000000000, -3.628583108584750472E-17, 0.000000000000000000 ) ) ;
#287 = CYLINDRICAL_SURFACE ( 'NONE', #87, 0.1562500000000000278 ) ;
#288 = DIRECTION ( 'NONE',  ( -3.628583108584750472E-17, 1.000000000000000000, -0.000000000000000000 ) ) ;
#289 = VERTEX_POINT ( 'NONE', #31 ) ;
#290 = DIMENSIONAL_EXPONENTS ( 1.000000000000000000, 0.000000000000000000, 0.000000000000000000, 0.000000000000000000, 0.000000000000000000, 0.000000000000000000, 0.000000000000000000 ) ;
#291 = FILL_AREA_STYLE_COLOUR ( '', #230 ) ;
#292 = PRESENTATION_LAYER_ASSIGNMENT (  '', '', ( #78 ) ) ;
#293 = EDGE_CURVE ( 'NONE', #280, #219, #119, .T. ) ;
#294 = ORIENTED_EDGE ( 'NONE', *, *, #63, .F. ) ;
#295 = CARTESIAN_POINT ( 'NONE',  ( -0.1562500000000001388, 2.500000000000000000, 0.000000000000000000 ) ) ;
#296 = STYLED_ITEM ( 'NONE', ( #20 ), #7 ) ;
#297 = ORIENTED_EDGE ( 'NONE', *, *, #43, .F. ) ;
#298 = FILL_AREA_STYLE ('',( #164 ) ) ;
#299 = FACE_OUTER_BOUND ( 'NONE', #57, .T. ) ;
#300 = AXIS2_PLACEMENT_3D ( 'NONE', #213, #162, #10 ) ;
#301 = MECHANICAL_DESIGN_GEOMETRIC_PRESENTATION_REPRESENTATION (  '', ( #78 ), #307 ) ;
#302 = DIRECTION ( 'NONE',  ( 0.000000000000000000, 0.000000000000000000, -1.000000000000000000 ) ) ;
#303 = ORIENTED_EDGE ( 'NONE', *, *, #15, .T. ) ;
#304 =( LENGTH_UNIT ( ) NAMED_UNIT ( * ) SI_UNIT ( $, .METRE. ) );
#305 = FILL_AREA_STYLE ('',( #100 ) ) ;
#306 = CIRCLE ( 'NONE', #81, 0.1562500000000000833 ) ;
#307 =( GEOMETRIC_REPRESENTATION_CONTEXT ( 3 ) GLOBAL_UNCERTAINTY_ASSIGNED_CONTEXT ( ( #218 ) ) GLOBAL_UNIT_ASSIGNED_CONTEXT ( ( #308, #175, #170 ) ) REPRESENTATION_CONTEXT ( 'NONE', 'WORKASPACE' ) );
#308 =( CONVERSION_BASED_UNIT ( 'INCH', #76 ) LENGTH_UNIT ( ) NAMED_UNIT ( #32 ) );
#309 = DIRECTION ( 'NONE',  ( -0.000000000000000000, -1.000000000000000000, -0.000000000000000000 ) ) ;
ENDSEC;
END-ISO-10303-21;
