ISO-10303-21;
HEADER;
FILE_DESCRIPTION (( 'STEP AP214' ),
    '1' );
FILE_NAME ('Micro_RNC-375-2X.STEP',
    '2021-09-03T17:38:28',
    ( '' ),
    ( '' ),
    'SwSTEP 2.0',
    'SolidWorks 2020',
    '' );
FILE_SCHEMA (( 'AUTOMOTIVE_DESIGN' ));
ENDSEC;

DATA;
#1 =( NAMED_UNIT ( * ) PLANE_ANGLE_UNIT ( ) SI_UNIT ( $, .RADIAN. ) );
#2 = VERTEX_POINT ( 'NONE', #78 ) ;
#3 = ORIENTED_EDGE ( 'NONE', *, *, #72, .T. ) ;
#4 = EDGE_CURVE ( 'NONE', #18, #9, #83, .T. ) ;
#5 = PRODUCT_CONTEXT ( 'NONE', #10, 'mechanical' ) ;
#6 = ORIENTED_EDGE ( 'NONE', *, *, #48, .F. ) ;
#7 = DIRECTION ( 'NONE',  ( 1.000000000000000000, 0.0000000000000000000, 0.0000000000000000000 ) ) ;
#8 = AXIS2_PLACEMENT_3D ( 'NONE', #217, #41, #219 ) ;
#9 = VERTEX_POINT ( 'NONE', #198 ) ;
#10 = APPLICATION_CONTEXT ( 'automotive_design' ) ;
#11 = ORIENTED_EDGE ( 'NONE', *, *, #134, .F. ) ;
#12 = DIRECTION ( 'NONE',  ( -0.0000000000000000000, -0.0000000000000000000, -1.000000000000000000 ) ) ;
#13 = ORIENTED_EDGE ( 'NONE', *, *, #230, .F. ) ;
#14 = FACE_OUTER_BOUND ( 'NONE', #56, .T. ) ;
#15 = DIRECTION ( 'NONE',  ( 1.000000000000000000, 0.0000000000000000000, 0.0000000000000000000 ) ) ;
#16 = CARTESIAN_POINT ( 'NONE',  ( 0.0000000000000000000, 0.0000000000000000000, 2.500000000000000000 ) ) ;
#17 = SURFACE_STYLE_FILL_AREA ( #189 ) ;
#18 = VERTEX_POINT ( 'NONE', #26 ) ;
#19 = CONICAL_SURFACE ( 'NONE', #90, 0.003999999999999999216, 0.7853981633974504994 ) ;
#20 = EDGE_CURVE ( 'NONE', #2, #112, #158, .T. ) ;
#21 =( NAMED_UNIT ( * ) SI_UNIT ( $, .STERADIAN. ) SOLID_ANGLE_UNIT ( ) );
#22 = DIRECTION ( 'NONE',  ( 0.0000000000000000000, 0.0000000000000000000, -1.000000000000000000 ) ) ;
#23 = CYLINDRICAL_SURFACE ( 'NONE', #68, 0.1875000000000000278 ) ;
#24 = AXIS2_PLACEMENT_3D ( 'NONE', #105, #69, #187 ) ;
#25 = CARTESIAN_POINT ( 'NONE',  ( 0.1875000000000000278, 2.296212748401287726E-17, 2.500000000000000000 ) ) ;
#26 = CARTESIAN_POINT ( 'NONE',  ( -0.003999999999999999216, -1.172599310183590719E-17, 2.500000000000000000 ) ) ;
#27 = PRODUCT_DEFINITION ( 'UNKNOWN', '', #188, #226 ) ;
#28 = CARTESIAN_POINT ( 'NONE',  ( 0.0000000000000000000, 0.0000000000000000000, 0.0000000000000000000 ) ) ;
#29 = UNCERTAINTY_MEASURE_WITH_UNIT (LENGTH_MEASURE( 1.000000000000000082E-05 ), #111, 'distance_accuracy_value', 'NONE');
#30 = AXIS2_PLACEMENT_3D ( 'NONE', #215, #22, #61 ) ;
#31 = CARTESIAN_POINT ( 'NONE',  ( -0.003999999999999999216, 4.898587196589411612E-19, 0.0000000000000000000 ) ) ;
#32 =( GEOMETRIC_REPRESENTATION_CONTEXT ( 3 ) GLOBAL_UNCERTAINTY_ASSIGNED_CONTEXT ( ( #100 ) ) GLOBAL_UNIT_ASSIGNED_CONTEXT ( ( #73, #132, #21 ) ) REPRESENTATION_CONTEXT ( 'NONE', 'WORKASPACE' ) );
#33 = LENGTH_MEASURE_WITH_UNIT ( LENGTH_MEASURE( 0.02539999999999999897 ), #247 );
#34 = LENGTH_MEASURE_WITH_UNIT ( LENGTH_MEASURE( 0.02539999999999999897 ), #213 );
#35 = DIRECTION ( 'NONE',  ( 0.0000000000000000000, 0.0000000000000000000, 1.000000000000000000 ) ) ;
#36 = STYLED_ITEM ( 'NONE', ( #55 ), #181 ) ;
#37 = CIRCLE ( 'NONE', #8, 0.1875000000000000278 ) ;
#38 = ORIENTED_EDGE ( 'NONE', *, *, #230, .T. ) ;
#39 = EDGE_LOOP ( 'NONE', ( #240, #141, #102, #64 ) ) ;
#40 = SHAPE_DEFINITION_REPRESENTATION ( #239, #181 ) ;
#41 = DIRECTION ( 'NONE',  ( 0.0000000000000000000, 0.0000000000000000000, -1.000000000000000000 ) ) ;
#42 = ADVANCED_FACE ( 'NONE', ( #156 ), #23, .T. ) ;
#43 = VERTEX_POINT ( 'NONE', #238 ) ;
#44 = EDGE_LOOP ( 'NONE', ( #77, #11, #60, #173 ) ) ;
#45 = LINE ( 'NONE', #31, #222 ) ;
#46 = DIRECTION ( 'NONE',  ( -0.0000000000000000000, -0.0000000000000000000, -1.000000000000000000 ) ) ;
#47 = VECTOR ( 'NONE', #118, 39.37007874015748854 ) ;
#48 = EDGE_CURVE ( 'NONE', #43, #112, #180, .T. ) ;
#49 = LINE ( 'NONE', #127, #130 ) ;
#50 = CARTESIAN_POINT ( 'NONE',  ( 0.0000000000000000000, 0.0000000000000000000, 2.500000000000000000 ) ) ;
#51 = PRESENTATION_LAYER_ASSIGNMENT (  '', '', ( #36 ) ) ;
#52 = DIRECTION ( 'NONE',  ( -1.000000000000000000, 0.0000000000000000000, 0.0000000000000000000 ) ) ;
#53 =( CONVERSION_BASED_UNIT ( 'INCH', #109 ) LENGTH_UNIT ( ) NAMED_UNIT ( #190 ) );
#54 = CIRCLE ( 'NONE', #24, 0.1875000000000000278 ) ;
#55 = PRESENTATION_STYLE_ASSIGNMENT (( #229 ) ) ;
#56 = EDGE_LOOP ( 'NONE', ( #13, #74, #195, #94 ) ) ;
#57 = VECTOR ( 'NONE', #12, 39.37007874015748143 ) ;
#58 = MECHANICAL_DESIGN_GEOMETRIC_PRESENTATION_REPRESENTATION (  '', ( #183 ), #232 ) ;
#59 = VECTOR ( 'NONE', #163, 39.37007874015748854 ) ;
#60 = ORIENTED_EDGE ( 'NONE', *, *, #20, .T. ) ;
#61 = DIRECTION ( 'NONE',  ( 1.000000000000000000, 0.0000000000000000000, 0.0000000000000000000 ) ) ;
#62 = CARTESIAN_POINT ( 'NONE',  ( 0.0000000000000000000, 0.0000000000000000000, 2.500000000000000000 ) ) ;
#63 = COLOUR_RGB ( '',0.7921568627450980005, 0.8196078431372548767, 0.9333333333333333481 ) ;
#64 = ORIENTED_EDGE ( 'NONE', *, *, #72, .F. ) ;
#65 = DIRECTION ( 'NONE',  ( -0.7071067811865490160, 8.659560562354951347E-17, 0.7071067811865459074 ) ) ;
#66 = DIRECTION ( 'NONE',  ( 1.000000000000000000, 0.0000000000000000000, 0.0000000000000000000 ) ) ;
#67 = DIRECTION ( 'NONE',  ( 1.000000000000000000, 0.0000000000000000000, -0.0000000000000000000 ) ) ;
#68 = AXIS2_PLACEMENT_3D ( 'NONE', #62, #117, #121 ) ;
#69 = DIRECTION ( 'NONE',  ( 0.0000000000000000000, 0.0000000000000000000, -1.000000000000000000 ) ) ;
#70 = ADVANCED_FACE ( 'NONE', ( #135 ), #248, .T. ) ;
#71 = AXIS2_PLACEMENT_3D ( 'NONE', #87, #169, #249 ) ;
#72 = EDGE_CURVE ( 'NONE', #199, #43, #37, .T. ) ;
#73 =( CONVERSION_BASED_UNIT ( 'INCH', #33 ) LENGTH_UNIT ( ) NAMED_UNIT ( #131 ) );
#74 = ORIENTED_EDGE ( 'NONE', *, *, #137, .T. ) ;
#75 = VERTEX_POINT ( 'NONE', #122 ) ;
#76 = AXIS2_PLACEMENT_3D ( 'NONE', #113, #89, #52 ) ;
#77 = ORIENTED_EDGE ( 'NONE', *, *, #137, .F. ) ;
#78 = CARTESIAN_POINT ( 'NONE',  ( 0.003999999999999999216, 0.0000000000000000000, 0.0000000000000000000 ) ) ;
#79 = CIRCLE ( 'NONE', #91, 0.003999999999999999216 ) ;
#80 = ORIENTED_EDGE ( 'NONE', *, *, #95, .F. ) ;
#81 = ORIENTED_EDGE ( 'NONE', *, *, #197, .F. ) ;
#82 = LINE ( 'NONE', #103, #59 ) ;
#83 = CIRCLE ( 'NONE', #168, 0.003999999999999999216 ) ;
#84 = DIRECTION ( 'NONE',  ( -0.0000000000000000000, -0.0000000000000000000, -1.000000000000000000 ) ) ;
#85 = CARTESIAN_POINT ( 'NONE',  ( 0.0000000000000000000, 0.0000000000000000000, 0.1834999999999992193 ) ) ;
#86 = DIRECTION ( 'NONE',  ( -1.000000000000000000, 0.0000000000000000000, 0.0000000000000000000 ) ) ;
#87 = CARTESIAN_POINT ( 'NONE',  ( 0.0000000000000000000, 0.0000000000000000000, 0.1834999999999992193 ) ) ;
#88 = SURFACE_SIDE_STYLE ('',( #17 ) ) ;
#89 = DIRECTION ( 'NONE',  ( -0.0000000000000000000, -0.0000000000000000000, -1.000000000000000000 ) ) ;
#90 = AXIS2_PLACEMENT_3D ( 'NONE', #221, #224, #15 ) ;
#91 = AXIS2_PLACEMENT_3D ( 'NONE', #191, #84, #86 ) ;
#92 = ADVANCED_FACE ( 'NONE', ( #119 ), #201, .T. ) ;
#93 = DIMENSIONAL_EXPONENTS ( 1.000000000000000000, 0.0000000000000000000, 0.0000000000000000000, 0.0000000000000000000, 0.0000000000000000000, 0.0000000000000000000, 0.0000000000000000000 ) ;
#94 = ORIENTED_EDGE ( 'NONE', *, *, #20, .F. ) ;
#95 = EDGE_CURVE ( 'NONE', #9, #43, #82, .T. ) ;
#96 = EDGE_LOOP ( 'NONE', ( #176, #157, #175, #80 ) ) ;
#97 = ORIENTED_EDGE ( 'NONE', *, *, #228, .F. ) ;
#98 = AXIS2_PLACEMENT_3D ( 'NONE', #245, #220, #147 ) ;
#99 = DIRECTION ( 'NONE',  ( 0.0000000000000000000, 0.0000000000000000000, 1.000000000000000000 ) ) ;
#100 = UNCERTAINTY_MEASURE_WITH_UNIT (LENGTH_MEASURE( 1.000000000000000082E-05 ), #73, 'distance_accuracy_value', 'NONE');
#101 = EDGE_LOOP ( 'NONE', ( #152, #38 ) ) ;
#102 = ORIENTED_EDGE ( 'NONE', *, *, #95, .T. ) ;
#103 = CARTESIAN_POINT ( 'NONE',  ( 0.003999999999999999216, 0.0000000000000000000, 2.500000000000000000 ) ) ;
#104 = CARTESIAN_POINT ( 'NONE',  ( 0.1875000000000000278, 2.296212748401287726E-17, 0.1834999999999992193 ) ) ;
#105 = CARTESIAN_POINT ( 'NONE',  ( 0.0000000000000000000, 0.0000000000000000000, 2.316500000000000892 ) ) ;
#106 = APPLICATION_CONTEXT ( 'automotive_design' ) ;
#107 = DIRECTION ( 'NONE',  ( 0.0000000000000000000, 0.0000000000000000000, -1.000000000000000000 ) ) ;
#108 = AXIS2_PLACEMENT_3D ( 'NONE', #16, #126, #206 ) ;
#109 = LENGTH_MEASURE_WITH_UNIT ( LENGTH_MEASURE( 0.02539999999999999897 ), #225 );
#110 = ADVANCED_FACE ( 'NONE', ( #241 ), #19, .T. ) ;
#111 =( CONVERSION_BASED_UNIT ( 'INCH', #34 ) LENGTH_UNIT ( ) NAMED_UNIT ( #93 ) );
#112 = VERTEX_POINT ( 'NONE', #104 ) ;
#113 = CARTESIAN_POINT ( 'NONE',  ( 0.0000000000000000000, 0.0000000000000000000, 0.0000000000000000000 ) ) ;
#114 = AXIS2_PLACEMENT_3D ( 'NONE', #85, #123, #243 ) ;
#115 = CIRCLE ( 'NONE', #71, 0.1875000000000000278 ) ;
#116 = EDGE_CURVE ( 'NONE', #9, #18, #155, .T. ) ;
#117 = DIRECTION ( 'NONE',  ( -0.0000000000000000000, -0.0000000000000000000, -1.000000000000000000 ) ) ;
#118 = DIRECTION ( 'NONE',  ( 0.7071067811865490160, 0.0000000000000000000, 0.7071067811865459074 ) ) ;
#119 = FACE_OUTER_BOUND ( 'NONE', #153, .T. ) ;
#120 = AXIS2_PLACEMENT_3D ( 'NONE', #212, #35, #7 ) ;
#121 = DIRECTION ( 'NONE',  ( -1.000000000000000000, 0.0000000000000000000, 0.0000000000000000000 ) ) ;
#122 = CARTESIAN_POINT ( 'NONE',  ( -0.003999999999999999216, 1.172599310183590719E-17, 0.0000000000000000000 ) ) ;
#123 = DIRECTION ( 'NONE',  ( -0.0000000000000000000, -0.0000000000000000000, -1.000000000000000000 ) ) ;
#124 = CARTESIAN_POINT ( 'NONE',  ( -0.1875000000000000278, 0.0000000000000000000, 2.316500000000000892 ) ) ;
#125 = CIRCLE ( 'NONE', #114, 0.1875000000000000278 ) ;
#126 = DIRECTION ( 'NONE',  ( -0.0000000000000000000, -0.0000000000000000000, -1.000000000000000000 ) ) ;
#127 = CARTESIAN_POINT ( 'NONE',  ( -0.1875000000000000278, 0.0000000000000000000, 2.500000000000000000 ) ) ;
#128 = ADVANCED_FACE ( 'NONE', ( #14 ), #192, .T. ) ;
#129 = SURFACE_STYLE_FILL_AREA ( #150 ) ;
#130 = VECTOR ( 'NONE', #46, 39.37007874015748143 ) ;
#131 = DIMENSIONAL_EXPONENTS ( 1.000000000000000000, 0.0000000000000000000, 0.0000000000000000000, 0.0000000000000000000, 0.0000000000000000000, 0.0000000000000000000, 0.0000000000000000000 ) ;
#132 =( NAMED_UNIT ( * ) PLANE_ANGLE_UNIT ( ) SI_UNIT ( $, .RADIAN. ) );
#133 = ORIENTED_EDGE ( 'NONE', *, *, #197, .T. ) ;
#134 = EDGE_CURVE ( 'NONE', #2, #75, #79, .T. ) ;
#135 = FACE_OUTER_BOUND ( 'NONE', #96, .T. ) ;
#136 = EDGE_LOOP ( 'NONE', ( #3, #182, #97, #81 ) ) ;
#137 = EDGE_CURVE ( 'NONE', #75, #179, #45, .T. ) ;
#138 = ORIENTED_EDGE ( 'NONE', *, *, #116, .F. ) ;
#139 = DIRECTION ( 'NONE',  ( 1.000000000000000000, 0.0000000000000000000, -0.0000000000000000000 ) ) ;
#140 = PRESENTATION_LAYER_ASSIGNMENT (  '', '', ( #183 ) ) ;
#141 = ORIENTED_EDGE ( 'NONE', *, *, #4, .T. ) ;
#142 = PLANE ( 'NONE',  #244 ) ;
#143 = CARTESIAN_POINT ( 'NONE',  ( 0.0000000000000000000, 0.0000000000000000000, 0.0000000000000000000 ) ) ;
#144 = VECTOR ( 'NONE', #161, 39.37007874015748854 ) ;
#145 = CYLINDRICAL_SURFACE ( 'NONE', #108, 0.1875000000000000278 ) ;
#146 = ADVANCED_FACE ( 'NONE', ( #186 ), #193, .T. ) ;
#147 = DIRECTION ( 'NONE',  ( -1.000000000000000000, 0.0000000000000000000, 0.0000000000000000000 ) ) ;
#148 = SURFACE_SIDE_STYLE ('',( #129 ) ) ;
#149 = UNCERTAINTY_MEASURE_WITH_UNIT (LENGTH_MEASURE( 1.000000000000000082E-05 ), #53, 'distance_accuracy_value', 'NONE');
#150 = FILL_AREA_STYLE ('',( #234 ) ) ;
#151 = APPLICATION_PROTOCOL_DEFINITION ( 'draft international standard', 'automotive_design', 1998, #10 ) ;
#152 = ORIENTED_EDGE ( 'NONE', *, *, #134, .T. ) ;
#153 = EDGE_LOOP ( 'NONE', ( #138, #233 ) ) ;
#154 = ORIENTED_EDGE ( 'NONE', *, *, #160, .F. ) ;
#155 = CIRCLE ( 'NONE', #98, 0.003999999999999999216 ) ;
#156 = FACE_OUTER_BOUND ( 'NONE', #136, .T. ) ;
#157 = ORIENTED_EDGE ( 'NONE', *, *, #194, .T. ) ;
#158 = LINE ( 'NONE', #202, #47 ) ;
#159 = DIRECTION ( 'NONE',  ( 0.0000000000000000000, 0.0000000000000000000, 1.000000000000000000 ) ) ;
#160 = EDGE_CURVE ( 'NONE', #112, #179, #125, .T. ) ;
#161 = DIRECTION ( 'NONE',  ( -0.7071067811865490160, -8.659560562354951347E-17, -0.7071067811865459074 ) ) ;
#162 = PRODUCT ( 'Micro_RNC-375-2X', 'Micro_RNC-375-2X', '', ( #5 ) ) ;
#163 = DIRECTION ( 'NONE',  ( 0.7071067811865490160, 0.0000000000000000000, -0.7071067811865459074 ) ) ;
#164 = ADVANCED_FACE ( 'NONE', ( #204 ), #142, .F. ) ;
#165 = FILL_AREA_STYLE_COLOUR ( '', #63 ) ;
#166 = SURFACE_STYLE_USAGE ( .BOTH. , #88 ) ;
#167 =( NAMED_UNIT ( * ) SI_UNIT ( $, .STERADIAN. ) SOLID_ANGLE_UNIT ( ) );
#168 = AXIS2_PLACEMENT_3D ( 'NONE', #177, #218, #216 ) ;
#169 = DIRECTION ( 'NONE',  ( -0.0000000000000000000, -0.0000000000000000000, -1.000000000000000000 ) ) ;
#170 = AXIS2_PLACEMENT_3D ( 'NONE', #203, #99, #139 ) ;
#171 =( NAMED_UNIT ( * ) PLANE_ANGLE_UNIT ( ) SI_UNIT ( $, .RADIAN. ) );
#172 =( NAMED_UNIT ( * ) SI_UNIT ( $, .STERADIAN. ) SOLID_ANGLE_UNIT ( ) );
#173 = ORIENTED_EDGE ( 'NONE', *, *, #160, .T. ) ;
#174 = MECHANICAL_DESIGN_GEOMETRIC_PRESENTATION_REPRESENTATION (  '', ( #36 ), #209 ) ;
#175 = ORIENTED_EDGE ( 'NONE', *, *, #207, .F. ) ;
#176 = ORIENTED_EDGE ( 'NONE', *, *, #116, .T. ) ;
#177 = CARTESIAN_POINT ( 'NONE',  ( 0.0000000000000000000, 0.0000000000000000000, 2.500000000000000000 ) ) ;
#178 = APPLICATION_PROTOCOL_DEFINITION ( 'draft international standard', 'automotive_design', 1998, #106 ) ;
#179 = VERTEX_POINT ( 'NONE', #223 ) ;
#180 = LINE ( 'NONE', #25, #57 ) ;
#181 = ADVANCED_BREP_SHAPE_REPRESENTATION ( 'Micro_RNC-375-2X', ( #211, #120 ), #32 ) ;
#182 = ORIENTED_EDGE ( 'NONE', *, *, #48, .T. ) ;
#183 = STYLED_ITEM ( 'NONE', ( #246 ), #211 ) ;
#184 = AXIS2_PLACEMENT_3D ( 'NONE', #143, #159, #66 ) ;
#185 = DIRECTION ( 'NONE',  ( 0.0000000000000000000, 0.0000000000000000000, 1.000000000000000000 ) ) ;
#186 = FACE_OUTER_BOUND ( 'NONE', #39, .T. ) ;
#187 = DIRECTION ( 'NONE',  ( -1.000000000000000000, 0.0000000000000000000, 0.0000000000000000000 ) ) ;
#188 = PRODUCT_DEFINITION_FORMATION_WITH_SPECIFIED_SOURCE ( 'ANY', '', #162, .NOT_KNOWN. ) ;
#189 = FILL_AREA_STYLE ('',( #165 ) ) ;
#190 = DIMENSIONAL_EXPONENTS ( 1.000000000000000000, 0.0000000000000000000, 0.0000000000000000000, 0.0000000000000000000, 0.0000000000000000000, 0.0000000000000000000, 0.0000000000000000000 ) ;
#191 = CARTESIAN_POINT ( 'NONE',  ( 0.0000000000000000000, 0.0000000000000000000, 0.0000000000000000000 ) ) ;
#192 = CONICAL_SURFACE ( 'NONE', #184, 0.003999999999999999216, 0.7853981633974504994 ) ;
#193 = CONICAL_SURFACE ( 'NONE', #227, 0.003999999999999999216, 0.7853981633974504994 ) ;
#194 = EDGE_CURVE ( 'NONE', #18, #199, #242, .T. ) ;
#195 = ORIENTED_EDGE ( 'NONE', *, *, #228, .T. ) ;
#196 = COLOUR_RGB ( '',0.7921568627450980005, 0.8196078431372548767, 0.9333333333333333481 ) ;
#197 = EDGE_CURVE ( 'NONE', #199, #179, #49, .T. ) ;
#198 = CARTESIAN_POINT ( 'NONE',  ( 0.003999999999999999216, 0.0000000000000000000, 2.500000000000000000 ) ) ;
#199 = VERTEX_POINT ( 'NONE', #124 ) ;
#200 = ADVANCED_FACE ( 'NONE', ( #205 ), #145, .T. ) ;
#201 = PLANE ( 'NONE',  #170 ) ;
#202 = CARTESIAN_POINT ( 'NONE',  ( 0.003999999999999999216, 0.0000000000000000000, 0.0000000000000000000 ) ) ;
#203 = CARTESIAN_POINT ( 'NONE',  ( 0.0000000000000000000, 0.0000000000000000000, 2.500000000000000000 ) ) ;
#204 = FACE_OUTER_BOUND ( 'NONE', #101, .T. ) ;
#205 = FACE_OUTER_BOUND ( 'NONE', #237, .T. ) ;
#206 = DIRECTION ( 'NONE',  ( -1.000000000000000000, 0.0000000000000000000, 0.0000000000000000000 ) ) ;
#207 = EDGE_CURVE ( 'NONE', #43, #199, #54, .T. ) ;
#208 = CARTESIAN_POINT ( 'NONE',  ( -0.003999999999999999216, -4.898587196589411612E-19, 2.500000000000000000 ) ) ;
#209 =( GEOMETRIC_REPRESENTATION_CONTEXT ( 3 ) GLOBAL_UNCERTAINTY_ASSIGNED_CONTEXT ( ( #29 ) ) GLOBAL_UNIT_ASSIGNED_CONTEXT ( ( #111, #171, #172 ) ) REPRESENTATION_CONTEXT ( 'NONE', 'WORKASPACE' ) );
#210 = DIRECTION ( 'NONE',  ( 1.000000000000000000, 0.0000000000000000000, 0.0000000000000000000 ) ) ;
#211 = MANIFOLD_SOLID_BREP ( 'Mirror1', #231 ) ;
#212 = CARTESIAN_POINT ( 'NONE',  ( 0.0000000000000000000, 0.0000000000000000000, 0.0000000000000000000 ) ) ;
#213 =( LENGTH_UNIT ( ) NAMED_UNIT ( * ) SI_UNIT ( $, .METRE. ) );
#214 = CIRCLE ( 'NONE', #76, 0.003999999999999999216 ) ;
#215 = CARTESIAN_POINT ( 'NONE',  ( 0.0000000000000000000, 0.0000000000000000000, 2.500000000000000000 ) ) ;
#216 = DIRECTION ( 'NONE',  ( -1.000000000000000000, 0.0000000000000000000, 0.0000000000000000000 ) ) ;
#217 = CARTESIAN_POINT ( 'NONE',  ( 0.0000000000000000000, 0.0000000000000000000, 2.316500000000000892 ) ) ;
#218 = DIRECTION ( 'NONE',  ( 0.0000000000000000000, 0.0000000000000000000, -1.000000000000000000 ) ) ;
#219 = DIRECTION ( 'NONE',  ( -1.000000000000000000, 0.0000000000000000000, 0.0000000000000000000 ) ) ;
#220 = DIRECTION ( 'NONE',  ( 0.0000000000000000000, 0.0000000000000000000, -1.000000000000000000 ) ) ;
#221 = CARTESIAN_POINT ( 'NONE',  ( 0.0000000000000000000, 0.0000000000000000000, 0.0000000000000000000 ) ) ;
#222 = VECTOR ( 'NONE', #65, 39.37007874015748854 ) ;
#223 = CARTESIAN_POINT ( 'NONE',  ( -0.1875000000000000278, 0.0000000000000000000, 0.1834999999999992193 ) ) ;
#224 = DIRECTION ( 'NONE',  ( 0.0000000000000000000, 0.0000000000000000000, 1.000000000000000000 ) ) ;
#225 =( LENGTH_UNIT ( ) NAMED_UNIT ( * ) SI_UNIT ( $, .METRE. ) );
#226 = PRODUCT_DEFINITION_CONTEXT ( 'detailed design', #106, 'design' ) ;
#227 = AXIS2_PLACEMENT_3D ( 'NONE', #50, #107, #210 ) ;
#228 = EDGE_CURVE ( 'NONE', #179, #112, #115, .T. ) ;
#229 = SURFACE_STYLE_USAGE ( .BOTH. , #148 ) ;
#230 = EDGE_CURVE ( 'NONE', #75, #2, #214, .T. ) ;
#231 = CLOSED_SHELL ( 'NONE', ( #70, #128, #42, #200, #110, #164, #146, #92 ) ) ;
#232 =( GEOMETRIC_REPRESENTATION_CONTEXT ( 3 ) GLOBAL_UNCERTAINTY_ASSIGNED_CONTEXT ( ( #149 ) ) GLOBAL_UNIT_ASSIGNED_CONTEXT ( ( #53, #1, #167 ) ) REPRESENTATION_CONTEXT ( 'NONE', 'WORKASPACE' ) );
#233 = ORIENTED_EDGE ( 'NONE', *, *, #4, .F. ) ;
#234 = FILL_AREA_STYLE_COLOUR ( '', #196 ) ;
#235 = PRODUCT_RELATED_PRODUCT_CATEGORY ( 'part', '', ( #162 ) ) ;
#236 = ORIENTED_EDGE ( 'NONE', *, *, #207, .T. ) ;
#237 = EDGE_LOOP ( 'NONE', ( #6, #236, #133, #154 ) ) ;
#238 = CARTESIAN_POINT ( 'NONE',  ( 0.1875000000000000278, 2.296212748401287726E-17, 2.316500000000000892 ) ) ;
#239 = PRODUCT_DEFINITION_SHAPE ( 'NONE', 'NONE',  #27 ) ;
#240 = ORIENTED_EDGE ( 'NONE', *, *, #194, .F. ) ;
#241 = FACE_OUTER_BOUND ( 'NONE', #44, .T. ) ;
#242 = LINE ( 'NONE', #208, #144 ) ;
#243 = DIRECTION ( 'NONE',  ( -1.000000000000000000, 0.0000000000000000000, 0.0000000000000000000 ) ) ;
#244 = AXIS2_PLACEMENT_3D ( 'NONE', #28, #185, #67 ) ;
#245 = CARTESIAN_POINT ( 'NONE',  ( 0.0000000000000000000, 0.0000000000000000000, 2.500000000000000000 ) ) ;
#246 = PRESENTATION_STYLE_ASSIGNMENT (( #166 ) ) ;
#247 =( LENGTH_UNIT ( ) NAMED_UNIT ( * ) SI_UNIT ( $, .METRE. ) );
#248 = CONICAL_SURFACE ( 'NONE', #30, 0.003999999999999999216, 0.7853981633974504994 ) ;
#249 = DIRECTION ( 'NONE',  ( -1.000000000000000000, 0.0000000000000000000, 0.0000000000000000000 ) ) ;
ENDSEC;
END-ISO-10303-21;
