ISO-10303-21;
HEADER;
FILE_DESCRIPTION (( 'STEP AP214' ),
    '1' );
FILE_NAME ('84312.STEP',
    '2023-06-23T12:27:34',
    ( '' ),
    ( '' ),
    'SwSTEP 2.0',
    'SolidWorks 2023',
    '' );
FILE_SCHEMA (( 'AUTOMOTIVE_DESIGN' ));
ENDSEC;

DATA;
#1 =( NAMED_UNIT ( * ) SI_UNIT ( $, .STERADIAN. ) SOLID_ANGLE_UNIT ( ) );
#2 = UNCERTAINTY_MEASURE_WITH_UNIT (LENGTH_MEASURE( 1.000000000000000082E-05 ), #77, 'distance_accuracy_value', 'NONE');
#3 = MECHANICAL_DESIGN_GEOMETRIC_PRESENTATION_REPRESENTATION (  '', ( #87 ), #78 ) ;
#4 = SURFACE_STYLE_FILL_AREA ( #104 ) ;
#5 =( NAMED_UNIT ( * ) PLANE_ANGLE_UNIT ( ) SI_UNIT ( $, .RADIAN. ) );
#6 = DIRECTION ( 'NONE',  ( 0.000000000000000000, 0.000000000000000000, -1.000000000000000000 ) ) ;
#7 = CARTESIAN_POINT ( 'NONE',  ( 0.000000000000000000, 1.625000000000000000, 0.000000000000000000 ) ) ;
#8 = DIRECTION ( 'NONE',  ( -1.000000000000000000, -5.156407575357275916E-17, 0.000000000000000000 ) ) ;
#9 = STYLED_ITEM ( 'NONE', ( #222 ), #132 ) ;
#10 = CARTESIAN_POINT ( 'NONE',  ( 0.3750000000000000555, 4.000000000000000000, 0.000000000000000000 ) ) ;
#11 = ORIENTED_EDGE ( 'NONE', *, *, #192, .F. ) ;
#12 = CARTESIAN_POINT ( 'NONE',  ( -0.3750000000000002220, 4.000000000000000000, 0.000000000000000000 ) ) ;
#13 = CARTESIAN_POINT ( 'NONE',  ( -1.224646799147352714E-16, 4.000000000000000000, 0.000000000000000000 ) ) ;
#14 = PRODUCT_CONTEXT ( 'NONE', #230, 'mechanical' ) ;
#15 = ORIENTED_EDGE ( 'NONE', *, *, #16, .T. ) ;
#16 = EDGE_CURVE ( 'NONE', #292, #137, #49, .T. ) ;
#17 = CIRCLE ( 'NONE', #177, 0.3750000000000000555 ) ;
#18 = CIRCLE ( 'NONE', #94, 0.3750000000000001665 ) ;
#19 =( LENGTH_UNIT ( ) NAMED_UNIT ( * ) SI_UNIT ( $, .METRE. ) );
#20 = SURFACE_SIDE_STYLE ('',( #300 ) ) ;
#21 = PRESENTATION_STYLE_ASSIGNMENT (( #145 ) ) ;
#22 = LENGTH_MEASURE_WITH_UNIT ( LENGTH_MEASURE( 0.02539999999999999897 ), #51 );
#23 = MECHANICAL_DESIGN_GEOMETRIC_PRESENTATION_REPRESENTATION (  '', ( #306 ), #244 ) ;
#24 =( CONVERSION_BASED_UNIT ( 'INCH', #263 ) LENGTH_UNIT ( ) NAMED_UNIT ( #143 ) );
#25 = LENGTH_MEASURE_WITH_UNIT ( LENGTH_MEASURE( 0.02539999999999999897 ), #197 );
#26 = ADVANCED_FACE ( 'NONE', ( #290 ), #70, .F. ) ;
#27 =( GEOMETRIC_REPRESENTATION_CONTEXT ( 3 ) GLOBAL_UNCERTAINTY_ASSIGNED_CONTEXT ( ( #257 ) ) GLOBAL_UNIT_ASSIGNED_CONTEXT ( ( #194, #281, #44 ) ) REPRESENTATION_CONTEXT ( 'NONE', 'WORKASPACE' ) );
#28 = PLANE ( 'NONE',  #207 ) ;
#29 =( CONVERSION_BASED_UNIT ( 'INCH', #81 ) LENGTH_UNIT ( ) NAMED_UNIT ( #260 ) );
#30 = PRESENTATION_LAYER_ASSIGNMENT (  '', '', ( #277 ) ) ;
#31 = FILL_AREA_STYLE ('',( #92 ) ) ;
#32 = EDGE_LOOP ( 'NONE', ( #119, #294 ) ) ;
#33 = EDGE_CURVE ( 'NONE', #178, #249, #68, .T. ) ;
#34 = DIRECTION ( 'NONE',  ( 1.000000000000000000, 5.156407575357275916E-17, 0.000000000000000000 ) ) ;
#35 = ORIENTED_EDGE ( 'NONE', *, *, #199, .F. ) ;
#36 = ORIENTED_EDGE ( 'NONE', *, *, #98, .T. ) ;
#37 = COLOUR_RGB ( '',1.000000000000000000, 0.000000000000000000, 0.000000000000000000 ) ;
#38 = CIRCLE ( 'NONE', #264, 0.3750000000000000555 ) ;
#39 = CARTESIAN_POINT ( 'NONE',  ( 0.3750000000000000555, 1.625000000000000000, 4.592425496802576684E-17 ) ) ;
#40 = ORIENTED_EDGE ( 'NONE', *, *, #283, .T. ) ;
#41 = ADVANCED_FACE ( 'NONE', ( #91 ), #117, .T. ) ;
#42 = CARTESIAN_POINT ( 'NONE',  ( 0.000000000000000000, 1.625000000000000000, 0.000000000000000000 ) ) ;
#43 = EDGE_LOOP ( 'NONE', ( #205, #60 ) ) ;
#44 =( NAMED_UNIT ( * ) SI_UNIT ( $, .STERADIAN. ) SOLID_ANGLE_UNIT ( ) );
#45 = PRODUCT_DEFINITION_CONTEXT ( 'detailed design', #141, 'design' ) ;
#46 = COLOUR_RGB ( '',1.000000000000000000, 0.000000000000000000, 0.000000000000000000 ) ;
#47 = PRODUCT_DEFINITION_FORMATION_WITH_SPECIFIED_SOURCE ( 'ANY', '', #279, .NOT_KNOWN. ) ;
#48 = SURFACE_SIDE_STYLE ('',( #237 ) ) ;
#49 = CIRCLE ( 'NONE', #272, 0.3750000000000000555 ) ;
#50 = CLOSED_SHELL ( 'NONE', ( #103, #26, #204, #157 ) ) ;
#51 =( LENGTH_UNIT ( ) NAMED_UNIT ( * ) SI_UNIT ( $, .METRE. ) );
#52 = DIRECTION ( 'NONE',  ( -1.000000000000000000, 0.000000000000000000, 0.000000000000000000 ) ) ;
#53 = ADVANCED_FACE ( 'NONE', ( #261 ), #147, .T. ) ;
#54 = DIRECTION ( 'NONE',  ( -1.000000000000000000, 0.000000000000000000, 0.000000000000000000 ) ) ;
#55 = AXIS2_PLACEMENT_3D ( 'NONE', #267, #58, #270 ) ;
#56 = EDGE_CURVE ( 'NONE', #129, #135, #17, .T. ) ;
#57 = FILL_AREA_STYLE_COLOUR ( '', #153 ) ;
#58 = DIRECTION ( 'NONE',  ( -0.000000000000000000, -1.000000000000000000, -0.000000000000000000 ) ) ;
#59 = CARTESIAN_POINT ( 'NONE',  ( -1.224646799147352714E-16, 4.000000000000000000, 0.000000000000000000 ) ) ;
#60 = ORIENTED_EDGE ( 'NONE', *, *, #16, .F. ) ;
#61 = MECHANICAL_DESIGN_GEOMETRIC_PRESENTATION_REPRESENTATION (  '', ( #277 ), #27 ) ;
#62 = CARTESIAN_POINT ( 'NONE',  ( -0.3750000000000002776, 4.000000000000000000, 0.000000000000000000 ) ) ;
#63 = ORIENTED_EDGE ( 'NONE', *, *, #293, .F. ) ;
#64 = PRESENTATION_STYLE_ASSIGNMENT (( #202 ) ) ;
#65 = ORIENTED_EDGE ( 'NONE', *, *, #288, .F. ) ;
#66 = DIRECTION ( 'NONE',  ( -0.000000000000000000, -1.000000000000000000, -0.000000000000000000 ) ) ;
#67 = CARTESIAN_POINT ( 'NONE',  ( 0.000000000000000000, 1.625000000000000000, 0.000000000000000000 ) ) ;
#68 = CIRCLE ( 'NONE', #305, 0.3750000000000001665 ) ;
#69 = CARTESIAN_POINT ( 'NONE',  ( 0.000000000000000000, 0.000000000000000000, 0.000000000000000000 ) ) ;
#70 = PLANE ( 'NONE',  #74 ) ;
#71 =( NAMED_UNIT ( * ) PLANE_ANGLE_UNIT ( ) SI_UNIT ( $, .RADIAN. ) );
#72 = PRESENTATION_STYLE_ASSIGNMENT (( #190 ) ) ;
#73 = CLOSED_SHELL ( 'NONE', ( #53, #132, #90, #41 ) ) ;
#74 = AXIS2_PLACEMENT_3D ( 'NONE', #131, #228, #8 ) ;
#75 =( NAMED_UNIT ( * ) SI_UNIT ( $, .STERADIAN. ) SOLID_ANGLE_UNIT ( ) );
#76 =( NAMED_UNIT ( * ) SI_UNIT ( $, .STERADIAN. ) SOLID_ANGLE_UNIT ( ) );
#77 =( CONVERSION_BASED_UNIT ( 'INCH', #215 ) LENGTH_UNIT ( ) NAMED_UNIT ( #188 ) );
#78 =( GEOMETRIC_REPRESENTATION_CONTEXT ( 3 ) GLOBAL_UNCERTAINTY_ASSIGNED_CONTEXT ( ( #105 ) ) GLOBAL_UNIT_ASSIGNED_CONTEXT ( ( #84, #287, #175 ) ) REPRESENTATION_CONTEXT ( 'NONE', 'WORKASPACE' ) );
#79 = AXIS2_PLACEMENT_3D ( 'NONE', #10, #165, #34 ) ;
#80 = DIRECTION ( 'NONE',  ( -5.156407575357275916E-17, 1.000000000000000000, -0.000000000000000000 ) ) ;
#81 = LENGTH_MEASURE_WITH_UNIT ( LENGTH_MEASURE( 0.02539999999999999897 ), #201 );
#82 = CARTESIAN_POINT ( 'NONE',  ( -1.224646799147352714E-16, 4.000000000000000000, 0.000000000000000000 ) ) ;
#83 = MANIFOLD_SOLID_BREP ( 'Revolve - Tool Body (Straight Shanked)', #50 ) ;
#84 =( CONVERSION_BASED_UNIT ( 'INCH', #25 ) LENGTH_UNIT ( ) NAMED_UNIT ( #304 ) );
#85 = DIRECTION ( 'NONE',  ( -0.000000000000000000, -1.000000000000000000, -0.000000000000000000 ) ) ;
#86 = VERTEX_POINT ( 'NONE', #198 ) ;
#87 = STYLED_ITEM ( 'NONE', ( #266 ), #90 ) ;
#88 = DIRECTION ( 'NONE',  ( 0.000000000000000000, 0.000000000000000000, -1.000000000000000000 ) ) ;
#89 = EDGE_LOOP ( 'NONE', ( #181, #15, #232, #11 ) ) ;
#90 = ADVANCED_FACE ( 'NONE', ( #174 ), #219, .T. ) ;
#91 = FACE_OUTER_BOUND ( 'NONE', #296, .T. ) ;
#92 = FILL_AREA_STYLE_COLOUR ( '', #100 ) ;
#93 = FILL_AREA_STYLE_COLOUR ( '', #37 ) ;
#94 = AXIS2_PLACEMENT_3D ( 'NONE', #109, #250, #130 ) ;
#95 = VERTEX_POINT ( 'NONE', #152 ) ;
#96 = CARTESIAN_POINT ( 'NONE',  ( 0.000000000000000000, 0.000000000000000000, 0.000000000000000000 ) ) ;
#97 = CARTESIAN_POINT ( 'NONE',  ( 0.000000000000000000, 0.000000000000000000, 0.000000000000000000 ) ) ;
#98 = EDGE_CURVE ( 'NONE', #135, #129, #99, .T. ) ;
#99 = CIRCLE ( 'NONE', #268, 0.3750000000000000555 ) ;
#100 = COLOUR_RGB ( '',0.7921568627450980005, 0.8196078431372548767, 0.9333333333333333481 ) ;
#101 = DIMENSIONAL_EXPONENTS ( 1.000000000000000000, 0.000000000000000000, 0.000000000000000000, 0.000000000000000000, 0.000000000000000000, 0.000000000000000000, 0.000000000000000000 ) ;
#102 =( LENGTH_UNIT ( ) NAMED_UNIT ( * ) SI_UNIT ( $, .METRE. ) );
#103 = ADVANCED_FACE ( 'NONE', ( #245 ), #156, .T. ) ;
#104 = FILL_AREA_STYLE ('',( #243 ) ) ;
#105 = UNCERTAINTY_MEASURE_WITH_UNIT (LENGTH_MEASURE( 1.000000000000000082E-05 ), #84, 'distance_accuracy_value', 'NONE');
#106 = LINE ( 'NONE', #242, #282 ) ;
#107 = CARTESIAN_POINT ( 'NONE',  ( 3.032960542342103792E-32, 1.625000000000000000, 0.000000000000000000 ) ) ;
#108 = VECTOR ( 'NONE', #66, 39.37007874015748143 ) ;
#109 = CARTESIAN_POINT ( 'NONE',  ( -1.224646799147352714E-16, 4.000000000000000000, 0.000000000000000000 ) ) ;
#110 = ORIENTED_EDGE ( 'NONE', *, *, #210, .T. ) ;
#111 = DIRECTION ( 'NONE',  ( 0.000000000000000000, 0.000000000000000000, -1.000000000000000000 ) ) ;
#112 = ORIENTED_EDGE ( 'NONE', *, *, #125, .T. ) ;
#113 = AXIS2_PLACEMENT_3D ( 'NONE', #82, #126, #52 ) ;
#114 = FACE_OUTER_BOUND ( 'NONE', #115, .T. ) ;
#115 = EDGE_LOOP ( 'NONE', ( #256, #212 ) ) ;
#116 = DIRECTION ( 'NONE',  ( 0.000000000000000000, -0.000000000000000000, 1.000000000000000000 ) ) ;
#117 = PLANE ( 'NONE',  #240 ) ;
#118 = DIMENSIONAL_EXPONENTS ( 1.000000000000000000, 0.000000000000000000, 0.000000000000000000, 0.000000000000000000, 0.000000000000000000, 0.000000000000000000, 0.000000000000000000 ) ;
#119 = ORIENTED_EDGE ( 'NONE', *, *, #56, .F. ) ;
#120 = DIRECTION ( 'NONE',  ( 0.000000000000000000, -1.000000000000000000, -0.000000000000000000 ) ) ;
#121 = DIRECTION ( 'NONE',  ( -5.156407575357275299E-17, 1.000000000000000000, -0.000000000000000000 ) ) ;
#122 = DIRECTION ( 'NONE',  ( -5.156407575357275299E-17, 1.000000000000000000, -0.000000000000000000 ) ) ;
#123 = UNCERTAINTY_MEASURE_WITH_UNIT (LENGTH_MEASURE( 1.000000000000000082E-05 ), #24, 'distance_accuracy_value', 'NONE');
#124 = FILL_AREA_STYLE ('',( #57 ) ) ;
#125 = EDGE_CURVE ( 'NONE', #135, #249, #106, .T. ) ;
#126 = DIRECTION ( 'NONE',  ( -5.156407575357275299E-17, 1.000000000000000000, -0.000000000000000000 ) ) ;
#127 = UNCERTAINTY_MEASURE_WITH_UNIT (LENGTH_MEASURE( 1.000000000000000082E-05 ), #225, 'distance_accuracy_value', 'NONE');
#128 = CIRCLE ( 'NONE', #171, 0.3750000000000000555 ) ;
#129 = VERTEX_POINT ( 'NONE', #172 ) ;
#130 = DIRECTION ( 'NONE',  ( -1.000000000000000000, 0.000000000000000000, 0.000000000000000000 ) ) ;
#131 = CARTESIAN_POINT ( 'NONE',  ( 4.985351078100356093E-34, 1.625000000000000000, 0.000000000000000000 ) ) ;
#132 = ADVANCED_FACE ( 'NONE', ( #154 ), #28, .T. ) ;
#133 = PRESENTATION_STYLE_ASSIGNMENT (( #278 ) ) ;
#134 = LINE ( 'NONE', #12, #173 ) ;
#135 = VERTEX_POINT ( 'NONE', #39 ) ;
#136 = DIRECTION ( 'NONE',  ( 0.000000000000000000, 1.000000000000000000, 0.000000000000000000 ) ) ;
#137 = VERTEX_POINT ( 'NONE', #176 ) ;
#138 = PRESENTATION_LAYER_ASSIGNMENT (  '', '', ( #297 ) ) ;
#139 = PRODUCT_DEFINITION ( 'UNKNOWN', '', #47, #45 ) ;
#140 = LENGTH_MEASURE_WITH_UNIT ( LENGTH_MEASURE( 0.02539999999999999897 ), #102 );
#141 = APPLICATION_CONTEXT ( 'automotive_design' ) ;
#142 = DIRECTION ( 'NONE',  ( 0.000000000000000000, 0.000000000000000000, -1.000000000000000000 ) ) ;
#143 = DIMENSIONAL_EXPONENTS ( 1.000000000000000000, 0.000000000000000000, 0.000000000000000000, 0.000000000000000000, 0.000000000000000000, 0.000000000000000000, 0.000000000000000000 ) ;
#144 = CARTESIAN_POINT ( 'NONE',  ( 0.000000000000000000, 0.000000000000000000, -0.3750000000000000555 ) ) ;
#145 = SURFACE_STYLE_USAGE ( .BOTH. , #48 ) ;
#146 = DIRECTION ( 'NONE',  ( 0.000000000000000000, 0.000000000000000000, 1.000000000000000000 ) ) ;
#147 = CYLINDRICAL_SURFACE ( 'NONE', #220, 0.3750000000000000555 ) ;
#148 = UNCERTAINTY_MEASURE_WITH_UNIT (LENGTH_MEASURE( 1.000000000000000082E-05 ), #235, 'distance_accuracy_value', 'NONE');
#149 =( GEOMETRIC_REPRESENTATION_CONTEXT ( 3 ) GLOBAL_UNCERTAINTY_ASSIGNED_CONTEXT ( ( #123 ) ) GLOBAL_UNIT_ASSIGNED_CONTEXT ( ( #24, #224, #1 ) ) REPRESENTATION_CONTEXT ( 'NONE', 'WORKASPACE' ) );
#150 =( LENGTH_UNIT ( ) NAMED_UNIT ( * ) SI_UNIT ( $, .METRE. ) );
#151 = SURFACE_STYLE_USAGE ( .BOTH. , #246 ) ;
#152 = CARTESIAN_POINT ( 'NONE',  ( 4.592425496802575451E-17, 0.000000000000000000, 0.3750000000000000555 ) ) ;
#153 = COLOUR_RGB ( '',1.000000000000000000, 0.000000000000000000, 0.000000000000000000 ) ;
#154 = FACE_OUTER_BOUND ( 'NONE', #43, .T. ) ;
#155 = SURFACE_STYLE_USAGE ( .BOTH. , #265 ) ;
#156 = CYLINDRICAL_SURFACE ( 'NONE', #113, 0.3750000000000001110 ) ;
#157 = ADVANCED_FACE ( 'NONE', ( #114 ), #271, .F. ) ;
#158 = SURFACE_STYLE_FILL_AREA ( #31 ) ;
#159 = AXIS2_PLACEMENT_3D ( 'NONE', #59, #208, #255 ) ;
#160 = EDGE_LOOP ( 'NONE', ( #276, #36, #226, #213 ) ) ;
#161 = CYLINDRICAL_SURFACE ( 'NONE', #159, 0.3750000000000001110 ) ;
#162 = EDGE_LOOP ( 'NONE', ( #254, #112, #166, #65 ) ) ;
#163 = EDGE_LOOP ( 'NONE', ( #40, #110, #35, #63 ) ) ;
#164 = CARTESIAN_POINT ( 'NONE',  ( 4.592425496802575451E-17, 1.625000000000000000, 0.3750000000000000555 ) ) ;
#165 = DIRECTION ( 'NONE',  ( 5.156407575357275916E-17, -1.000000000000000000, 0.000000000000000000 ) ) ;
#166 = ORIENTED_EDGE ( 'NONE', *, *, #33, .F. ) ;
#167 = PRODUCT_RELATED_PRODUCT_CATEGORY ( 'part', '', ( #279 ) ) ;
#168 = CARTESIAN_POINT ( 'NONE',  ( 0.000000000000000000, 0.000000000000000000, 0.000000000000000000 ) ) ;
#169 =( NAMED_UNIT ( * ) PLANE_ANGLE_UNIT ( ) SI_UNIT ( $, .RADIAN. ) );
#170 = MECHANICAL_DESIGN_GEOMETRIC_PRESENTATION_REPRESENTATION (  '', ( #297 ), #309 ) ;
#171 = AXIS2_PLACEMENT_3D ( 'NONE', #69, #85, #88 ) ;
#172 = CARTESIAN_POINT ( 'NONE',  ( -0.3750000000000000555, 1.625000000000000000, 0.000000000000000000 ) ) ;
#173 = VECTOR ( 'NONE', #216, 39.37007874015748143 ) ;
#174 = FACE_OUTER_BOUND ( 'NONE', #89, .T. ) ;
#175 =( NAMED_UNIT ( * ) SI_UNIT ( $, .STERADIAN. ) SOLID_ANGLE_UNIT ( ) );
#176 = CARTESIAN_POINT ( 'NONE',  ( 0.000000000000000000, 1.625000000000000000, -0.3750000000000000555 ) ) ;
#177 = AXIS2_PLACEMENT_3D ( 'NONE', #236, #121, #217 ) ;
#178 = VERTEX_POINT ( 'NONE', #62 ) ;
#179 = LINE ( 'NONE', #248, #108 ) ;
#180 = DIRECTION ( 'NONE',  ( -1.000000000000000000, 0.000000000000000000, 0.000000000000000000 ) ) ;
#181 = ORIENTED_EDGE ( 'NONE', *, *, #210, .F. ) ;
#182 = DIMENSIONAL_EXPONENTS ( 1.000000000000000000, 0.000000000000000000, 0.000000000000000000, 0.000000000000000000, 0.000000000000000000, 0.000000000000000000, 0.000000000000000000 ) ;
#183 =( LENGTH_UNIT ( ) NAMED_UNIT ( * ) SI_UNIT ( $, .METRE. ) );
#184 = COLOUR_RGB ( '',0.7921568627450980005, 0.8196078431372548767, 0.9333333333333333481 ) ;
#185 = SURFACE_SIDE_STYLE ('',( #253 ) ) ;
#186 = STYLED_ITEM ( 'NONE', ( #21 ), #83 ) ;
#187 = PRODUCT_DEFINITION_SHAPE ( 'NONE', 'NONE',  #139 ) ;
#188 = DIMENSIONAL_EXPONENTS ( 1.000000000000000000, 0.000000000000000000, 0.000000000000000000, 0.000000000000000000, 0.000000000000000000, 0.000000000000000000, 0.000000000000000000 ) ;
#189 = APPLICATION_PROTOCOL_DEFINITION ( 'draft international standard', 'automotive_design', 1998, #141 ) ;
#190 = SURFACE_STYLE_USAGE ( .BOTH. , #20 ) ;
#191 = MECHANICAL_DESIGN_GEOMETRIC_PRESENTATION_REPRESENTATION (  '', ( #9 ), #223 ) ;
#192 = EDGE_CURVE ( 'NONE', #95, #86, #269, .T. ) ;
#193 = FILL_AREA_STYLE ('',( #307 ) ) ;
#194 =( CONVERSION_BASED_UNIT ( 'INCH', #22 ) LENGTH_UNIT ( ) NAMED_UNIT ( #118 ) );
#195 = UNCERTAINTY_MEASURE_WITH_UNIT (LENGTH_MEASURE( 1.000000000000000082E-05 ), #29, 'distance_accuracy_value', 'NONE');
#196 = COLOUR_RGB ( '',1.000000000000000000, 0.000000000000000000, 0.000000000000000000 ) ;
#197 =( LENGTH_UNIT ( ) NAMED_UNIT ( * ) SI_UNIT ( $, .METRE. ) );
#198 = CARTESIAN_POINT ( 'NONE',  ( 0.000000000000000000, 0.000000000000000000, -0.3750000000000000555 ) ) ;
#199 = EDGE_CURVE ( 'NONE', #86, #95, #128, .T. ) ;
#200 =( GEOMETRIC_REPRESENTATION_CONTEXT ( 3 ) GLOBAL_UNCERTAINTY_ASSIGNED_CONTEXT ( ( #148 ) ) GLOBAL_UNIT_ASSIGNED_CONTEXT ( ( #235, #71, #75 ) ) REPRESENTATION_CONTEXT ( 'NONE', 'WORKASPACE' ) );
#201 =( LENGTH_UNIT ( ) NAMED_UNIT ( * ) SI_UNIT ( $, .METRE. ) );
#202 = SURFACE_STYLE_USAGE ( .BOTH. , #203 ) ;
#203 = SURFACE_SIDE_STYLE ('',( #158 ) ) ;
#204 = ADVANCED_FACE ( 'NONE', ( #211 ), #161, .T. ) ;
#205 = ORIENTED_EDGE ( 'NONE', *, *, #283, .F. ) ;
#206 = CARTESIAN_POINT ( 'NONE',  ( 0.000000000000000000, 0.000000000000000000, 0.000000000000000000 ) ) ;
#207 = AXIS2_PLACEMENT_3D ( 'NONE', #42, #136, #116 ) ;
#208 = DIRECTION ( 'NONE',  ( -5.156407575357275299E-17, 1.000000000000000000, -0.000000000000000000 ) ) ;
#209 = DIRECTION ( 'NONE',  ( -5.156407575357275299E-17, 1.000000000000000000, -0.000000000000000000 ) ) ;
#210 = EDGE_CURVE ( 'NONE', #292, #95, #179, .T. ) ;
#211 = FACE_OUTER_BOUND ( 'NONE', #160, .T. ) ;
#212 = ORIENTED_EDGE ( 'NONE', *, *, #241, .T. ) ;
#213 = ORIENTED_EDGE ( 'NONE', *, *, #241, .F. ) ;
#214 = AXIS2_PLACEMENT_3D ( 'NONE', #96, #146, #303 ) ;
#215 = LENGTH_MEASURE_WITH_UNIT ( LENGTH_MEASURE( 0.02539999999999999897 ), #19 );
#216 = DIRECTION ( 'NONE',  ( -5.156407575357275916E-17, 1.000000000000000000, -0.000000000000000000 ) ) ;
#217 = DIRECTION ( 'NONE',  ( -1.000000000000000000, 0.000000000000000000, 0.000000000000000000 ) ) ;
#218 = MECHANICAL_DESIGN_GEOMETRIC_PRESENTATION_REPRESENTATION (  '', ( #186 ), #149 ) ;
#219 = CYLINDRICAL_SURFACE ( 'NONE', #55, 0.3750000000000000555 ) ;
#220 = AXIS2_PLACEMENT_3D ( 'NONE', #97, #239, #142 ) ;
#221 = AXIS2_PLACEMENT_3D ( 'NONE', #206, #275, #233 ) ;
#222 = PRESENTATION_STYLE_ASSIGNMENT (( #155 ) ) ;
#223 =( GEOMETRIC_REPRESENTATION_CONTEXT ( 3 ) GLOBAL_UNCERTAINTY_ASSIGNED_CONTEXT ( ( #195 ) ) GLOBAL_UNIT_ASSIGNED_CONTEXT ( ( #29, #229, #231 ) ) REPRESENTATION_CONTEXT ( 'NONE', 'WORKASPACE' ) );
#224 =( NAMED_UNIT ( * ) PLANE_ANGLE_UNIT ( ) SI_UNIT ( $, .RADIAN. ) );
#225 =( CONVERSION_BASED_UNIT ( 'INCH', #252 ) LENGTH_UNIT ( ) NAMED_UNIT ( #182 ) );
#226 = ORIENTED_EDGE ( 'NONE', *, *, #288, .T. ) ;
#227 = CARTESIAN_POINT ( 'NONE',  ( 0.3750000000000000555, 4.000000000000000000, 4.592425496802576684E-17 ) ) ;
#228 = DIRECTION ( 'NONE',  ( -5.156407575357275916E-17, 1.000000000000000000, 0.000000000000000000 ) ) ;
#229 =( NAMED_UNIT ( * ) PLANE_ANGLE_UNIT ( ) SI_UNIT ( $, .RADIAN. ) );
#230 = APPLICATION_CONTEXT ( 'automotive_design' ) ;
#231 =( NAMED_UNIT ( * ) SI_UNIT ( $, .STERADIAN. ) SOLID_ANGLE_UNIT ( ) );
#232 = ORIENTED_EDGE ( 'NONE', *, *, #293, .T. ) ;
#233 = DIRECTION ( 'NONE',  ( 0.000000000000000000, 0.000000000000000000, -1.000000000000000000 ) ) ;
#234 = ORIENTED_EDGE ( 'NONE', *, *, #199, .T. ) ;
#235 =( CONVERSION_BASED_UNIT ( 'INCH', #140 ) LENGTH_UNIT ( ) NAMED_UNIT ( #101 ) );
#236 = CARTESIAN_POINT ( 'NONE',  ( 3.032960542342103792E-32, 1.625000000000000000, 0.000000000000000000 ) ) ;
#237 = SURFACE_STYLE_FILL_AREA ( #302 ) ;
#238 = LINE ( 'NONE', #144, #273 ) ;
#239 = DIRECTION ( 'NONE',  ( -0.000000000000000000, -1.000000000000000000, -0.000000000000000000 ) ) ;
#240 = AXIS2_PLACEMENT_3D ( 'NONE', #168, #120, #280 ) ;
#241 = EDGE_CURVE ( 'NONE', #249, #178, #18, .T. ) ;
#242 = CARTESIAN_POINT ( 'NONE',  ( 0.3749999999999999445, 4.000000000000000000, 4.592425496802576068E-17 ) ) ;
#243 = FILL_AREA_STYLE_COLOUR ( '', #46 ) ;
#244 =( GEOMETRIC_REPRESENTATION_CONTEXT ( 3 ) GLOBAL_UNCERTAINTY_ASSIGNED_CONTEXT ( ( #127 ) ) GLOBAL_UNIT_ASSIGNED_CONTEXT ( ( #225, #5, #289 ) ) REPRESENTATION_CONTEXT ( 'NONE', 'WORKASPACE' ) );
#245 = FACE_OUTER_BOUND ( 'NONE', #162, .T. ) ;
#246 = SURFACE_SIDE_STYLE ('',( #4 ) ) ;
#247 = PRESENTATION_LAYER_ASSIGNMENT (  '', '', ( #9 ) ) ;
#248 = CARTESIAN_POINT ( 'NONE',  ( 4.592425496802575451E-17, 0.000000000000000000, 0.3750000000000000555 ) ) ;
#249 = VERTEX_POINT ( 'NONE', #227 ) ;
#250 = DIRECTION ( 'NONE',  ( -5.156407575357275299E-17, 1.000000000000000000, -0.000000000000000000 ) ) ;
#251 = DIRECTION ( 'NONE',  ( -0.000000000000000000, -1.000000000000000000, -0.000000000000000000 ) ) ;
#252 = LENGTH_MEASURE_WITH_UNIT ( LENGTH_MEASURE( 0.02539999999999999897 ), #183 );
#253 = SURFACE_STYLE_FILL_AREA ( #274 ) ;
#254 = ORIENTED_EDGE ( 'NONE', *, *, #56, .T. ) ;
#255 = DIRECTION ( 'NONE',  ( -1.000000000000000000, 0.000000000000000000, 0.000000000000000000 ) ) ;
#256 = ORIENTED_EDGE ( 'NONE', *, *, #33, .T. ) ;
#257 = UNCERTAINTY_MEASURE_WITH_UNIT (LENGTH_MEASURE( 1.000000000000000082E-05 ), #194, 'distance_accuracy_value', 'NONE');
#258 = PRESENTATION_LAYER_ASSIGNMENT (  '', '', ( #87 ) ) ;
#259 = APPLICATION_PROTOCOL_DEFINITION ( 'draft international standard', 'automotive_design', 1998, #230 ) ;
#260 = DIMENSIONAL_EXPONENTS ( 1.000000000000000000, 0.000000000000000000, 0.000000000000000000, 0.000000000000000000, 0.000000000000000000, 0.000000000000000000, 0.000000000000000000 ) ;
#261 = FACE_OUTER_BOUND ( 'NONE', #163, .T. ) ;
#262 = ADVANCED_BREP_SHAPE_REPRESENTATION ( '84312', ( #286, #83, #214 ), #200 ) ;
#263 = LENGTH_MEASURE_WITH_UNIT ( LENGTH_MEASURE( 0.02539999999999999897 ), #150 );
#264 = AXIS2_PLACEMENT_3D ( 'NONE', #7, #295, #111 ) ;
#265 = SURFACE_SIDE_STYLE ('',( #308 ) ) ;
#266 = PRESENTATION_STYLE_ASSIGNMENT (( #151 ) ) ;
#267 = CARTESIAN_POINT ( 'NONE',  ( 0.000000000000000000, 0.000000000000000000, 0.000000000000000000 ) ) ;
#268 = AXIS2_PLACEMENT_3D ( 'NONE', #107, #122, #54 ) ;
#269 = CIRCLE ( 'NONE', #221, 0.3750000000000000555 ) ;
#270 = DIRECTION ( 'NONE',  ( 0.000000000000000000, 0.000000000000000000, -1.000000000000000000 ) ) ;
#271 = PLANE ( 'NONE',  #79 ) ;
#272 = AXIS2_PLACEMENT_3D ( 'NONE', #67, #251, #6 ) ;
#273 = VECTOR ( 'NONE', #301, 39.37007874015748143 ) ;
#274 = FILL_AREA_STYLE ('',( #93 ) ) ;
#275 = DIRECTION ( 'NONE',  ( -0.000000000000000000, -1.000000000000000000, -0.000000000000000000 ) ) ;
#276 = ORIENTED_EDGE ( 'NONE', *, *, #125, .F. ) ;
#277 = STYLED_ITEM ( 'NONE', ( #72 ), #53 ) ;
#278 = SURFACE_STYLE_USAGE ( .BOTH. , #185 ) ;
#279 = PRODUCT ( '84312', '84312', '', ( #14 ) ) ;
#280 = DIRECTION ( 'NONE',  ( 0.000000000000000000, 0.000000000000000000, -1.000000000000000000 ) ) ;
#281 =( NAMED_UNIT ( * ) PLANE_ANGLE_UNIT ( ) SI_UNIT ( $, .RADIAN. ) );
#282 = VECTOR ( 'NONE', #80, 39.37007874015748143 ) ;
#283 = EDGE_CURVE ( 'NONE', #137, #292, #38, .T. ) ;
#284 = SHAPE_DEFINITION_REPRESENTATION ( #187, #262 ) ;
#285 = FILL_AREA_STYLE_COLOUR ( '', #184 ) ;
#286 = MANIFOLD_SOLID_BREP ( 'Revolve - Cutting Edge', #73 ) ;
#287 =( NAMED_UNIT ( * ) PLANE_ANGLE_UNIT ( ) SI_UNIT ( $, .RADIAN. ) );
#288 = EDGE_CURVE ( 'NONE', #129, #178, #134, .T. ) ;
#289 =( NAMED_UNIT ( * ) SI_UNIT ( $, .STERADIAN. ) SOLID_ANGLE_UNIT ( ) );
#290 = FACE_OUTER_BOUND ( 'NONE', #32, .T. ) ;
#291 = PRESENTATION_LAYER_ASSIGNMENT (  '', '', ( #186 ) ) ;
#292 = VERTEX_POINT ( 'NONE', #164 ) ;
#293 = EDGE_CURVE ( 'NONE', #137, #86, #238, .T. ) ;
#294 = ORIENTED_EDGE ( 'NONE', *, *, #98, .F. ) ;
#295 = DIRECTION ( 'NONE',  ( -0.000000000000000000, -1.000000000000000000, -0.000000000000000000 ) ) ;
#296 = EDGE_LOOP ( 'NONE', ( #234, #299 ) ) ;
#297 = STYLED_ITEM ( 'NONE', ( #133 ), #41 ) ;
#298 = PRESENTATION_LAYER_ASSIGNMENT (  '', '', ( #306 ) ) ;
#299 = ORIENTED_EDGE ( 'NONE', *, *, #192, .T. ) ;
#300 = SURFACE_STYLE_FILL_AREA ( #193 ) ;
#301 = DIRECTION ( 'NONE',  ( -0.000000000000000000, -1.000000000000000000, -0.000000000000000000 ) ) ;
#302 = FILL_AREA_STYLE ('',( #285 ) ) ;
#304 = DIMENSIONAL_EXPONENTS ( 1.000000000000000000, 0.000000000000000000, 0.000000000000000000, 0.000000000000000000, 0.000000000000000000, 0.000000000000000000, 0.000000000000000000 ) ;
#303 = DIRECTION ( 'NONE',  ( 1.000000000000000000, 0.000000000000000000, 0.000000000000000000 ) ) ;
#305 = AXIS2_PLACEMENT_3D ( 'NONE', #13, #209, #180 ) ;
#306 = STYLED_ITEM ( 'NONE', ( #64 ), #286 ) ;
#307 = FILL_AREA_STYLE_COLOUR ( '', #196 ) ;
#308 = SURFACE_STYLE_FILL_AREA ( #124 ) ;
#309 =( GEOMETRIC_REPRESENTATION_CONTEXT ( 3 ) GLOBAL_UNCERTAINTY_ASSIGNED_CONTEXT ( ( #2 ) ) GLOBAL_UNIT_ASSIGNED_CONTEXT ( ( #77, #169, #76 ) ) REPRESENTATION_CONTEXT ( 'NONE', 'WORKASPACE' ) );
ENDSEC;
END-ISO-10303-21;
