ISO-10303-21;
HEADER;
FILE_DESCRIPTION (( 'STEP AP214' ),
    '1' );
FILE_NAME ('Micro_AEMM-030-4.STEP',
    '2022-03-15T14:24:20',
    ( '' ),
    ( '' ),
    'SwSTEP 2.0',
    'SolidWorks 2022',
    '' );
FILE_SCHEMA (( 'AUTOMOTIVE_DESIGN' ));
ENDSEC;

DATA;
#1 = CIRCLE ( 'NONE', #283, 0.05899594500000000796 ) ;
#2 = CARTESIAN_POINT ( 'NONE',  ( -0.05899594499999998715, 0.000000000000000000, 7.224919520692328148E-18 ) ) ;
#3 = CYLINDRICAL_SURFACE ( 'NONE', #290, 0.05899594499999998715 ) ;
#4 = VECTOR ( 'NONE', #17, 39.37007874015747433 ) ;
#5 = APPLICATION_PROTOCOL_DEFINITION ( 'draft international standard', 'automotive_design', 1998, #118 ) ;
#6 = PRODUCT_CONTEXT ( 'NONE', #118, 'mechanical' ) ;
#7 = CARTESIAN_POINT ( 'NONE',  ( -0.1181099999999999234, 0.000000000000000000, 0.6502134654053797203 ) ) ;
#8 =( NAMED_UNIT ( * ) SI_UNIT ( $, .STERADIAN. ) SOLID_ANGLE_UNIT ( ) );
#9 = DIRECTION ( 'NONE',  ( 1.224646799147353207E-16, 0.000000000000000000, 1.000000000000000000 ) ) ;
#10 = CONICAL_SURFACE ( 'NONE', #270, 0.05899594499999998021, 0.1745329251994338915 ) ;
#11 =( LENGTH_UNIT ( ) NAMED_UNIT ( * ) SI_UNIT ( $, .METRE. ) );
#12 = CARTESIAN_POINT ( 'NONE',  ( 0.1031100000000002570, 1.262733314600838667E-17, 2.244094000000000033 ) ) ;
#13 = LINE ( 'NONE', #223, #4 ) ;
#14 = EDGE_CURVE ( 'NONE', #299, #23, #169, .T. ) ;
#15 = CARTESIAN_POINT ( 'NONE',  ( 0.000000000000000000, 0.000000000000000000, 2.244094000000000033 ) ) ;
#16 = LINE ( 'NONE', #19, #131 ) ;
#17 = DIRECTION ( 'NONE',  ( -0.1736481776669311916, 2.126576849575783316E-17, 0.9848077530122080203 ) ) ;
#18 = SURFACE_STYLE_FILL_AREA ( #246 ) ;
#19 = CARTESIAN_POINT ( 'NONE',  ( 0.1181100000000000066, 1.446430334472939084E-17, 2.244094000000000033 ) ) ;
#20 = LINE ( 'NONE', #161, #156 ) ;
#21 = ORIENTED_EDGE ( 'NONE', *, *, #103, .F. ) ;
#22 = EDGE_LOOP ( 'NONE', ( #90, #112 ) ) ;
#23 = VERTEX_POINT ( 'NONE', #28 ) ;
#24 = AXIS2_PLACEMENT_3D ( 'NONE', #109, #195, #170 ) ;
#25 = CIRCLE ( 'NONE', #233, 0.05899594499999998021 ) ;
#26 = EDGE_CURVE ( 'NONE', #93, #65, #234, .T. ) ;
#27 = CARTESIAN_POINT ( 'NONE',  ( 0.05899594500000002184, 0.000000000000000000, 0.3149609999999999910 ) ) ;
#28 = CARTESIAN_POINT ( 'NONE',  ( -0.1181100000000000066, 0.000000000000000000, 2.229093999999999465 ) ) ;
#29 = DIRECTION ( 'NONE',  ( 0.000000000000000000, 0.000000000000000000, 1.000000000000000000 ) ) ;
#30 = FILL_AREA_STYLE ('',( #217 ) ) ;
#31 = FACE_OUTER_BOUND ( 'NONE', #71, .T. ) ;
#32 = CARTESIAN_POINT ( 'NONE',  ( 3.857159805062494824E-17, 0.000000000000000000, 0.3149609999999999910 ) ) ;
#33 = AXIS2_PLACEMENT_3D ( 'NONE', #82, #154, #241 ) ;
#34 = SURFACE_STYLE_FILL_AREA ( #30 ) ;
#35 = DIRECTION ( 'NONE',  ( -1.224646799147353207E-16, -0.000000000000000000, -1.000000000000000000 ) ) ;
#36 = CARTESIAN_POINT ( 'NONE',  ( -0.05899594500000000796, 0.000000000000000000, 1.444983904138465938E-17 ) ) ;
#37 = CARTESIAN_POINT ( 'NONE',  ( 3.857159805062494824E-17, 0.000000000000000000, 0.3149609999999999910 ) ) ;
#38 = SURFACE_STYLE_USAGE ( .BOTH. , #244 ) ;
#39 = CARTESIAN_POINT ( 'NONE',  ( 3.857159805062494824E-17, 0.000000000000000000, 0.3149609999999999910 ) ) ;
#40 = EDGE_LOOP ( 'NONE', ( #113, #49 ) ) ;
#41 = EDGE_CURVE ( 'NONE', #68, #295, #209, .T. ) ;
#42 = FACE_OUTER_BOUND ( 'NONE', #168, .T. ) ;
#43 = CIRCLE ( 'NONE', #84, 0.05899594500000000796 ) ;
#44 = UNCERTAINTY_MEASURE_WITH_UNIT (LENGTH_MEASURE( 1.000000000000000082E-05 ), #266, 'distance_accuracy_value', 'NONE');
#45 = ORIENTED_EDGE ( 'NONE', *, *, #281, .F. ) ;
#46 = ORIENTED_EDGE ( 'NONE', *, *, #14, .T. ) ;
#47 = CONICAL_SURFACE ( 'NONE', #252, 0.05899594499999998021, 0.1745329251994338915 ) ;
#48 = ADVANCED_FACE ( 'NONE', ( #122 ), #3, .T. ) ;
#49 = ORIENTED_EDGE ( 'NONE', *, *, #194, .T. ) ;
#50 = COLOUR_RGB ( '',0.7921568627450980005, 0.8196078431372548767, 0.9333333333333333481 ) ;
#51 = CARTESIAN_POINT ( 'NONE',  ( -0.1031100000000002570, 0.000000000000000000, 2.244094000000000033 ) ) ;
#52 = DIRECTION ( 'NONE',  ( -0.7071067811865358044, 0.000000000000000000, -0.7071067811865590080 ) ) ;
#53 = APPLICATION_PROTOCOL_DEFINITION ( 'draft international standard', 'automotive_design', 1998, #91 ) ;
#54 = STYLED_ITEM ( 'NONE', ( #136 ), #142 ) ;
#55 =( NAMED_UNIT ( * ) SI_UNIT ( $, .STERADIAN. ) SOLID_ANGLE_UNIT ( ) );
#56 = PLANE ( 'NONE',  #263 ) ;
#57 = FACE_OUTER_BOUND ( 'NONE', #40, .T. ) ;
#58 = DIRECTION ( 'NONE',  ( -1.224646799147353207E-16, -0.000000000000000000, -1.000000000000000000 ) ) ;
#59 = DIRECTION ( 'NONE',  ( 0.000000000000000000, 0.000000000000000000, -1.000000000000000000 ) ) ;
#60 = AXIS2_PLACEMENT_3D ( 'NONE', #83, #150, #259 ) ;
#61 = DIRECTION ( 'NONE',  ( -1.000000000000000000, 0.000000000000000000, 0.000000000000000000 ) ) ;
#62 = DIRECTION ( 'NONE',  ( -1.000000000000000000, 0.000000000000000000, 1.224646799147353207E-16 ) ) ;
#63 = DIRECTION ( 'NONE',  ( -1.224646799147353207E-16, -0.000000000000000000, -1.000000000000000000 ) ) ;
#64 = UNCERTAINTY_MEASURE_WITH_UNIT (LENGTH_MEASURE( 1.000000000000000082E-05 ), #128, 'distance_accuracy_value', 'NONE');
#65 = VERTEX_POINT ( 'NONE', #292 ) ;
#66 = CONICAL_SURFACE ( 'NONE', #166, 0.1031100000000002570, 0.7853981633974318477 ) ;
#67 = ORIENTED_EDGE ( 'NONE', *, *, #98, .F. ) ;
#68 = VERTEX_POINT ( 'NONE', #242 ) ;
#69 = ORIENTED_EDGE ( 'NONE', *, *, #94, .T. ) ;
#70 = ADVANCED_FACE ( 'NONE', ( #222 ), #155, .T. ) ;
#71 = EDGE_LOOP ( 'NONE', ( #228, #267, #138, #89 ) ) ;
#72 = MECHANICAL_DESIGN_GEOMETRIC_PRESENTATION_REPRESENTATION (  '', ( #130 ), #207 ) ;
#73 = ORIENTED_EDGE ( 'NONE', *, *, #271, .T. ) ;
#74 = CARTESIAN_POINT ( 'NONE',  ( 0.000000000000000000, 0.000000000000000000, 0.000000000000000000 ) ) ;
#75 = DIRECTION ( 'NONE',  ( 1.000000000000000000, 0.000000000000000000, -0.000000000000000000 ) ) ;
#76 = DIRECTION ( 'NONE',  ( -1.000000000000000000, 0.000000000000000000, 0.000000000000000000 ) ) ;
#77 = PRESENTATION_LAYER_ASSIGNMENT (  '', '', ( #54 ) ) ;
#78 = EDGE_CURVE ( 'NONE', #93, #68, #25, .T. ) ;
#79 = DIRECTION ( 'NONE',  ( -0.000000000000000000, -0.000000000000000000, -1.000000000000000000 ) ) ;
#80 = UNCERTAINTY_MEASURE_WITH_UNIT (LENGTH_MEASURE( 1.000000000000000082E-05 ), #238, 'distance_accuracy_value', 'NONE');
#81 = CARTESIAN_POINT ( 'NONE',  ( 3.857159805062494824E-17, 0.000000000000000000, 0.3149609999999999910 ) ) ;
#82 = CARTESIAN_POINT ( 'NONE',  ( 0.000000000000000000, 0.000000000000000000, 2.229093999999999465 ) ) ;
#83 = CARTESIAN_POINT ( 'NONE',  ( 0.000000000000000000, 0.000000000000000000, 2.244094000000000033 ) ) ;
#84 = AXIS2_PLACEMENT_3D ( 'NONE', #240, #35, #111 ) ;
#85 = DIRECTION ( 'NONE',  ( 0.000000000000000000, 0.000000000000000000, -1.000000000000000000 ) ) ;
#86 = CARTESIAN_POINT ( 'NONE',  ( 0.05899594500000002184, 0.000000000000000000, 0.3149609999999999910 ) ) ;
#87 = EDGE_LOOP ( 'NONE', ( #278, #204, #187, #275 ) ) ;
#88 = PRODUCT_DEFINITION_CONTEXT ( 'detailed design', #91, 'design' ) ;
#89 = ORIENTED_EDGE ( 'NONE', *, *, #14, .F. ) ;
#90 = ORIENTED_EDGE ( 'NONE', *, *, #176, .T. ) ;
#91 = APPLICATION_CONTEXT ( 'automotive_design' ) ;
#92 =( GEOMETRIC_REPRESENTATION_CONTEXT ( 3 ) GLOBAL_UNCERTAINTY_ASSIGNED_CONTEXT ( ( #64 ) ) GLOBAL_UNIT_ASSIGNED_CONTEXT ( ( #128, #210, #55 ) ) REPRESENTATION_CONTEXT ( 'NONE', 'WORKASPACE' ) );
#93 = VERTEX_POINT ( 'NONE', #86 ) ;
#94 = EDGE_CURVE ( 'NONE', #296, #65, #16, .T. ) ;
#95 = EDGE_CURVE ( 'NONE', #299, #189, #106, .T. ) ;
#96 = DIRECTION ( 'NONE',  ( -1.224646799147353207E-16, -0.000000000000000000, -1.000000000000000000 ) ) ;
#97 = AXIS2_PLACEMENT_3D ( 'NONE', #219, #100, #191 ) ;
#98 = EDGE_CURVE ( 'NONE', #68, #93, #298, .T. ) ;
#99 = ORIENTED_EDGE ( 'NONE', *, *, #148, .T. ) ;
#100 = DIRECTION ( 'NONE',  ( 0.000000000000000000, 0.000000000000000000, 1.000000000000000000 ) ) ;
#101 =( LENGTH_UNIT ( ) NAMED_UNIT ( * ) SI_UNIT ( $, .METRE. ) );
#102 = DIRECTION ( 'NONE',  ( 0.000000000000000000, 0.000000000000000000, 1.000000000000000000 ) ) ;
#103 = EDGE_CURVE ( 'NONE', #208, #295, #1, .T. ) ;
#104 = FACE_OUTER_BOUND ( 'NONE', #22, .T. ) ;
#105 = MECHANICAL_DESIGN_GEOMETRIC_PRESENTATION_REPRESENTATION (  '', ( #54 ), #211 ) ;
#106 = CIRCLE ( 'NONE', #272, 0.1031100000000002570 ) ;
#107 = LINE ( 'NONE', #12, #185 ) ;
#108 =( NAMED_UNIT ( * ) PLANE_ANGLE_UNIT ( ) SI_UNIT ( $, .RADIAN. ) );
#109 = CARTESIAN_POINT ( 'NONE',  ( 7.962818391712065690E-17, 0.000000000000000000, 0.6502134654053797203 ) ) ;
#110 = DIMENSIONAL_EXPONENTS ( 1.000000000000000000, 0.000000000000000000, 0.000000000000000000, 0.000000000000000000, 0.000000000000000000, 0.000000000000000000, 0.000000000000000000 ) ;
#111 = DIRECTION ( 'NONE',  ( -1.000000000000000000, 0.000000000000000000, 1.224646799147352961E-16 ) ) ;
#112 = ORIENTED_EDGE ( 'NONE', *, *, #103, .T. ) ;
#113 = ORIENTED_EDGE ( 'NONE', *, *, #95, .T. ) ;
#114 = COLOUR_RGB ( '',0.7921568627450980005, 0.8196078431372548767, 0.9333333333333333481 ) ;
#115 = ORIENTED_EDGE ( 'NONE', *, *, #218, .F. ) ;
#116 = AXIS2_PLACEMENT_3D ( 'NONE', #151, #79, #172 ) ;
#117 = AXIS2_PLACEMENT_3D ( 'NONE', #135, #85, #265 ) ;
#118 = APPLICATION_CONTEXT ( 'automotive_design' ) ;
#119 = DIRECTION ( 'NONE',  ( 0.1736481776669313859, 0.000000000000000000, 0.9848077530122077983 ) ) ;
#120 = EDGE_CURVE ( 'NONE', #23, #254, #20, .T. ) ;
#121 = PRODUCT_DEFINITION_SHAPE ( 'NONE', 'NONE',  #125 ) ;
#122 = FACE_OUTER_BOUND ( 'NONE', #141, .T. ) ;
#123 = VECTOR ( 'NONE', #119, 39.37007874015748143 ) ;
#124 = DIRECTION ( 'NONE',  ( 1.000000000000000000, 0.000000000000000000, 0.000000000000000000 ) ) ;
#125 = PRODUCT_DEFINITION ( 'UNKNOWN', '', #291, #88 ) ;
#126 = SURFACE_STYLE_USAGE ( .BOTH. , #236 ) ;
#127 = CYLINDRICAL_SURFACE ( 'NONE', #116, 0.1181100000000000066 ) ;
#128 =( CONVERSION_BASED_UNIT ( 'INCH', #152 ) LENGTH_UNIT ( ) NAMED_UNIT ( #178 ) );
#129 = CYLINDRICAL_SURFACE ( 'NONE', #60, 0.1181100000000000066 ) ;
#130 = STYLED_ITEM ( 'NONE', ( #215 ), #133 ) ;
#131 = VECTOR ( 'NONE', #180, 39.37007874015748143 ) ;
#132 = CARTESIAN_POINT ( 'NONE',  ( 0.1181100000000000066, 1.446430334472939084E-17, 2.229093999999999465 ) ) ;
#133 = ADVANCED_BREP_SHAPE_REPRESENTATION ( 'Micro_AEMM-030-4', ( #142, #145 ), #92 ) ;
#134 = DIMENSIONAL_EXPONENTS ( 1.000000000000000000, 0.000000000000000000, 0.000000000000000000, 0.000000000000000000, 0.000000000000000000, 0.000000000000000000, 0.000000000000000000 ) ;
#135 = CARTESIAN_POINT ( 'NONE',  ( 0.000000000000000000, 0.000000000000000000, 2.244094000000000033 ) ) ;
#136 = PRESENTATION_STYLE_ASSIGNMENT (( #38 ) ) ;
#137 = CARTESIAN_POINT ( 'NONE',  ( 0.000000000000000000, 0.000000000000000000, 0.000000000000000000 ) ) ;
#138 = ORIENTED_EDGE ( 'NONE', *, *, #294, .F. ) ;
#139 = CIRCLE ( 'NONE', #231, 0.1181100000000000066 ) ;
#140 = ADVANCED_FACE ( 'NONE', ( #42 ), #197, .T. ) ;
#141 = EDGE_LOOP ( 'NONE', ( #230, #274, #143, #21 ) ) ;
#142 = MANIFOLD_SOLID_BREP ( 'Cut-Revolve1', #253 ) ;
#143 = ORIENTED_EDGE ( 'NONE', *, *, #41, .T. ) ;
#144 = ORIENTED_EDGE ( 'NONE', *, *, #98, .T. ) ;
#145 = AXIS2_PLACEMENT_3D ( 'NONE', #74, #102, #256 ) ;
#146 = AXIS2_PLACEMENT_3D ( 'NONE', #39, #262, #61 ) ;
#147 = EDGE_LOOP ( 'NONE', ( #184, #69, #251, #206 ) ) ;
#148 = EDGE_CURVE ( 'NONE', #68, #254, #13, .T. ) ;
#149 = DIRECTION ( 'NONE',  ( -1.224646799147353207E-16, -0.000000000000000000, -1.000000000000000000 ) ) ;
#150 = DIRECTION ( 'NONE',  ( -0.000000000000000000, -0.000000000000000000, -1.000000000000000000 ) ) ;
#151 = CARTESIAN_POINT ( 'NONE',  ( 0.000000000000000000, 0.000000000000000000, 2.244094000000000033 ) ) ;
#152 = LENGTH_MEASURE_WITH_UNIT ( LENGTH_MEASURE( 0.02539999999999999897 ), #101 );
#153 = DIRECTION ( 'NONE',  ( 1.000000000000000000, 0.000000000000000000, 0.000000000000000000 ) ) ;
#154 = DIRECTION ( 'NONE',  ( 0.000000000000000000, 0.000000000000000000, -1.000000000000000000 ) ) ;
#155 = CONICAL_SURFACE ( 'NONE', #117, 0.1031100000000002570, 0.7853981633974318477 ) ;
#156 = VECTOR ( 'NONE', #203, 39.37007874015748143 ) ;
#157 = ADVANCED_FACE ( 'NONE', ( #285 ), #47, .T. ) ;
#158 = CARTESIAN_POINT ( 'NONE',  ( 8.847974565113091896E-34, 0.000000000000000000, 7.224919520692329689E-18 ) ) ;
#159 = FILL_AREA_STYLE_COLOUR ( '', #50 ) ;
#160 = DIRECTION ( 'NONE',  ( -1.000000000000000000, 0.000000000000000000, 0.000000000000000000 ) ) ;
#161 = CARTESIAN_POINT ( 'NONE',  ( -0.1181100000000000066, 0.000000000000000000, 2.244094000000000033 ) ) ;
#162 = EDGE_CURVE ( 'NONE', #93, #208, #260, .T. ) ;
#163 = AXIS2_PLACEMENT_3D ( 'NONE', #258, #196, #261 ) ;
#164 = ORIENTED_EDGE ( 'NONE', *, *, #26, .T. ) ;
#165 = EDGE_LOOP ( 'NONE', ( #67, #99, #181, #250 ) ) ;
#166 = AXIS2_PLACEMENT_3D ( 'NONE', #175, #59, #76 ) ;
#167 = AXIS2_PLACEMENT_3D ( 'NONE', #264, #201, #62 ) ;
#168 = EDGE_LOOP ( 'NONE', ( #144, #247, #248, #273 ) ) ;
#169 = LINE ( 'NONE', #51, #297 ) ;
#170 = DIRECTION ( 'NONE',  ( 1.000000000000000000, 0.000000000000000000, 0.000000000000000000 ) ) ;
#171 = CARTESIAN_POINT ( 'NONE',  ( 0.1031100000000002570, 1.354581824536888722E-17, 2.244094000000000033 ) ) ;
#172 = DIRECTION ( 'NONE',  ( -1.000000000000000000, 0.000000000000000000, 0.000000000000000000 ) ) ;
#173 = SHAPE_DEFINITION_REPRESENTATION ( #121, #133 ) ;
#174 = DIRECTION ( 'NONE',  ( 1.224646799147353207E-16, 0.000000000000000000, 1.000000000000000000 ) ) ;
#175 = CARTESIAN_POINT ( 'NONE',  ( 0.000000000000000000, 0.000000000000000000, 2.244094000000000033 ) ) ;
#176 = EDGE_CURVE ( 'NONE', #295, #208, #43, .T. ) ;
#177 = DIRECTION ( 'NONE',  ( 0.000000000000000000, 0.000000000000000000, 1.000000000000000000 ) ) ;
#178 = DIMENSIONAL_EXPONENTS ( 1.000000000000000000, 0.000000000000000000, 0.000000000000000000, 0.000000000000000000, 0.000000000000000000, 0.000000000000000000, 0.000000000000000000 ) ;
#179 = LENGTH_MEASURE_WITH_UNIT ( LENGTH_MEASURE( 0.02539999999999999897 ), #227 );
#180 = DIRECTION ( 'NONE',  ( -0.000000000000000000, -0.000000000000000000, -1.000000000000000000 ) ) ;
#181 = ORIENTED_EDGE ( 'NONE', *, *, #200, .T. ) ;
#182 = ADVANCED_FACE ( 'NONE', ( #31 ), #66, .T. ) ;
#183 = EDGE_LOOP ( 'NONE', ( #45, #190, #46, #115 ) ) ;
#184 = ORIENTED_EDGE ( 'NONE', *, *, #294, .T. ) ;
#185 = VECTOR ( 'NONE', #284, 39.37007874015748854 ) ;
#186 = EDGE_LOOP ( 'NONE', ( #268, #293, #164, #73 ) ) ;
#187 = ORIENTED_EDGE ( 'NONE', *, *, #120, .T. ) ;
#188 = ADVANCED_FACE ( 'NONE', ( #237 ), #127, .T. ) ;
#189 = VERTEX_POINT ( 'NONE', #171 ) ;
#190 = ORIENTED_EDGE ( 'NONE', *, *, #95, .F. ) ;
#191 = DIRECTION ( 'NONE',  ( 1.000000000000000000, 0.000000000000000000, -0.000000000000000000 ) ) ;
#192 = CIRCLE ( 'NONE', #33, 0.1181100000000000066 ) ;
#193 = CARTESIAN_POINT ( 'NONE',  ( 7.962818391712065690E-17, 0.000000000000000000, 0.6502134654053797203 ) ) ;
#194 = EDGE_CURVE ( 'NONE', #189, #299, #226, .T. ) ;
#195 = DIRECTION ( 'NONE',  ( -1.224646799147353207E-16, -0.000000000000000000, -1.000000000000000000 ) ) ;
#196 = DIRECTION ( 'NONE',  ( 0.000000000000000000, 0.000000000000000000, -1.000000000000000000 ) ) ;
#197 = CYLINDRICAL_SURFACE ( 'NONE', #167, 0.05899594499999998715 ) ;
#198 = DIRECTION ( 'NONE',  ( -1.224646799147353207E-16, -0.000000000000000000, -1.000000000000000000 ) ) ;
#199 = VECTOR ( 'NONE', #58, 39.37007874015748143 ) ;
#200 = EDGE_CURVE ( 'NONE', #254, #65, #232, .T. ) ;
#201 = DIRECTION ( 'NONE',  ( -1.224646799147353207E-16, -0.000000000000000000, -1.000000000000000000 ) ) ;
#202 = DIRECTION ( 'NONE',  ( -1.000000000000000000, 0.000000000000000000, 1.224646799147353207E-16 ) ) ;
#203 = DIRECTION ( 'NONE',  ( -0.000000000000000000, -0.000000000000000000, -1.000000000000000000 ) ) ;
#204 = ORIENTED_EDGE ( 'NONE', *, *, #218, .T. ) ;
#205 = PRESENTATION_LAYER_ASSIGNMENT (  '', '', ( #130 ) ) ;
#206 = ORIENTED_EDGE ( 'NONE', *, *, #120, .F. ) ;
#207 =( GEOMETRIC_REPRESENTATION_CONTEXT ( 3 ) GLOBAL_UNCERTAINTY_ASSIGNED_CONTEXT ( ( #80 ) ) GLOBAL_UNIT_ASSIGNED_CONTEXT ( ( #238, #213, #8 ) ) REPRESENTATION_CONTEXT ( 'NONE', 'WORKASPACE' ) );
#208 = VERTEX_POINT ( 'NONE', #216 ) ;
#209 = LINE ( 'NONE', #2, #269 ) ;
#210 =( NAMED_UNIT ( * ) PLANE_ANGLE_UNIT ( ) SI_UNIT ( $, .RADIAN. ) );
#211 =( GEOMETRIC_REPRESENTATION_CONTEXT ( 3 ) GLOBAL_UNCERTAINTY_ASSIGNED_CONTEXT ( ( #44 ) ) GLOBAL_UNIT_ASSIGNED_CONTEXT ( ( #266, #108, #243 ) ) REPRESENTATION_CONTEXT ( 'NONE', 'WORKASPACE' ) );
#212 = PRODUCT ( 'Micro_AEMM-030-4', 'Micro_AEMM-030-4', '', ( #6 ) ) ;
#213 =( NAMED_UNIT ( * ) PLANE_ANGLE_UNIT ( ) SI_UNIT ( $, .RADIAN. ) );
#214 = FACE_OUTER_BOUND ( 'NONE', #186, .T. ) ;
#215 = PRESENTATION_STYLE_ASSIGNMENT (( #126 ) ) ;
#216 = CARTESIAN_POINT ( 'NONE',  ( 0.05899594500000001490, 7.224919520692329689E-18, -1.895600338963814870E-33 ) ) ;
#217 = FILL_AREA_STYLE_COLOUR ( '', #114 ) ;
#218 = EDGE_CURVE ( 'NONE', #296, #23, #276, .T. ) ;
#219 = CARTESIAN_POINT ( 'NONE',  ( 0.000000000000000000, 0.000000000000000000, 0.000000000000000000 ) ) ;
#220 = CARTESIAN_POINT ( 'NONE',  ( 0.05899594499999998715, 7.224919520692328148E-18, -7.224919520692328148E-18 ) ) ;
#221 = DIRECTION ( 'NONE',  ( 0.000000000000000000, 0.000000000000000000, 1.000000000000000000 ) ) ;
#222 = FACE_OUTER_BOUND ( 'NONE', #183, .T. ) ;
#223 = CARTESIAN_POINT ( 'NONE',  ( -0.05899594499999993857, 7.224919520692326607E-18, 0.3149609999999999910 ) ) ;
#224 = DIRECTION ( 'NONE',  ( -1.000000000000000000, 0.000000000000000000, 1.224646799147352961E-16 ) ) ;
#225 = CARTESIAN_POINT ( 'NONE',  ( 0.000000000000000000, 0.000000000000000000, 2.244094000000000033 ) ) ;
#226 = CIRCLE ( 'NONE', #249, 0.1031100000000002570 ) ;
#227 =( LENGTH_UNIT ( ) NAMED_UNIT ( * ) SI_UNIT ( $, .METRE. ) );
#228 = ORIENTED_EDGE ( 'NONE', *, *, #194, .F. ) ;
#229 = ADVANCED_FACE ( 'NONE', ( #214 ), #10, .T. ) ;
#230 = ORIENTED_EDGE ( 'NONE', *, *, #162, .F. ) ;
#231 = AXIS2_PLACEMENT_3D ( 'NONE', #193, #149, #124 ) ;
#232 = CIRCLE ( 'NONE', #24, 0.1181100000000000066 ) ;
#233 = AXIS2_PLACEMENT_3D ( 'NONE', #37, #63, #160 ) ;
#234 = LINE ( 'NONE', #27, #123 ) ;
#235 = ADVANCED_FACE ( 'NONE', ( #239 ), #129, .T. ) ;
#236 = SURFACE_SIDE_STYLE ('',( #34 ) ) ;
#237 = FACE_OUTER_BOUND ( 'NONE', #147, .T. ) ;
#238 =( CONVERSION_BASED_UNIT ( 'INCH', #279 ) LENGTH_UNIT ( ) NAMED_UNIT ( #134 ) );
#239 = FACE_OUTER_BOUND ( 'NONE', #87, .T. ) ;
#240 = CARTESIAN_POINT ( 'NONE',  ( 8.847974565113091896E-34, 0.000000000000000000, 7.224919520692329689E-18 ) ) ;
#241 = DIRECTION ( 'NONE',  ( 1.000000000000000000, 0.000000000000000000, 0.000000000000000000 ) ) ;
#242 = CARTESIAN_POINT ( 'NONE',  ( -0.05899594499999993857, 1.084461143271085796E-17, 0.3149609999999999910 ) ) ;
#243 =( NAMED_UNIT ( * ) SI_UNIT ( $, .STERADIAN. ) SOLID_ANGLE_UNIT ( ) );
#244 = SURFACE_SIDE_STYLE ('',( #18 ) ) ;
#245 = DIRECTION ( 'NONE',  ( 1.000000000000000000, 0.000000000000000000, 0.000000000000000000 ) ) ;
#246 = FILL_AREA_STYLE ('',( #159 ) ) ;
#247 = ORIENTED_EDGE ( 'NONE', *, *, #162, .T. ) ;
#248 = ORIENTED_EDGE ( 'NONE', *, *, #176, .F. ) ;
#249 = AXIS2_PLACEMENT_3D ( 'NONE', #15, #29, #286 ) ;
#250 = ORIENTED_EDGE ( 'NONE', *, *, #26, .F. ) ;
#251 = ORIENTED_EDGE ( 'NONE', *, *, #200, .F. ) ;
#252 = AXIS2_PLACEMENT_3D ( 'NONE', #81, #174, #153 ) ;
#253 = CLOSED_SHELL ( 'NONE', ( #140, #157, #182, #188, #235, #288, #70, #229, #48, #255 ) ) ;
#254 = VERTEX_POINT ( 'NONE', #7 ) ;
#255 = ADVANCED_FACE ( 'NONE', ( #104 ), #282, .F. ) ;
#256 = DIRECTION ( 'NONE',  ( 1.000000000000000000, 0.000000000000000000, 0.000000000000000000 ) ) ;
#257 = CARTESIAN_POINT ( 'NONE',  ( -0.1031100000000002570, 0.000000000000000000, 2.244094000000000033 ) ) ;
#258 = CARTESIAN_POINT ( 'NONE',  ( 0.000000000000000000, 0.000000000000000000, 2.229093999999999465 ) ) ;
#259 = DIRECTION ( 'NONE',  ( -1.000000000000000000, 0.000000000000000000, 0.000000000000000000 ) ) ;
#260 = LINE ( 'NONE', #220, #199 ) ;
#261 = DIRECTION ( 'NONE',  ( 1.000000000000000000, 0.000000000000000000, 0.000000000000000000 ) ) ;
#262 = DIRECTION ( 'NONE',  ( -1.224646799147353207E-16, -0.000000000000000000, -1.000000000000000000 ) ) ;
#263 = AXIS2_PLACEMENT_3D ( 'NONE', #280, #221, #75 ) ;
#264 = CARTESIAN_POINT ( 'NONE',  ( 0.000000000000000000, 0.000000000000000000, 0.000000000000000000 ) ) ;
#265 = DIRECTION ( 'NONE',  ( -1.000000000000000000, 0.000000000000000000, 0.000000000000000000 ) ) ;
#266 =( CONVERSION_BASED_UNIT ( 'INCH', #179 ) LENGTH_UNIT ( ) NAMED_UNIT ( #110 ) );
#267 = ORIENTED_EDGE ( 'NONE', *, *, #281, .T. ) ;
#268 = ORIENTED_EDGE ( 'NONE', *, *, #148, .F. ) ;
#269 = VECTOR ( 'NONE', #96, 39.37007874015748143 ) ;
#270 = AXIS2_PLACEMENT_3D ( 'NONE', #32, #9, #287 ) ;
#271 = EDGE_CURVE ( 'NONE', #65, #254, #139, .T. ) ;
#272 = AXIS2_PLACEMENT_3D ( 'NONE', #225, #177, #245 ) ;
#273 = ORIENTED_EDGE ( 'NONE', *, *, #41, .F. ) ;
#274 = ORIENTED_EDGE ( 'NONE', *, *, #78, .T. ) ;
#275 = ORIENTED_EDGE ( 'NONE', *, *, #271, .F. ) ;
#276 = CIRCLE ( 'NONE', #163, 0.1181100000000000066 ) ;
#277 = PRODUCT_RELATED_PRODUCT_CATEGORY ( 'part', '', ( #212 ) ) ;
#278 = ORIENTED_EDGE ( 'NONE', *, *, #94, .F. ) ;
#279 = LENGTH_MEASURE_WITH_UNIT ( LENGTH_MEASURE( 0.02539999999999999897 ), #11 );
#280 = CARTESIAN_POINT ( 'NONE',  ( 0.000000000000000000, 0.000000000000000000, 2.244094000000000033 ) ) ;
#281 = EDGE_CURVE ( 'NONE', #189, #296, #107, .T. ) ;
#282 = PLANE ( 'NONE',  #97 ) ;
#283 = AXIS2_PLACEMENT_3D ( 'NONE', #158, #198, #224 ) ;
#284 = DIRECTION ( 'NONE',  ( 0.7071067811865358044, 8.659560562354788645E-17, -0.7071067811865590080 ) ) ;
#285 = FACE_OUTER_BOUND ( 'NONE', #165, .T. ) ;
#286 = DIRECTION ( 'NONE',  ( 1.000000000000000000, 0.000000000000000000, 0.000000000000000000 ) ) ;
#287 = DIRECTION ( 'NONE',  ( 1.000000000000000000, 0.000000000000000000, 0.000000000000000000 ) ) ;
#288 = ADVANCED_FACE ( 'NONE', ( #57 ), #56, .T. ) ;
#289 = DIRECTION ( 'NONE',  ( -1.224646799147353207E-16, -0.000000000000000000, -1.000000000000000000 ) ) ;
#290 = AXIS2_PLACEMENT_3D ( 'NONE', #137, #289, #202 ) ;
#291 = PRODUCT_DEFINITION_FORMATION_WITH_SPECIFIED_SOURCE ( 'ANY', '', #212, .NOT_KNOWN. ) ;
#292 = CARTESIAN_POINT ( 'NONE',  ( 0.1181100000000000899, 1.446430334472940009E-17, 0.6502134654053797203 ) ) ;
#293 = ORIENTED_EDGE ( 'NONE', *, *, #78, .F. ) ;
#294 = EDGE_CURVE ( 'NONE', #23, #296, #192, .T. ) ;
#295 = VERTEX_POINT ( 'NONE', #36 ) ;
#296 = VERTEX_POINT ( 'NONE', #132 ) ;
#297 = VECTOR ( 'NONE', #52, 39.37007874015748854 ) ;
#298 = CIRCLE ( 'NONE', #146, 0.05899594499999998021 ) ;
#299 = VERTEX_POINT ( 'NONE', #257 ) ;
ENDSEC;
END-ISO-10303-21;
