ISO-10303-21;
HEADER;
FILE_DESCRIPTION (( 'STEP AP214' ),
    '1' );
FILE_NAME ('Micro_AEMM-015-4X.STEP',
    '2022-03-15T14:22:58',
    ( '' ),
    ( '' ),
    'SwSTEP 2.0',
    'SolidWorks 2022',
    '' );
FILE_SCHEMA (( 'AUTOMOTIVE_DESIGN' ));
ENDSEC;

DATA;
#1 = DIRECTION ( 'NONE',  ( -1.224646799147353207E-16, -0.000000000000000000, -1.000000000000000000 ) ) ;
#2 = FILL_AREA_STYLE ('',( #119 ) ) ;
#3 = DIRECTION ( 'NONE',  ( 0.7071067811865502373, 8.659560562354966138E-17, -0.7071067811865446862 ) ) ;
#4 = AXIS2_PLACEMENT_3D ( 'NONE', #36, #14, #200 ) ;
#5 = DIRECTION ( 'NONE',  ( -0.000000000000000000, -0.000000000000000000, -1.000000000000000000 ) ) ;
#6 = DIRECTION ( 'NONE',  ( -1.224646799147353207E-16, -0.000000000000000000, -1.000000000000000000 ) ) ;
#7 = VERTEX_POINT ( 'NONE', #248 ) ;
#8 = CIRCLE ( 'NONE', #118, 0.06374000000000018540 ) ;
#9 = PRODUCT_DEFINITION ( 'UNKNOWN', '', #212, #34 ) ;
#10 = UNCERTAINTY_MEASURE_WITH_UNIT (LENGTH_MEASURE( 1.000000000000000082E-05 ), #127, 'distance_accuracy_value', 'NONE');
#11 = DIRECTION ( 'NONE',  ( 0.000000000000000000, 0.000000000000000000, 1.000000000000000000 ) ) ;
#12 =( CONVERSION_BASED_UNIT ( 'INCH', #241 ) LENGTH_UNIT ( ) NAMED_UNIT ( #15 ) );
#13 = AXIS2_PLACEMENT_3D ( 'NONE', #120, #1, #96 ) ;
#14 = DIRECTION ( 'NONE',  ( 0.000000000000000000, 0.000000000000000000, -1.000000000000000000 ) ) ;
#15 = DIMENSIONAL_EXPONENTS ( 1.000000000000000000, 0.000000000000000000, 0.000000000000000000, 0.000000000000000000, 0.000000000000000000, 0.000000000000000000, 0.000000000000000000 ) ;
#16 = ORIENTED_EDGE ( 'NONE', *, *, #288, .F. ) ;
#17 = ORIENTED_EDGE ( 'NONE', *, *, #183, .T. ) ;
#18 = ORIENTED_EDGE ( 'NONE', *, *, #151, .F. ) ;
#19 = VERTEX_POINT ( 'NONE', #85 ) ;
#20 = APPLICATION_PROTOCOL_DEFINITION ( 'draft international standard', 'automotive_design', 1998, #197 ) ;
#21 = DIRECTION ( 'NONE',  ( 1.000000000000000000, 0.000000000000000000, 0.000000000000000000 ) ) ;
#22 = ADVANCED_FACE ( 'NONE', ( #247 ), #176, .T. ) ;
#23 =( GEOMETRIC_REPRESENTATION_CONTEXT ( 3 ) GLOBAL_UNCERTAINTY_ASSIGNED_CONTEXT ( ( #129 ) ) GLOBAL_UNIT_ASSIGNED_CONTEXT ( ( #12, #172, #220 ) ) REPRESENTATION_CONTEXT ( 'NONE', 'WORKASPACE' ) );
#24 = CYLINDRICAL_SURFACE ( 'NONE', #13, 0.02949797249999999357 ) ;
#25 = CARTESIAN_POINT ( 'NONE',  ( 5.348588749162019150E-17, 0.000000000000000000, 0.4367454153218638391 ) ) ;
#26 = FACE_OUTER_BOUND ( 'NONE', #155, .T. ) ;
#27 = VECTOR ( 'NONE', #205, 39.37007874015748143 ) ;
#28 = EDGE_CURVE ( 'NONE', #217, #135, #273, .T. ) ;
#29 = CARTESIAN_POINT ( 'NONE',  ( 0.000000000000000000, 0.000000000000000000, 0.000000000000000000 ) ) ;
#30 = DIRECTION ( 'NONE',  ( 1.000000000000000000, 0.000000000000000000, 0.000000000000000000 ) ) ;
#31 = LENGTH_MEASURE_WITH_UNIT ( LENGTH_MEASURE( 0.02539999999999999897 ), #107 );
#32 = ORIENTED_EDGE ( 'NONE', *, *, #216, .T. ) ;
#33 = CARTESIAN_POINT ( 'NONE',  ( 0.000000000000000000, 0.000000000000000000, 1.968503999999999809 ) ) ;
#34 = PRODUCT_DEFINITION_CONTEXT ( 'detailed design', #197, 'design' ) ;
#35 = ADVANCED_FACE ( 'NONE', ( #137 ), #187, .T. ) ;
#36 = CARTESIAN_POINT ( 'NONE',  ( 0.000000000000000000, 0.000000000000000000, 1.953504000000000129 ) ) ;
#37 = STYLED_ITEM ( 'NONE', ( #266 ), #262 ) ;
#38 = ORIENTED_EDGE ( 'NONE', *, *, #284, .T. ) ;
#39 = CARTESIAN_POINT ( 'NONE',  ( 0.000000000000000000, 0.000000000000000000, 0.000000000000000000 ) ) ;
#40 = ADVANCED_FACE ( 'NONE', ( #88 ), #269, .T. ) ;
#41 = ORIENTED_EDGE ( 'NONE', *, *, #252, .F. ) ;
#42 = VECTOR ( 'NONE', #254, 39.37007874015748143 ) ;
#43 = ORIENTED_EDGE ( 'NONE', *, *, #148, .T. ) ;
#44 = DIRECTION ( 'NONE',  ( 1.000000000000000000, 0.000000000000000000, 0.000000000000000000 ) ) ;
#45 = SURFACE_STYLE_USAGE ( .BOTH. , #116 ) ;
#46 = DIRECTION ( 'NONE',  ( 0.000000000000000000, 0.000000000000000000, 1.000000000000000000 ) ) ;
#47 = AXIS2_PLACEMENT_3D ( 'NONE', #159, #162, #73 ) ;
#48 = PRESENTATION_LAYER_ASSIGNMENT (  '', '', ( #100 ) ) ;
#49 = CARTESIAN_POINT ( 'NONE',  ( 0.02949797249999999357, 3.612459760346164074E-18, -3.612459760346164074E-18 ) ) ;
#50 = DIRECTION ( 'NONE',  ( -1.000000000000000000, 0.000000000000000000, 0.000000000000000000 ) ) ;
#51 = ADVANCED_FACE ( 'NONE', ( #114 ), #272, .T. ) ;
#52 = CARTESIAN_POINT ( 'NONE',  ( 0.06374000000000018540, 7.805898697765251255E-18, 1.968503999999999809 ) ) ;
#53 = CIRCLE ( 'NONE', #47, 0.06374000000000018540 ) ;
#54 =( GEOMETRIC_REPRESENTATION_CONTEXT ( 3 ) GLOBAL_UNCERTAINTY_ASSIGNED_CONTEXT ( ( #10 ) ) GLOBAL_UNIT_ASSIGNED_CONTEXT ( ( #127, #105, #264 ) ) REPRESENTATION_CONTEXT ( 'NONE', 'WORKASPACE' ) );
#55 = DIRECTION ( 'NONE',  ( 1.000000000000000000, 0.000000000000000000, -0.000000000000000000 ) ) ;
#56 = ORIENTED_EDGE ( 'NONE', *, *, #62, .T. ) ;
#57 = AXIS2_PLACEMENT_3D ( 'NONE', #33, #242, #191 ) ;
#58 = CARTESIAN_POINT ( 'NONE',  ( 0.000000000000000000, 0.000000000000000000, 1.953504000000000129 ) ) ;
#59 = ORIENTED_EDGE ( 'NONE', *, *, #252, .T. ) ;
#60 = CARTESIAN_POINT ( 'NONE',  ( 0.000000000000000000, 0.000000000000000000, 1.968503999999999809 ) ) ;
#61 = MECHANICAL_DESIGN_GEOMETRIC_PRESENTATION_REPRESENTATION (  '', ( #37 ), #23 ) ;
#62 = EDGE_CURVE ( 'NONE', #7, #135, #201, .T. ) ;
#63 = VERTEX_POINT ( 'NONE', #65 ) ;
#64 = DIRECTION ( 'NONE',  ( 0.000000000000000000, 0.000000000000000000, -1.000000000000000000 ) ) ;
#65 = CARTESIAN_POINT ( 'NONE',  ( 0.06374000000000018540, 8.724383797125754882E-18, 1.968503999999999809 ) ) ;
#66 = AXIS2_PLACEMENT_3D ( 'NONE', #25, #67, #44 ) ;
#67 = DIRECTION ( 'NONE',  ( -1.224646799147353207E-16, -0.000000000000000000, -1.000000000000000000 ) ) ;
#68 = DIRECTION ( 'NONE',  ( -1.224646799147353207E-16, -0.000000000000000000, -1.000000000000000000 ) ) ;
#69 = APPLICATION_PROTOCOL_DEFINITION ( 'draft international standard', 'automotive_design', 1998, #169 ) ;
#70 = LINE ( 'NONE', #52, #92 ) ;
#71 = VECTOR ( 'NONE', #101, 39.37007874015748143 ) ;
#72 =( NAMED_UNIT ( * ) SI_UNIT ( $, .STERADIAN. ) SOLID_ANGLE_UNIT ( ) );
#73 = DIRECTION ( 'NONE',  ( 1.000000000000000000, 0.000000000000000000, 0.000000000000000000 ) ) ;
#74 = LENGTH_MEASURE_WITH_UNIT ( LENGTH_MEASURE( 0.02539999999999999897 ), #95 );
#75 = CARTESIAN_POINT ( 'NONE',  ( 5.348588749162019150E-17, 0.000000000000000000, 0.4367454153218638391 ) ) ;
#76 = CIRCLE ( 'NONE', #218, 0.07874000000000000443 ) ;
#77 = DIRECTION ( 'NONE',  ( 1.000000000000000000, 0.000000000000000000, 0.000000000000000000 ) ) ;
#78 = ORIENTED_EDGE ( 'NONE', *, *, #28, .F. ) ;
#79 = SURFACE_STYLE_USAGE ( .BOTH. , #193 ) ;
#80 = AXIS2_PLACEMENT_3D ( 'NONE', #29, #236, #211 ) ;
#81 = EDGE_CURVE ( 'NONE', #63, #7, #53, .T. ) ;
#82 = DIMENSIONAL_EXPONENTS ( 1.000000000000000000, 0.000000000000000000, 0.000000000000000000, 0.000000000000000000, 0.000000000000000000, 0.000000000000000000, 0.000000000000000000 ) ;
#83 = DIRECTION ( 'NONE',  ( 1.224646799147353207E-16, 0.000000000000000000, 1.000000000000000000 ) ) ;
#84 = EDGE_CURVE ( 'NONE', #63, #217, #70, .T. ) ;
#85 = CARTESIAN_POINT ( 'NONE',  ( -0.02949797249999996929, 6.627664328416210521E-18, 0.1574800000000000089 ) ) ;
#86 = VECTOR ( 'NONE', #5, 39.37007874015748143 ) ;
#87 = CONICAL_SURFACE ( 'NONE', #182, 0.02949797249999999010, 0.1745329251994338915 ) ;
#88 = FACE_OUTER_BOUND ( 'NONE', #263, .T. ) ;
#89 = CARTESIAN_POINT ( 'NONE',  ( -0.06374000000000018540, 0.000000000000000000, 1.968503999999999809 ) ) ;
#90 = PRESENTATION_STYLE_ASSIGNMENT (( #45 ) ) ;
#91 = ORIENTED_EDGE ( 'NONE', *, *, #81, .F. ) ;
#92 = VECTOR ( 'NONE', #3, 39.37007874015748854 ) ;
#93 = EDGE_CURVE ( 'NONE', #19, #103, #235, .T. ) ;
#94 = CARTESIAN_POINT ( 'NONE',  ( 4.423987282556545948E-34, 0.000000000000000000, 3.612459760346164844E-18 ) ) ;
#95 =( LENGTH_UNIT ( ) NAMED_UNIT ( * ) SI_UNIT ( $, .METRE. ) );
#96 = DIRECTION ( 'NONE',  ( -1.000000000000000000, 0.000000000000000000, 1.224646799147353207E-16 ) ) ;
#97 = PRODUCT_CONTEXT ( 'NONE', #169, 'mechanical' ) ;
#98 = DIRECTION ( 'NONE',  ( 1.000000000000000000, 0.000000000000000000, 0.000000000000000000 ) ) ;
#99 = AXIS2_PLACEMENT_3D ( 'NONE', #39, #294, #245 ) ;
#100 = STYLED_ITEM ( 'NONE', ( #90 ), #244 ) ;
#101 = DIRECTION ( 'NONE',  ( -1.224646799147353207E-16, -0.000000000000000000, -1.000000000000000000 ) ) ;
#102 = ADVANCED_FACE ( 'NONE', ( #282 ), #122, .F. ) ;
#103 = VERTEX_POINT ( 'NONE', #279 ) ;
#104 = CIRCLE ( 'NONE', #261, 0.02949797249999999010 ) ;
#105 =( NAMED_UNIT ( * ) PLANE_ANGLE_UNIT ( ) SI_UNIT ( $, .RADIAN. ) );
#106 = DIRECTION ( 'NONE',  ( 1.224646799147353207E-16, 0.000000000000000000, 1.000000000000000000 ) ) ;
#107 =( LENGTH_UNIT ( ) NAMED_UNIT ( * ) SI_UNIT ( $, .METRE. ) );
#108 = CIRCLE ( 'NONE', #277, 0.02949797250000000398 ) ;
#109 = EDGE_LOOP ( 'NONE', ( #18, #132, #296, #156 ) ) ;
#110 = DIMENSIONAL_EXPONENTS ( 1.000000000000000000, 0.000000000000000000, 0.000000000000000000, 0.000000000000000000, 0.000000000000000000, 0.000000000000000000, 0.000000000000000000 ) ;
#111 = CARTESIAN_POINT ( 'NONE',  ( 1.928573779297251702E-17, 0.000000000000000000, 0.1574800000000000089 ) ) ;
#112 = ORIENTED_EDGE ( 'NONE', *, *, #284, .F. ) ;
#113 = ORIENTED_EDGE ( 'NONE', *, *, #139, .T. ) ;
#114 = FACE_OUTER_BOUND ( 'NONE', #136, .T. ) ;
#115 = EDGE_LOOP ( 'NONE', ( #113, #246, #150, #202 ) ) ;
#116 = SURFACE_SIDE_STYLE ('',( #230 ) ) ;
#117 = LINE ( 'NONE', #141, #256 ) ;
#118 = AXIS2_PLACEMENT_3D ( 'NONE', #189, #46, #21 ) ;
#119 = FILL_AREA_STYLE_COLOUR ( '', #175 ) ;
#120 = CARTESIAN_POINT ( 'NONE',  ( 0.000000000000000000, 0.000000000000000000, 0.000000000000000000 ) ) ;
#121 = DIRECTION ( 'NONE',  ( -1.224646799147353207E-16, -0.000000000000000000, -1.000000000000000000 ) ) ;
#122 = PLANE ( 'NONE',  #80 ) ;
#123 = CIRCLE ( 'NONE', #290, 0.02949797250000000398 ) ;
#124 = LINE ( 'NONE', #49, #71 ) ;
#125 = PLANE ( 'NONE',  #143 ) ;
#126 = VERTEX_POINT ( 'NONE', #229 ) ;
#127 =( CONVERSION_BASED_UNIT ( 'INCH', #31 ) LENGTH_UNIT ( ) NAMED_UNIT ( #82 ) );
#128 =( GEOMETRIC_REPRESENTATION_CONTEXT ( 3 ) GLOBAL_UNCERTAINTY_ASSIGNED_CONTEXT ( ( #289 ) ) GLOBAL_UNIT_ASSIGNED_CONTEXT ( ( #179, #255, #72 ) ) REPRESENTATION_CONTEXT ( 'NONE', 'WORKASPACE' ) );
#129 = UNCERTAINTY_MEASURE_WITH_UNIT (LENGTH_MEASURE( 1.000000000000000082E-05 ), #12, 'distance_accuracy_value', 'NONE');
#130 = CARTESIAN_POINT ( 'NONE',  ( 0.07874000000000004607, 9.642868896486264672E-18, 0.4367454153218638391 ) ) ;
#131 = CARTESIAN_POINT ( 'NONE',  ( 0.000000000000000000, 0.000000000000000000, 1.968503999999999809 ) ) ;
#132 = ORIENTED_EDGE ( 'NONE', *, *, #239, .T. ) ;
#133 = CIRCLE ( 'NONE', #163, 0.07874000000000000443 ) ;
#134 = ORIENTED_EDGE ( 'NONE', *, *, #288, .T. ) ;
#135 = VERTEX_POINT ( 'NONE', #207 ) ;
#136 = EDGE_LOOP ( 'NONE', ( #134, #265, #41, #221 ) ) ;
#137 = FACE_OUTER_BOUND ( 'NONE', #140, .T. ) ;
#138 = AXIS2_PLACEMENT_3D ( 'NONE', #111, #83, #174 ) ;
#139 = EDGE_CURVE ( 'NONE', #19, #177, #180, .T. ) ;
#140 = EDGE_LOOP ( 'NONE', ( #91, #198, #16, #154 ) ) ;
#141 = CARTESIAN_POINT ( 'NONE',  ( -0.07874000000000000443, 0.000000000000000000, 1.968503999999999809 ) ) ;
#142 = CARTESIAN_POINT ( 'NONE',  ( 0.02949797250000000745, 3.612459760346164844E-18, -9.478001694819074349E-34 ) ) ;
#143 = AXIS2_PLACEMENT_3D ( 'NONE', #131, #11, #55 ) ;
#144 = DIRECTION ( 'NONE',  ( -1.224646799147353207E-16, -0.000000000000000000, -1.000000000000000000 ) ) ;
#145 = DIRECTION ( 'NONE',  ( 0.000000000000000000, 0.000000000000000000, -1.000000000000000000 ) ) ;
#146 = CARTESIAN_POINT ( 'NONE',  ( 4.423987282556545948E-34, 0.000000000000000000, 3.612459760346164844E-18 ) ) ;
#147 = AXIS2_PLACEMENT_3D ( 'NONE', #164, #258, #50 ) ;
#148 = EDGE_CURVE ( 'NONE', #270, #126, #249, .T. ) ;
#149 = CARTESIAN_POINT ( 'NONE',  ( -0.02949797249999996929, 3.612459760346163304E-18, 0.1574800000000000089 ) ) ;
#150 = ORIENTED_EDGE ( 'NONE', *, *, #216, .F. ) ;
#151 = EDGE_CURVE ( 'NONE', #177, #222, #124, .T. ) ;
#152 = FACE_OUTER_BOUND ( 'NONE', #224, .T. ) ;
#153 = DIRECTION ( 'NONE',  ( -0.1736481776669311916, 2.126576849575783316E-17, 0.9848077530122080203 ) ) ;
#154 = ORIENTED_EDGE ( 'NONE', *, *, #62, .F. ) ;
#155 = EDGE_LOOP ( 'NONE', ( #196, #292, #56, #78 ) ) ;
#156 = ORIENTED_EDGE ( 'NONE', *, *, #158, .F. ) ;
#157 = DIRECTION ( 'NONE',  ( -1.000000000000000000, 0.000000000000000000, 0.000000000000000000 ) ) ;
#158 = EDGE_CURVE ( 'NONE', #222, #103, #123, .T. ) ;
#159 = CARTESIAN_POINT ( 'NONE',  ( 0.000000000000000000, 0.000000000000000000, 1.968503999999999809 ) ) ;
#160 = LINE ( 'NONE', #299, #86 ) ;
#161 = CARTESIAN_POINT ( 'NONE',  ( 0.000000000000000000, 0.000000000000000000, 1.968503999999999809 ) ) ;
#162 = DIRECTION ( 'NONE',  ( 0.000000000000000000, 0.000000000000000000, 1.000000000000000000 ) ) ;
#163 = AXIS2_PLACEMENT_3D ( 'NONE', #75, #121, #98 ) ;
#164 = CARTESIAN_POINT ( 'NONE',  ( 1.928573779297251702E-17, 0.000000000000000000, 0.1574800000000000089 ) ) ;
#165 = FILL_AREA_STYLE_COLOUR ( '', #298 ) ;
#166 = PRODUCT ( 'Micro_AEMM-015-4X', 'Micro_AEMM-015-4X', '', ( #97 ) ) ;
#167 = EDGE_CURVE ( 'NONE', #217, #270, #160, .T. ) ;
#168 = SURFACE_STYLE_FILL_AREA ( #259 ) ;
#169 = APPLICATION_CONTEXT ( 'automotive_design' ) ;
#170 = ORIENTED_EDGE ( 'NONE', *, *, #28, .T. ) ;
#171 = VECTOR ( 'NONE', #153, 39.37007874015747433 ) ;
#172 =( NAMED_UNIT ( * ) PLANE_ANGLE_UNIT ( ) SI_UNIT ( $, .RADIAN. ) );
#173 = ORIENTED_EDGE ( 'NONE', *, *, #239, .F. ) ;
#174 = DIRECTION ( 'NONE',  ( 1.000000000000000000, 0.000000000000000000, 0.000000000000000000 ) ) ;
#175 = COLOUR_RGB ( '',0.7921568627450980005, 0.8196078431372548767, 0.9333333333333333481 ) ;
#176 = CYLINDRICAL_SURFACE ( 'NONE', #99, 0.02949797249999999357 ) ;
#177 = VERTEX_POINT ( 'NONE', #181 ) ;
#178 = CARTESIAN_POINT ( 'NONE',  ( 0.000000000000000000, 0.000000000000000000, 1.968503999999999809 ) ) ;
#179 =( CONVERSION_BASED_UNIT ( 'INCH', #74 ) LENGTH_UNIT ( ) NAMED_UNIT ( #110 ) );
#180 = CIRCLE ( 'NONE', #147, 0.02949797249999999010 ) ;
#181 = CARTESIAN_POINT ( 'NONE',  ( 0.02949797250000001092, 0.000000000000000000, 0.1574800000000000089 ) ) ;
#182 = AXIS2_PLACEMENT_3D ( 'NONE', #240, #106, #77 ) ;
#183 = EDGE_CURVE ( 'NONE', #135, #126, #117, .T. ) ;
#184 = DIRECTION ( 'NONE',  ( -1.000000000000000000, 0.000000000000000000, 1.224646799147352961E-16 ) ) ;
#185 = DIRECTION ( 'NONE',  ( -0.000000000000000000, -0.000000000000000000, -1.000000000000000000 ) ) ;
#186 = CYLINDRICAL_SURFACE ( 'NONE', #57, 0.07874000000000000443 ) ;
#187 = CONICAL_SURFACE ( 'NONE', #199, 0.06374000000000018540, 0.7853981633974522758 ) ;
#188 = PRODUCT_DEFINITION_SHAPE ( 'NONE', 'NONE',  #9 ) ;
#189 = CARTESIAN_POINT ( 'NONE',  ( 0.000000000000000000, 0.000000000000000000, 1.968503999999999809 ) ) ;
#190 = ADVANCED_FACE ( 'NONE', ( #26 ), #237, .T. ) ;
#191 = DIRECTION ( 'NONE',  ( -1.000000000000000000, 0.000000000000000000, 0.000000000000000000 ) ) ;
#192 = PRODUCT_RELATED_PRODUCT_CATEGORY ( 'part', '', ( #166 ) ) ;
#193 = SURFACE_SIDE_STYLE ('',( #168 ) ) ;
#194 = ORIENTED_EDGE ( 'NONE', *, *, #148, .F. ) ;
#195 = CLOSED_SHELL ( 'NONE', ( #234, #40, #35, #51, #268, #271, #190, #295, #22, #102 ) ) ;
#196 = ORIENTED_EDGE ( 'NONE', *, *, #84, .F. ) ;
#197 = APPLICATION_CONTEXT ( 'automotive_design' ) ;
#198 = ORIENTED_EDGE ( 'NONE', *, *, #84, .T. ) ;
#199 = AXIS2_PLACEMENT_3D ( 'NONE', #178, #64, #291 ) ;
#200 = DIRECTION ( 'NONE',  ( 1.000000000000000000, 0.000000000000000000, 0.000000000000000000 ) ) ;
#201 = LINE ( 'NONE', #89, #225 ) ;
#202 = ORIENTED_EDGE ( 'NONE', *, *, #93, .F. ) ;
#203 = EDGE_CURVE ( 'NONE', #7, #63, #8, .T. ) ;
#204 = PRESENTATION_LAYER_ASSIGNMENT (  '', '', ( #37 ) ) ;
#205 = DIRECTION ( 'NONE',  ( 0.1736481776669313859, 0.000000000000000000, 0.9848077530122077983 ) ) ;
#206 = DIRECTION ( 'NONE',  ( 0.000000000000000000, 0.000000000000000000, 1.000000000000000000 ) ) ;
#207 = CARTESIAN_POINT ( 'NONE',  ( -0.07874000000000000443, 0.000000000000000000, 1.953504000000000129 ) ) ;
#208 = CARTESIAN_POINT ( 'NONE',  ( 0.000000000000000000, 0.000000000000000000, 0.000000000000000000 ) ) ;
#209 = CARTESIAN_POINT ( 'NONE',  ( 0.02949797250000001092, 0.000000000000000000, 0.1574800000000000089 ) ) ;
#210 = EDGE_CURVE ( 'NONE', #177, #270, #283, .T. ) ;
#211 = DIRECTION ( 'NONE',  ( 1.000000000000000000, 0.000000000000000000, -0.000000000000000000 ) ) ;
#212 = PRODUCT_DEFINITION_FORMATION_WITH_SPECIFIED_SOURCE ( 'ANY', '', #166, .NOT_KNOWN. ) ;
#213 = DIRECTION ( 'NONE',  ( -1.000000000000000000, 0.000000000000000000, 1.224646799147352961E-16 ) ) ;
#214 =( LENGTH_UNIT ( ) NAMED_UNIT ( * ) SI_UNIT ( $, .METRE. ) );
#215 = ORIENTED_EDGE ( 'NONE', *, *, #158, .T. ) ;
#216 = EDGE_CURVE ( 'NONE', #103, #222, #108, .T. ) ;
#217 = VERTEX_POINT ( 'NONE', #280 ) ;
#218 = AXIS2_PLACEMENT_3D ( 'NONE', #58, #238, #30 ) ;
#219 = LINE ( 'NONE', #149, #171 ) ;
#220 =( NAMED_UNIT ( * ) SI_UNIT ( $, .STERADIAN. ) SOLID_ANGLE_UNIT ( ) );
#221 = ORIENTED_EDGE ( 'NONE', *, *, #183, .F. ) ;
#222 = VERTEX_POINT ( 'NONE', #142 ) ;
#223 = ORIENTED_EDGE ( 'NONE', *, *, #167, .F. ) ;
#224 = EDGE_LOOP ( 'NONE', ( #223, #170, #17, #194 ) ) ;
#225 = VECTOR ( 'NONE', #276, 39.37007874015748854 ) ;
#226 = ORIENTED_EDGE ( 'NONE', *, *, #139, .F. ) ;
#227 = DIRECTION ( 'NONE',  ( 1.000000000000000000, 0.000000000000000000, 0.000000000000000000 ) ) ;
#228 = EDGE_LOOP ( 'NONE', ( #32, #215 ) ) ;
#229 = CARTESIAN_POINT ( 'NONE',  ( -0.07873999999999994892, 0.000000000000000000, 0.4367454153218638391 ) ) ;
#230 = SURFACE_STYLE_FILL_AREA ( #2 ) ;
#231 = FACE_OUTER_BOUND ( 'NONE', #115, .T. ) ;
#232 = AXIS2_PLACEMENT_3D ( 'NONE', #208, #206, #227 ) ;
#233 = DIRECTION ( 'NONE',  ( -1.000000000000000000, 0.000000000000000000, 0.000000000000000000 ) ) ;
#234 = ADVANCED_FACE ( 'NONE', ( #231 ), #24, .T. ) ;
#235 = LINE ( 'NONE', #257, #42 ) ;
#236 = DIRECTION ( 'NONE',  ( 0.000000000000000000, 0.000000000000000000, 1.000000000000000000 ) ) ;
#237 = CONICAL_SURFACE ( 'NONE', #293, 0.06374000000000018540, 0.7853981633974522758 ) ;
#238 = DIRECTION ( 'NONE',  ( 0.000000000000000000, 0.000000000000000000, -1.000000000000000000 ) ) ;
#239 = EDGE_CURVE ( 'NONE', #177, #19, #104, .T. ) ;
#240 = CARTESIAN_POINT ( 'NONE',  ( 1.928573779297251702E-17, 0.000000000000000000, 0.1574800000000000089 ) ) ;
#241 = LENGTH_MEASURE_WITH_UNIT ( LENGTH_MEASURE( 0.02539999999999999897 ), #214 );
#242 = DIRECTION ( 'NONE',  ( -0.000000000000000000, -0.000000000000000000, -1.000000000000000000 ) ) ;
#243 = ORIENTED_EDGE ( 'NONE', *, *, #81, .T. ) ;
#244 = ADVANCED_BREP_SHAPE_REPRESENTATION ( 'Micro_AEMM-015-4X', ( #262, #232 ), #54 ) ;
#245 = DIRECTION ( 'NONE',  ( -1.000000000000000000, 0.000000000000000000, 1.224646799147353207E-16 ) ) ;
#246 = ORIENTED_EDGE ( 'NONE', *, *, #151, .T. ) ;
#247 = FACE_OUTER_BOUND ( 'NONE', #109, .T. ) ;
#248 = CARTESIAN_POINT ( 'NONE',  ( -0.06374000000000018540, 0.000000000000000000, 1.968503999999999809 ) ) ;
#249 = CIRCLE ( 'NONE', #66, 0.07874000000000000443 ) ;
#250 = SHAPE_DEFINITION_REPRESENTATION ( #188, #244 ) ;
#251 = ORIENTED_EDGE ( 'NONE', *, *, #210, .F. ) ;
#252 = EDGE_CURVE ( 'NONE', #126, #270, #133, .T. ) ;
#253 = DIRECTION ( 'NONE',  ( -1.000000000000000000, 0.000000000000000000, 0.000000000000000000 ) ) ;
#254 = DIRECTION ( 'NONE',  ( -1.224646799147353207E-16, -0.000000000000000000, -1.000000000000000000 ) ) ;
#255 =( NAMED_UNIT ( * ) PLANE_ANGLE_UNIT ( ) SI_UNIT ( $, .RADIAN. ) );
#256 = VECTOR ( 'NONE', #185, 39.37007874015748143 ) ;
#257 = CARTESIAN_POINT ( 'NONE',  ( -0.02949797249999999357, 0.000000000000000000, 3.612459760346164074E-18 ) ) ;
#258 = DIRECTION ( 'NONE',  ( -1.224646799147353207E-16, -0.000000000000000000, -1.000000000000000000 ) ) ;
#259 = FILL_AREA_STYLE ('',( #165 ) ) ;
#260 = FACE_OUTER_BOUND ( 'NONE', #274, .T. ) ;
#261 = AXIS2_PLACEMENT_3D ( 'NONE', #281, #144, #233 ) ;
#262 = MANIFOLD_SOLID_BREP ( 'Cut-Revolve1', #195 ) ;
#263 = EDGE_LOOP ( 'NONE', ( #226, #38, #59, #251 ) ) ;
#264 =( NAMED_UNIT ( * ) SI_UNIT ( $, .STERADIAN. ) SOLID_ANGLE_UNIT ( ) );
#265 = ORIENTED_EDGE ( 'NONE', *, *, #167, .T. ) ;
#266 = PRESENTATION_STYLE_ASSIGNMENT (( #79 ) ) ;
#267 = AXIS2_PLACEMENT_3D ( 'NONE', #60, #275, #157 ) ;
#268 = ADVANCED_FACE ( 'NONE', ( #152 ), #186, .T. ) ;
#269 = CONICAL_SURFACE ( 'NONE', #138, 0.02949797249999999010, 0.1745329251994338915 ) ;
#270 = VERTEX_POINT ( 'NONE', #130 ) ;
#271 = ADVANCED_FACE ( 'NONE', ( #260 ), #125, .T. ) ;
#272 = CYLINDRICAL_SURFACE ( 'NONE', #267, 0.07874000000000000443 ) ;
#273 = CIRCLE ( 'NONE', #4, 0.07874000000000000443 ) ;
#274 = EDGE_LOOP ( 'NONE', ( #286, #243 ) ) ;
#275 = DIRECTION ( 'NONE',  ( -0.000000000000000000, -0.000000000000000000, -1.000000000000000000 ) ) ;
#276 = DIRECTION ( 'NONE',  ( -0.7071067811865502373, 0.000000000000000000, -0.7071067811865446862 ) ) ;
#277 = AXIS2_PLACEMENT_3D ( 'NONE', #94, #6, #184 ) ;
#278 = MECHANICAL_DESIGN_GEOMETRIC_PRESENTATION_REPRESENTATION (  '', ( #100 ), #128 ) ;
#279 = CARTESIAN_POINT ( 'NONE',  ( -0.02949797250000000398, 0.000000000000000000, 7.224919520692329689E-18 ) ) ;
#280 = CARTESIAN_POINT ( 'NONE',  ( 0.07874000000000000443, 9.642868896486258509E-18, 1.953504000000000129 ) ) ;
#281 = CARTESIAN_POINT ( 'NONE',  ( 1.928573779297251702E-17, 0.000000000000000000, 0.1574800000000000089 ) ) ;
#282 = FACE_OUTER_BOUND ( 'NONE', #228, .T. ) ;
#283 = LINE ( 'NONE', #209, #27 ) ;
#284 = EDGE_CURVE ( 'NONE', #19, #126, #219, .T. ) ;
#285 = FACE_OUTER_BOUND ( 'NONE', #297, .T. ) ;
#286 = ORIENTED_EDGE ( 'NONE', *, *, #203, .T. ) ;
#287 = ORIENTED_EDGE ( 'NONE', *, *, #210, .T. ) ;
#288 = EDGE_CURVE ( 'NONE', #135, #217, #76, .T. ) ;
#289 = UNCERTAINTY_MEASURE_WITH_UNIT (LENGTH_MEASURE( 1.000000000000000082E-05 ), #179, 'distance_accuracy_value', 'NONE');
#290 = AXIS2_PLACEMENT_3D ( 'NONE', #146, #68, #213 ) ;
#291 = DIRECTION ( 'NONE',  ( -1.000000000000000000, 0.000000000000000000, 0.000000000000000000 ) ) ;
#292 = ORIENTED_EDGE ( 'NONE', *, *, #203, .F. ) ;
#293 = AXIS2_PLACEMENT_3D ( 'NONE', #161, #145, #253 ) ;
#294 = DIRECTION ( 'NONE',  ( -1.224646799147353207E-16, -0.000000000000000000, -1.000000000000000000 ) ) ;
#295 = ADVANCED_FACE ( 'NONE', ( #285 ), #87, .T. ) ;
#296 = ORIENTED_EDGE ( 'NONE', *, *, #93, .T. ) ;
#297 = EDGE_LOOP ( 'NONE', ( #112, #173, #287, #43 ) ) ;
#298 = COLOUR_RGB ( '',0.7921568627450980005, 0.8196078431372548767, 0.9333333333333333481 ) ;
#299 = CARTESIAN_POINT ( 'NONE',  ( 0.07874000000000000443, 9.642868896486258509E-18, 1.968503999999999809 ) ) ;
ENDSEC;
END-ISO-10303-21;
