ISO-10303-21;
HEADER;
FILE_DESCRIPTION (( 'STEP AP214' ),
    '1' );
FILE_NAME ('Micro_SFAM-100100.STEP',
    '2021-09-02T04:26:30',
    ( '' ),
    ( '' ),
    'SwSTEP 2.0',
    'SolidWorks 2020',
    '' );
FILE_SCHEMA (( 'AUTOMOTIVE_DESIGN' ));
ENDSEC;

DATA;
#1 =( NAMED_UNIT ( * ) SI_UNIT ( $, .STERADIAN. ) SOLID_ANGLE_UNIT ( ) );
#2 = MANIFOLD_SOLID_BREP ( 'Cut-Revolve1', #50 ) ;
#3 = ORIENTED_EDGE ( 'NONE', *, *, #173, .T. ) ;
#4 = EDGE_CURVE ( 'NONE', #132, #234, #85, .T. ) ;
#5 = ORIENTED_EDGE ( 'NONE', *, *, #116, .T. ) ;
#6 = EDGE_LOOP ( 'NONE', ( #218, #189, #259, #59 ) ) ;
#7 = APPLICATION_PROTOCOL_DEFINITION ( 'draft international standard', 'automotive_design', 1998, #271 ) ;
#8 = AXIS2_PLACEMENT_3D ( 'NONE', #69, #93, #42 ) ;
#9 = CARTESIAN_POINT ( 'NONE',  ( 2.949332346337811403E-33, 0.0000000000000000000, 2.408312624008205170E-17 ) ) ;
#10 = SHAPE_DEFINITION_REPRESENTATION ( #295, #63 ) ;
#11 = CARTESIAN_POINT ( 'NONE',  ( 0.1966536495000001383, 0.0000000000000000000, 0.9842519999999999047 ) ) ;
#12 = PRESENTATION_STYLE_ASSIGNMENT (( #217 ) ) ;
#13 = PRODUCT_CONTEXT ( 'NONE', #271, 'mechanical' ) ;
#14 = AXIS2_PLACEMENT_3D ( 'NONE', #68, #180, #75 ) ;
#15 = DIRECTION ( 'NONE',  ( -1.000000000000000000, 0.0000000000000000000, 0.0000000000000000000 ) ) ;
#16 = CYLINDRICAL_SURFACE ( 'NONE', #8, 0.1966536494999999996 ) ;
#17 = LENGTH_MEASURE_WITH_UNIT ( LENGTH_MEASURE( 0.02539999999999999897 ), #110 );
#18 = CARTESIAN_POINT ( 'NONE',  ( 1.206728250503579029E-16, 0.0000000000000000000, 0.9853683946618325695 ) ) ;
#19 = DIRECTION ( 'NONE',  ( -0.0000000000000000000, -0.0000000000000000000, -1.000000000000000000 ) ) ;
#20 = CIRCLE ( 'NONE', #228, 0.1966536494999999996 ) ;
#21 = UNCERTAINTY_MEASURE_WITH_UNIT (LENGTH_MEASURE( 1.000000000000000082E-05 ), #86, 'distance_accuracy_value', 'NONE');
#22 = FACE_OUTER_BOUND ( 'NONE', #6, .T. ) ;
#23 = CARTESIAN_POINT ( 'NONE',  ( -0.1966536494999999996, 0.0000000000000000000, 2.408312624008205170E-17 ) ) ;
#24 = ORIENTED_EDGE ( 'NONE', *, *, #276, .F. ) ;
#25 = DIRECTION ( 'NONE',  ( 0.0000000000000000000, 0.0000000000000000000, 1.000000000000000000 ) ) ;
#26 = EDGE_LOOP ( 'NONE', ( #108, #169, #135, #105 ) ) ;
#27 = CARTESIAN_POINT ( 'NONE',  ( -0.1966536494999998608, 2.409517985681882600E-17, 0.9842519999999999047 ) ) ;
#28 = ORIENTED_EDGE ( 'NONE', *, *, #53, .T. ) ;
#29 = VECTOR ( 'NONE', #87, 39.37007874015748143 ) ;
#30 = AXIS2_PLACEMENT_3D ( 'NONE', #298, #162, #101 ) ;
#31 = ORIENTED_EDGE ( 'NONE', *, *, #288, .T. ) ;
#32 = VERTEX_POINT ( 'NONE', #11 ) ;
#33 = APPLICATION_PROTOCOL_DEFINITION ( 'draft international standard', 'automotive_design', 1998, #98 ) ;
#34 = EDGE_CURVE ( 'NONE', #170, #167, #112, .T. ) ;
#35 = DIRECTION ( 'NONE',  ( -1.224646799147353207E-16, -0.0000000000000000000, -1.000000000000000000 ) ) ;
#36 = ADVANCED_FACE ( 'NONE', ( #113 ), #196, .T. ) ;
#37 = AXIS2_PLACEMENT_3D ( 'NONE', #226, #229, #293 ) ;
#38 = PRESENTATION_LAYER_ASSIGNMENT (  '', '', ( #130 ) ) ;
#39 = ORIENTED_EDGE ( 'NONE', *, *, #238, .T. ) ;
#40 = DIRECTION ( 'NONE',  ( 1.000000000000000000, 0.0000000000000000000, 0.0000000000000000000 ) ) ;
#41 = EDGE_CURVE ( 'NONE', #52, #170, #264, .T. ) ;
#42 = DIRECTION ( 'NONE',  ( -1.000000000000000000, 0.0000000000000000000, 1.224646799147353207E-16 ) ) ;
#43 = CONICAL_SURFACE ( 'NONE', #14, 0.1966536494999999996, 0.1745329251994338637 ) ;
#44 = DIRECTION ( 'NONE',  ( 0.1736481776669313581, 0.0000000000000000000, 0.9848077530122077983 ) ) ;
#45 = CARTESIAN_POINT ( 'NONE',  ( 1.206728250503579029E-16, 0.0000000000000000000, 0.9853683946618325695 ) ) ;
#46 = DIMENSIONAL_EXPONENTS ( 1.000000000000000000, 0.0000000000000000000, 0.0000000000000000000, 0.0000000000000000000, 0.0000000000000000000, 0.0000000000000000000, 0.0000000000000000000 ) ;
#47 = CARTESIAN_POINT ( 'NONE',  ( -0.1966536494999998608, 2.408312624008205170E-17, 0.9842519999999999047 ) ) ;
#48 = ADVANCED_FACE ( 'NONE', ( #199 ), #16, .T. ) ;
#49 = CARTESIAN_POINT ( 'NONE',  ( -0.1968504999999999838, 0.0000000000000000000, 4.724409000000001413 ) ) ;
#50 = CLOSED_SHELL ( 'NONE', ( #48, #36, #230, #267, #292, #107, #253, #103, #193, #297 ) ) ;
#51 = DIRECTION ( 'NONE',  ( -0.0000000000000000000, -0.0000000000000000000, -1.000000000000000000 ) ) ;
#52 = VERTEX_POINT ( 'NONE', #137 ) ;
#53 = EDGE_CURVE ( 'NONE', #232, #174, #73, .T. ) ;
#54 = FACE_OUTER_BOUND ( 'NONE', #212, .T. ) ;
#55 = DIRECTION ( 'NONE',  ( 0.0000000000000000000, 0.0000000000000000000, 1.000000000000000000 ) ) ;
#56 = MECHANICAL_DESIGN_GEOMETRIC_PRESENTATION_REPRESENTATION (  '', ( #202 ), #215 ) ;
#57 = CIRCLE ( 'NONE', #84, 0.1818504999999994431 ) ;
#58 = DIRECTION ( 'NONE',  ( -1.000000000000000000, 0.0000000000000000000, 0.0000000000000000000 ) ) ;
#59 = ORIENTED_EDGE ( 'NONE', *, *, #201, .T. ) ;
#60 = EDGE_LOOP ( 'NONE', ( #62, #28, #219, #237 ) ) ;
#61 = AXIS2_PLACEMENT_3D ( 'NONE', #273, #222, #92 ) ;
#62 = ORIENTED_EDGE ( 'NONE', *, *, #164, .F. ) ;
#63 = ADVANCED_BREP_SHAPE_REPRESENTATION ( 'Micro_SFAM-100100', ( #2, #158 ), #104 ) ;
#64 =( CONVERSION_BASED_UNIT ( 'INCH', #17 ) LENGTH_UNIT ( ) NAMED_UNIT ( #181 ) );
#65 =( NAMED_UNIT ( * ) PLANE_ANGLE_UNIT ( ) SI_UNIT ( $, .RADIAN. ) );
#66 = ORIENTED_EDGE ( 'NONE', *, *, #172, .T. ) ;
#67 = ORIENTED_EDGE ( 'NONE', *, *, #288, .F. ) ;
#68 = CARTESIAN_POINT ( 'NONE',  ( 1.205361061354380629E-16, 0.0000000000000000000, 0.9842519999999999047 ) ) ;
#69 = CARTESIAN_POINT ( 'NONE',  ( 0.0000000000000000000, 0.0000000000000000000, 0.0000000000000000000 ) ) ;
#70 = AXIS2_PLACEMENT_3D ( 'NONE', #119, #247, #290 ) ;
#71 = FACE_OUTER_BOUND ( 'NONE', #154, .T. ) ;
#72 = AXIS2_PLACEMENT_3D ( 'NONE', #144, #51, #94 ) ;
#73 = LINE ( 'NONE', #47, #171 ) ;
#74 = UNCERTAINTY_MEASURE_WITH_UNIT (LENGTH_MEASURE( 1.000000000000000082E-05 ), #147, 'distance_accuracy_value', 'NONE');
#75 = DIRECTION ( 'NONE',  ( 1.000000000000000000, 0.0000000000000000000, 0.0000000000000000000 ) ) ;
#76 = CARTESIAN_POINT ( 'NONE',  ( -0.1966536494999999996, 0.0000000000000000000, 4.816625248016410340E-17 ) ) ;
#77 = CIRCLE ( 'NONE', #114, 0.1968504999999999838 ) ;
#78 = MECHANICAL_DESIGN_GEOMETRIC_PRESENTATION_REPRESENTATION (  '', ( #130 ), #184 ) ;
#79 = LINE ( 'NONE', #23, #281 ) ;
#80 = ORIENTED_EDGE ( 'NONE', *, *, #211, .F. ) ;
#81 = EDGE_LOOP ( 'NONE', ( #31, #3 ) ) ;
#82 = ORIENTED_EDGE ( 'NONE', *, *, #172, .F. ) ;
#83 = AXIS2_PLACEMENT_3D ( 'NONE', #197, #156, #245 ) ;
#84 = AXIS2_PLACEMENT_3D ( 'NONE', #280, #25, #125 ) ;
#85 = CIRCLE ( 'NONE', #157, 0.1966536494999999996 ) ;
#86 =( CONVERSION_BASED_UNIT ( 'INCH', #262 ) LENGTH_UNIT ( ) NAMED_UNIT ( #272 ) );
#87 = DIRECTION ( 'NONE',  ( -0.0000000000000000000, -0.0000000000000000000, -1.000000000000000000 ) ) ;
#88 = DIRECTION ( 'NONE',  ( 1.224646799147353207E-16, 0.0000000000000000000, 1.000000000000000000 ) ) ;
#89 = DIRECTION ( 'NONE',  ( -1.224646799147353207E-16, -0.0000000000000000000, -1.000000000000000000 ) ) ;
#90 = FACE_OUTER_BOUND ( 'NONE', #81, .T. ) ;
#91 = CIRCLE ( 'NONE', #61, 0.1966536494999999996 ) ;
#92 = DIRECTION ( 'NONE',  ( -1.000000000000000000, 0.0000000000000000000, 0.0000000000000000000 ) ) ;
#93 = DIRECTION ( 'NONE',  ( -1.224646799147353207E-16, -0.0000000000000000000, -1.000000000000000000 ) ) ;
#94 = DIRECTION ( 'NONE',  ( -1.000000000000000000, 0.0000000000000000000, 0.0000000000000000000 ) ) ;
#95 = FACE_OUTER_BOUND ( 'NONE', #168, .T. ) ;
#96 = ORIENTED_EDGE ( 'NONE', *, *, #100, .F. ) ;
#97 = COLOUR_RGB ( '',0.7921568627450980005, 0.8196078431372548767, 0.9333333333333333481 ) ;
#98 = APPLICATION_CONTEXT ( 'automotive_design' ) ;
#99 = LENGTH_MEASURE_WITH_UNIT ( LENGTH_MEASURE( 0.02539999999999999897 ), #182 );
#100 = EDGE_CURVE ( 'NONE', #174, #167, #77, .T. ) ;
#101 = DIRECTION ( 'NONE',  ( 1.000000000000000000, 0.0000000000000000000, 0.0000000000000000000 ) ) ;
#102 = ORIENTED_EDGE ( 'NONE', *, *, #41, .T. ) ;
#103 = ADVANCED_FACE ( 'NONE', ( #22 ), #43, .T. ) ;
#104 =( GEOMETRIC_REPRESENTATION_CONTEXT ( 3 ) GLOBAL_UNCERTAINTY_ASSIGNED_CONTEXT ( ( #74 ) ) GLOBAL_UNIT_ASSIGNED_CONTEXT ( ( #147, #128, #1 ) ) REPRESENTATION_CONTEXT ( 'NONE', 'WORKASPACE' ) );
#105 = ORIENTED_EDGE ( 'NONE', *, *, #251, .F. ) ;
#106 = SURFACE_STYLE_USAGE ( .BOTH. , #192 ) ;
#107 = ADVANCED_FACE ( 'NONE', ( #90 ), #248, .T. ) ;
#108 = ORIENTED_EDGE ( 'NONE', *, *, #173, .F. ) ;
#109 = VECTOR ( 'NONE', #44, 39.37007874015748143 ) ;
#110 =( LENGTH_UNIT ( ) NAMED_UNIT ( * ) SI_UNIT ( $, .METRE. ) );
#111 = VERTEX_POINT ( 'NONE', #203 ) ;
#112 = LINE ( 'NONE', #136, #29 ) ;
#113 = FACE_OUTER_BOUND ( 'NONE', #60, .T. ) ;
#114 = AXIS2_PLACEMENT_3D ( 'NONE', #18, #176, #177 ) ;
#115 = DIRECTION ( 'NONE',  ( 0.7071067811865419106, 8.659560562354863833E-17, -0.7071067811865531239 ) ) ;
#116 = EDGE_CURVE ( 'NONE', #32, #232, #277, .T. ) ;
#117 = CARTESIAN_POINT ( 'NONE',  ( -0.1968504999999998450, 0.0000000000000000000, 0.9853683946618325695 ) ) ;
#118 = DIRECTION ( 'NONE',  ( 1.000000000000000000, 0.0000000000000000000, -0.0000000000000000000 ) ) ;
#119 = CARTESIAN_POINT ( 'NONE',  ( 0.0000000000000000000, 0.0000000000000000000, 0.0000000000000000000 ) ) ;
#120 = FILL_AREA_STYLE ('',( #141 ) ) ;
#121 = CARTESIAN_POINT ( 'NONE',  ( 0.1966536494999999996, 2.408312624008205170E-17, 0.0000000000000000000 ) ) ;
#122 = EDGE_CURVE ( 'NONE', #32, #167, #138, .T. ) ;
#123 = FACE_OUTER_BOUND ( 'NONE', #257, .T. ) ;
#124 = ORIENTED_EDGE ( 'NONE', *, *, #4, .F. ) ;
#125 = DIRECTION ( 'NONE',  ( 1.000000000000000000, 0.0000000000000000000, 0.0000000000000000000 ) ) ;
#126 = CIRCLE ( 'NONE', #269, 0.1968504999999999838 ) ;
#127 = FACE_OUTER_BOUND ( 'NONE', #214, .T. ) ;
#128 =( NAMED_UNIT ( * ) PLANE_ANGLE_UNIT ( ) SI_UNIT ( $, .RADIAN. ) );
#129 = PRODUCT ( 'Micro_SFAM-100100', 'Micro_SFAM-100100', '', ( #13 ) ) ;
#130 = STYLED_ITEM ( 'NONE', ( #12 ), #63 ) ;
#131 = ORIENTED_EDGE ( 'NONE', *, *, #251, .T. ) ;
#132 = VERTEX_POINT ( 'NONE', #121 ) ;
#133 = ORIENTED_EDGE ( 'NONE', *, *, #238, .F. ) ;
#134 = PRODUCT_DEFINITION_FORMATION_WITH_SPECIFIED_SOURCE ( 'ANY', '', #129, .NOT_KNOWN. ) ;
#135 = ORIENTED_EDGE ( 'NONE', *, *, #41, .F. ) ;
#136 = CARTESIAN_POINT ( 'NONE',  ( 0.1968504999999999838, 2.410723347355560646E-17, 4.724409000000001413 ) ) ;
#137 = CARTESIAN_POINT ( 'NONE',  ( -0.1968504999999999838, 0.0000000000000000000, 4.709409000000000844 ) ) ;
#138 = LINE ( 'NONE', #140, #109 ) ;
#139 = CARTESIAN_POINT ( 'NONE',  ( 0.1966536494999999996, 2.408312624008205170E-17, -2.408312624008205170E-17 ) ) ;
#140 = CARTESIAN_POINT ( 'NONE',  ( 0.1966536495000001383, 0.0000000000000000000, 0.9842519999999999047 ) ) ;
#141 = FILL_AREA_STYLE_COLOUR ( '', #97 ) ;
#142 = VECTOR ( 'NONE', #19, 39.37007874015748143 ) ;
#143 = DIRECTION ( 'NONE',  ( -1.224646799147353207E-16, -0.0000000000000000000, -1.000000000000000000 ) ) ;
#144 = CARTESIAN_POINT ( 'NONE',  ( 0.0000000000000000000, 0.0000000000000000000, 4.724409000000001413 ) ) ;
#145 = DIRECTION ( 'NONE',  ( -1.224646799147353207E-16, -0.0000000000000000000, -1.000000000000000000 ) ) ;
#146 = VECTOR ( 'NONE', #143, 39.37007874015748143 ) ;
#147 =( CONVERSION_BASED_UNIT ( 'INCH', #99 ) LENGTH_UNIT ( ) NAMED_UNIT ( #46 ) );
#148 = SURFACE_STYLE_FILL_AREA ( #120 ) ;
#149 = ORIENTED_EDGE ( 'NONE', *, *, #211, .T. ) ;
#150 = EDGE_CURVE ( 'NONE', #111, #170, #227, .T. ) ;
#151 = ORIENTED_EDGE ( 'NONE', *, *, #164, .T. ) ;
#152 =( NAMED_UNIT ( * ) SI_UNIT ( $, .STERADIAN. ) SOLID_ANGLE_UNIT ( ) );
#153 = DIRECTION ( 'NONE',  ( -1.000000000000000000, 0.0000000000000000000, 1.224646799147353207E-16 ) ) ;
#154 = EDGE_LOOP ( 'NONE', ( #80, #5, #39, #124 ) ) ;
#155 = CARTESIAN_POINT ( 'NONE',  ( 0.1818504999999994431, 2.227026327483450676E-17, 4.724409000000001413 ) ) ;
#156 = DIRECTION ( 'NONE',  ( 0.0000000000000000000, 0.0000000000000000000, 1.000000000000000000 ) ) ;
#157 = AXIS2_PLACEMENT_3D ( 'NONE', #9, #35, #153 ) ;
#158 = AXIS2_PLACEMENT_3D ( 'NONE', #261, #213, #40 ) ;
#159 = CYLINDRICAL_SURFACE ( 'NONE', #70, 0.1966536494999999996 ) ;
#160 = DIRECTION ( 'NONE',  ( -0.1736481776669311639, 2.126576849575783008E-17, 0.9848077530122080203 ) ) ;
#161 = DIRECTION ( 'NONE',  ( -1.224646799147353207E-16, -0.0000000000000000000, -1.000000000000000000 ) ) ;
#162 = DIRECTION ( 'NONE',  ( 0.0000000000000000000, 0.0000000000000000000, -1.000000000000000000 ) ) ;
#163 = DIRECTION ( 'NONE',  ( -0.0000000000000000000, -0.0000000000000000000, -1.000000000000000000 ) ) ;
#164 = EDGE_CURVE ( 'NONE', #232, #32, #91, .T. ) ;
#165 = DIRECTION ( 'NONE',  ( -1.224646799147353207E-16, -0.0000000000000000000, -1.000000000000000000 ) ) ;
#166 = CONICAL_SURFACE ( 'NONE', #37, 0.1818504999999994431, 0.7853981633974403964 ) ;
#167 = VERTEX_POINT ( 'NONE', #204 ) ;
#168 = EDGE_LOOP ( 'NONE', ( #102, #187, #96, #82 ) ) ;
#169 = ORIENTED_EDGE ( 'NONE', *, *, #150, .T. ) ;
#170 = VERTEX_POINT ( 'NONE', #287 ) ;
#171 = VECTOR ( 'NONE', #160, 39.37007874015747433 ) ;
#172 = EDGE_CURVE ( 'NONE', #52, #174, #268, .T. ) ;
#173 = EDGE_CURVE ( 'NONE', #111, #206, #223, .T. ) ;
#174 = VERTEX_POINT ( 'NONE', #117 ) ;
#175 = LINE ( 'NONE', #139, #146 ) ;
#176 = DIRECTION ( 'NONE',  ( -1.224646799147353207E-16, -0.0000000000000000000, -1.000000000000000000 ) ) ;
#177 = DIRECTION ( 'NONE',  ( 1.000000000000000000, 0.0000000000000000000, 0.0000000000000000000 ) ) ;
#178 = AXIS2_PLACEMENT_3D ( 'NONE', #250, #163, #58 ) ;
#179 = FACE_OUTER_BOUND ( 'NONE', #26, .T. ) ;
#180 = DIRECTION ( 'NONE',  ( 1.224646799147353207E-16, 0.0000000000000000000, 1.000000000000000000 ) ) ;
#181 = DIMENSIONAL_EXPONENTS ( 1.000000000000000000, 0.0000000000000000000, 0.0000000000000000000, 0.0000000000000000000, 0.0000000000000000000, 0.0000000000000000000, 0.0000000000000000000 ) ;
#182 =( LENGTH_UNIT ( ) NAMED_UNIT ( * ) SI_UNIT ( $, .METRE. ) );
#183 = AXIS2_PLACEMENT_3D ( 'NONE', #289, #89, #15 ) ;
#184 =( GEOMETRIC_REPRESENTATION_CONTEXT ( 3 ) GLOBAL_UNCERTAINTY_ASSIGNED_CONTEXT ( ( #224 ) ) GLOBAL_UNIT_ASSIGNED_CONTEXT ( ( #64, #65, #221 ) ) REPRESENTATION_CONTEXT ( 'NONE', 'WORKASPACE' ) );
#185 = CYLINDRICAL_SURFACE ( 'NONE', #72, 0.1968504999999999838 ) ;
#186 = DIRECTION ( 'NONE',  ( -1.000000000000000000, 0.0000000000000000000, 0.0000000000000000000 ) ) ;
#187 = ORIENTED_EDGE ( 'NONE', *, *, #34, .T. ) ;
#188 = CYLINDRICAL_SURFACE ( 'NONE', #178, 0.1968504999999999838 ) ;
#189 = ORIENTED_EDGE ( 'NONE', *, *, #116, .F. ) ;
#190 = FILL_AREA_STYLE ('',( #240 ) ) ;
#191 = AXIS2_PLACEMENT_3D ( 'NONE', #275, #55, #296 ) ;
#192 = SURFACE_SIDE_STYLE ('',( #194 ) ) ;
#193 = ADVANCED_FACE ( 'NONE', ( #71 ), #159, .T. ) ;
#194 = SURFACE_STYLE_FILL_AREA ( #190 ) ;
#195 = CARTESIAN_POINT ( 'NONE',  ( 1.205361061354380629E-16, 0.0000000000000000000, 0.9842519999999999047 ) ) ;
#196 = CONICAL_SURFACE ( 'NONE', #235, 0.1966536494999999996, 0.1745329251994338637 ) ;
#197 = CARTESIAN_POINT ( 'NONE',  ( 0.0000000000000000000, 0.0000000000000000000, 4.724409000000001413 ) ) ;
#198 = COLOUR_RGB ( '',0.7921568627450980005, 0.8196078431372548767, 0.9333333333333333481 ) ;
#199 = FACE_OUTER_BOUND ( 'NONE', #282, .T. ) ;
#200 = CARTESIAN_POINT ( 'NONE',  ( 0.0000000000000000000, 0.0000000000000000000, 4.709409000000000844 ) ) ;
#201 = EDGE_CURVE ( 'NONE', #167, #174, #126, .T. ) ;
#202 = STYLED_ITEM ( 'NONE', ( #286 ), #2 ) ;
#203 = CARTESIAN_POINT ( 'NONE',  ( 0.1818504999999994431, 2.318874837419505661E-17, 4.724409000000001413 ) ) ;
#204 = CARTESIAN_POINT ( 'NONE',  ( 0.1968505000000001226, 2.410723347355561878E-17, 0.9853683946618325695 ) ) ;
#205 = CARTESIAN_POINT ( 'NONE',  ( 0.0000000000000000000, 0.0000000000000000000, 4.724409000000001413 ) ) ;
#206 = VERTEX_POINT ( 'NONE', #291 ) ;
#207 = AXIS2_PLACEMENT_3D ( 'NONE', #205, #231, #186 ) ;
#208 = DIRECTION ( 'NONE',  ( -1.000000000000000000, 0.0000000000000000000, 1.224646799147353207E-16 ) ) ;
#209 = LINE ( 'NONE', #294, #216 ) ;
#210 = PRODUCT_DEFINITION_CONTEXT ( 'detailed design', #98, 'design' ) ;
#211 = EDGE_CURVE ( 'NONE', #32, #132, #175, .T. ) ;
#212 = EDGE_LOOP ( 'NONE', ( #241, #243, #66, #260 ) ) ;
#213 = DIRECTION ( 'NONE',  ( 0.0000000000000000000, 0.0000000000000000000, 1.000000000000000000 ) ) ;
#214 = EDGE_LOOP ( 'NONE', ( #263, #299 ) ) ;
#215 =( GEOMETRIC_REPRESENTATION_CONTEXT ( 3 ) GLOBAL_UNCERTAINTY_ASSIGNED_CONTEXT ( ( #21 ) ) GLOBAL_UNIT_ASSIGNED_CONTEXT ( ( #86, #284, #152 ) ) REPRESENTATION_CONTEXT ( 'NONE', 'WORKASPACE' ) );
#216 = VECTOR ( 'NONE', #256, 39.37007874015748143 ) ;
#217 = SURFACE_STYLE_USAGE ( .BOTH. , #236 ) ;
#218 = ORIENTED_EDGE ( 'NONE', *, *, #53, .F. ) ;
#219 = ORIENTED_EDGE ( 'NONE', *, *, #100, .T. ) ;
#220 = PRODUCT_DEFINITION ( 'UNKNOWN', '', #134, #210 ) ;
#221 =( NAMED_UNIT ( * ) SI_UNIT ( $, .STERADIAN. ) SOLID_ANGLE_UNIT ( ) );
#222 = DIRECTION ( 'NONE',  ( -1.224646799147353207E-16, -0.0000000000000000000, -1.000000000000000000 ) ) ;
#223 = CIRCLE ( 'NONE', #83, 0.1818504999999994431 ) ;
#224 = UNCERTAINTY_MEASURE_WITH_UNIT (LENGTH_MEASURE( 1.000000000000000082E-05 ), #64, 'distance_accuracy_value', 'NONE');
#225 = CARTESIAN_POINT ( 'NONE',  ( 0.0000000000000000000, 0.0000000000000000000, 4.724409000000001413 ) ) ;
#226 = CARTESIAN_POINT ( 'NONE',  ( 0.0000000000000000000, 0.0000000000000000000, 4.724409000000001413 ) ) ;
#227 = LINE ( 'NONE', #155, #242 ) ;
#228 = AXIS2_PLACEMENT_3D ( 'NONE', #252, #145, #208 ) ;
#229 = DIRECTION ( 'NONE',  ( 0.0000000000000000000, 0.0000000000000000000, -1.000000000000000000 ) ) ;
#230 = ADVANCED_FACE ( 'NONE', ( #179 ), #166, .T. ) ;
#231 = DIRECTION ( 'NONE',  ( 0.0000000000000000000, 0.0000000000000000000, -1.000000000000000000 ) ) ;
#232 = VERTEX_POINT ( 'NONE', #27 ) ;
#233 = CONICAL_SURFACE ( 'NONE', #207, 0.1818504999999994431, 0.7853981633974403964 ) ;
#234 = VERTEX_POINT ( 'NONE', #76 ) ;
#235 = AXIS2_PLACEMENT_3D ( 'NONE', #195, #88, #265 ) ;
#236 = SURFACE_SIDE_STYLE ('',( #148 ) ) ;
#237 = ORIENTED_EDGE ( 'NONE', *, *, #122, .F. ) ;
#238 = EDGE_CURVE ( 'NONE', #232, #234, #79, .T. ) ;
#239 = ORIENTED_EDGE ( 'NONE', *, *, #150, .F. ) ;
#240 = FILL_AREA_STYLE_COLOUR ( '', #198 ) ;
#241 = ORIENTED_EDGE ( 'NONE', *, *, #34, .F. ) ;
#242 = VECTOR ( 'NONE', #115, 39.37007874015748143 ) ;
#243 = ORIENTED_EDGE ( 'NONE', *, *, #276, .T. ) ;
#244 = DIRECTION ( 'NONE',  ( 1.000000000000000000, 0.0000000000000000000, 0.0000000000000000000 ) ) ;
#245 = DIRECTION ( 'NONE',  ( 1.000000000000000000, 0.0000000000000000000, 0.0000000000000000000 ) ) ;
#246 = EDGE_CURVE ( 'NONE', #234, #132, #20, .T. ) ;
#247 = DIRECTION ( 'NONE',  ( -1.224646799147353207E-16, -0.0000000000000000000, -1.000000000000000000 ) ) ;
#248 = PLANE ( 'NONE',  #283 ) ;
#249 = DIRECTION ( 'NONE',  ( 1.000000000000000000, 0.0000000000000000000, 0.0000000000000000000 ) ) ;
#250 = CARTESIAN_POINT ( 'NONE',  ( 0.0000000000000000000, 0.0000000000000000000, 4.724409000000001413 ) ) ;
#251 = EDGE_CURVE ( 'NONE', #206, #52, #209, .T. ) ;
#252 = CARTESIAN_POINT ( 'NONE',  ( 2.949332346337811403E-33, 0.0000000000000000000, 2.408312624008205170E-17 ) ) ;
#253 = ADVANCED_FACE ( 'NONE', ( #123 ), #233, .T. ) ;
#254 = AXIS2_PLACEMENT_3D ( 'NONE', #200, #270, #244 ) ;
#255 = CIRCLE ( 'NONE', #30, 0.1968504999999999838 ) ;
#256 = DIRECTION ( 'NONE',  ( -0.7071067811865419106, 0.0000000000000000000, -0.7071067811865531239 ) ) ;
#257 = EDGE_LOOP ( 'NONE', ( #239, #67, #131, #24 ) ) ;
#258 =( LENGTH_UNIT ( ) NAMED_UNIT ( * ) SI_UNIT ( $, .METRE. ) );
#259 = ORIENTED_EDGE ( 'NONE', *, *, #122, .T. ) ;
#260 = ORIENTED_EDGE ( 'NONE', *, *, #201, .F. ) ;
#261 = CARTESIAN_POINT ( 'NONE',  ( 0.0000000000000000000, 0.0000000000000000000, 0.0000000000000000000 ) ) ;
#262 = LENGTH_MEASURE_WITH_UNIT ( LENGTH_MEASURE( 0.02539999999999999897 ), #258 );
#263 = ORIENTED_EDGE ( 'NONE', *, *, #246, .T. ) ;
#264 = CIRCLE ( 'NONE', #254, 0.1968504999999999838 ) ;
#265 = DIRECTION ( 'NONE',  ( 1.000000000000000000, 0.0000000000000000000, 0.0000000000000000000 ) ) ;
#266 = DIRECTION ( 'NONE',  ( 0.0000000000000000000, 0.0000000000000000000, 1.000000000000000000 ) ) ;
#267 = ADVANCED_FACE ( 'NONE', ( #95 ), #185, .T. ) ;
#268 = LINE ( 'NONE', #49, #142 ) ;
#269 = AXIS2_PLACEMENT_3D ( 'NONE', #45, #161, #249 ) ;
#270 = DIRECTION ( 'NONE',  ( 0.0000000000000000000, 0.0000000000000000000, -1.000000000000000000 ) ) ;
#271 = APPLICATION_CONTEXT ( 'automotive_design' ) ;
#272 = DIMENSIONAL_EXPONENTS ( 1.000000000000000000, 0.0000000000000000000, 0.0000000000000000000, 0.0000000000000000000, 0.0000000000000000000, 0.0000000000000000000, 0.0000000000000000000 ) ;
#273 = CARTESIAN_POINT ( 'NONE',  ( 1.205361061354380629E-16, 0.0000000000000000000, 0.9842519999999999047 ) ) ;
#274 = PRODUCT_RELATED_PRODUCT_CATEGORY ( 'part', '', ( #129 ) ) ;
#275 = CARTESIAN_POINT ( 'NONE',  ( 0.0000000000000000000, 0.0000000000000000000, 0.0000000000000000000 ) ) ;
#276 = EDGE_CURVE ( 'NONE', #170, #52, #255, .T. ) ;
#277 = CIRCLE ( 'NONE', #183, 0.1966536494999999996 ) ;
#278 = PLANE ( 'NONE',  #191 ) ;
#279 = ORIENTED_EDGE ( 'NONE', *, *, #246, .F. ) ;
#280 = CARTESIAN_POINT ( 'NONE',  ( 0.0000000000000000000, 0.0000000000000000000, 4.724409000000001413 ) ) ;
#281 = VECTOR ( 'NONE', #165, 39.37007874015748143 ) ;
#282 = EDGE_LOOP ( 'NONE', ( #151, #149, #279, #133 ) ) ;
#283 = AXIS2_PLACEMENT_3D ( 'NONE', #225, #266, #118 ) ;
#284 =( NAMED_UNIT ( * ) PLANE_ANGLE_UNIT ( ) SI_UNIT ( $, .RADIAN. ) );
#285 = PRESENTATION_LAYER_ASSIGNMENT (  '', '', ( #202 ) ) ;
#286 = PRESENTATION_STYLE_ASSIGNMENT (( #106 ) ) ;
#287 = CARTESIAN_POINT ( 'NONE',  ( 0.1968504999999999838, 2.410723347355560646E-17, 4.709409000000000844 ) ) ;
#288 = EDGE_CURVE ( 'NONE', #206, #111, #57, .T. ) ;
#289 = CARTESIAN_POINT ( 'NONE',  ( 1.205361061354380629E-16, 0.0000000000000000000, 0.9842519999999999047 ) ) ;
#290 = DIRECTION ( 'NONE',  ( -1.000000000000000000, 0.0000000000000000000, 1.224646799147353207E-16 ) ) ;
#291 = CARTESIAN_POINT ( 'NONE',  ( -0.1818504999999994431, 0.0000000000000000000, 4.724409000000001413 ) ) ;
#292 = ADVANCED_FACE ( 'NONE', ( #54 ), #188, .T. ) ;
#293 = DIRECTION ( 'NONE',  ( -1.000000000000000000, 0.0000000000000000000, 0.0000000000000000000 ) ) ;
#294 = CARTESIAN_POINT ( 'NONE',  ( -0.1818504999999994431, 0.0000000000000000000, 4.724409000000001413 ) ) ;
#295 = PRODUCT_DEFINITION_SHAPE ( 'NONE', 'NONE',  #220 ) ;
#296 = DIRECTION ( 'NONE',  ( 1.000000000000000000, 0.0000000000000000000, -0.0000000000000000000 ) ) ;
#297 = ADVANCED_FACE ( 'NONE', ( #127 ), #278, .F. ) ;
#298 = CARTESIAN_POINT ( 'NONE',  ( 0.0000000000000000000, 0.0000000000000000000, 4.709409000000000844 ) ) ;
#299 = ORIENTED_EDGE ( 'NONE', *, *, #4, .T. ) ;
ENDSEC;
END-ISO-10303-21;
