ISO-10303-21;
HEADER;
FILE_DESCRIPTION (( 'STEP AP214' ),
    '1' );
FILE_NAME ('Micro_AEMM-025-2X.STEP',
    '2022-03-15T14:23:35',
    ( '' ),
    ( '' ),
    'SwSTEP 2.0',
    'SolidWorks 2022',
    '' );
FILE_SCHEMA (( 'AUTOMOTIVE_DESIGN' ));
ENDSEC;

DATA;
#1 = EDGE_LOOP ( 'NONE', ( #4, #142, #123, #117 ) ) ;
#2 = APPLICATION_PROTOCOL_DEFINITION ( 'draft international standard', 'automotive_design', 1998, #173 ) ;
#3 = FACE_OUTER_BOUND ( 'NONE', #1, .T. ) ;
#4 = ORIENTED_EDGE ( 'NONE', *, *, #159, .F. ) ;
#5 = VECTOR ( 'NONE', #63, 39.37007874015748143 ) ;
#6 = CARTESIAN_POINT ( 'NONE',  ( 0.000000000000000000, 0.000000000000000000, 1.968503999999999809 ) ) ;
#7 = AXIS2_PLACEMENT_3D ( 'NONE', #90, #197, #14 ) ;
#8 = EDGE_CURVE ( 'NONE', #262, #98, #59, .T. ) ;
#9 = DIRECTION ( 'NONE',  ( 0.1736481776669313304, 0.000000000000000000, 0.9848077530122077983 ) ) ;
#10 = DIRECTION ( 'NONE',  ( -1.000000000000000000, 0.000000000000000000, 0.000000000000000000 ) ) ;
#11 = AXIS2_PLACEMENT_3D ( 'NONE', #216, #78, #100 ) ;
#12 = ADVANCED_FACE ( 'NONE', ( #149 ), #287, .T. ) ;
#13 = CARTESIAN_POINT ( 'NONE',  ( 0.000000000000000000, 0.000000000000000000, 1.953504000000000129 ) ) ;
#14 = DIRECTION ( 'NONE',  ( -1.000000000000000000, 0.000000000000000000, 0.000000000000000000 ) ) ;
#15 = CIRCLE ( 'NONE', #155, 0.07874000000000000443 ) ;
#16 =( NAMED_UNIT ( * ) SI_UNIT ( $, .STERADIAN. ) SOLID_ANGLE_UNIT ( ) );
#17 =( NAMED_UNIT ( * ) SI_UNIT ( $, .STERADIAN. ) SOLID_ANGLE_UNIT ( ) );
#18 = CARTESIAN_POINT ( 'NONE',  ( 0.000000000000000000, 0.000000000000000000, 1.968503999999999809 ) ) ;
#19 = DIRECTION ( 'NONE',  ( -1.224646799147353207E-16, -0.000000000000000000, -1.000000000000000000 ) ) ;
#20 = PRESENTATION_STYLE_ASSIGNMENT (( #160 ) ) ;
#21 = UNCERTAINTY_MEASURE_WITH_UNIT (LENGTH_MEASURE( 1.000000000000000082E-05 ), #96, 'distance_accuracy_value', 'NONE');
#22 = AXIS2_PLACEMENT_3D ( 'NONE', #84, #200, #269 ) ;
#23 = DIRECTION ( 'NONE',  ( 0.000000000000000000, 0.000000000000000000, 1.000000000000000000 ) ) ;
#24 = ORIENTED_EDGE ( 'NONE', *, *, #99, .T. ) ;
#25 = LENGTH_MEASURE_WITH_UNIT ( LENGTH_MEASURE( 0.02539999999999999897 ), #139 );
#26 = ORIENTED_EDGE ( 'NONE', *, *, #79, .T. ) ;
#27 = PLANE ( 'NONE',  #238 ) ;
#28 = DIRECTION ( 'NONE',  ( 1.000000000000000000, 0.000000000000000000, 0.000000000000000000 ) ) ;
#29 = VERTEX_POINT ( 'NONE', #288 ) ;
#30 = ORIENTED_EDGE ( 'NONE', *, *, #55, .T. ) ;
#31 = EDGE_CURVE ( 'NONE', #262, #226, #67, .T. ) ;
#32 = LINE ( 'NONE', #124, #267 ) ;
#33 = AXIS2_PLACEMENT_3D ( 'NONE', #80, #35, #146 ) ;
#34 = CIRCLE ( 'NONE', #225, 0.04916328749999999276 ) ;
#35 = DIRECTION ( 'NONE',  ( -0.000000000000000000, -0.000000000000000000, -1.000000000000000000 ) ) ;
#36 = ORIENTED_EDGE ( 'NONE', *, *, #227, .T. ) ;
#37 = CYLINDRICAL_SURFACE ( 'NONE', #172, 0.04916328750000000664 ) ;
#38 = AXIS2_PLACEMENT_3D ( 'NONE', #13, #86, #176 ) ;
#39 = CARTESIAN_POINT ( 'NONE',  ( 0.07874000000000004607, 9.642868896486264672E-18, 0.4039578718853090167 ) ) ;
#40 = PRODUCT_DEFINITION_FORMATION_WITH_SPECIFIED_SOURCE ( 'ANY', '', #223, .NOT_KNOWN. ) ;
#41 = CARTESIAN_POINT ( 'NONE',  ( 4.947057147947202128E-17, 0.000000000000000000, 0.4039578718853090167 ) ) ;
#42 = DIRECTION ( 'NONE',  ( -0.000000000000000000, -0.000000000000000000, -1.000000000000000000 ) ) ;
#43 = PRODUCT_DEFINITION ( 'UNKNOWN', '', #40, #228 ) ;
#44 = ADVANCED_FACE ( 'NONE', ( #3 ), #243, .T. ) ;
#45 = DIRECTION ( 'NONE',  ( 1.000000000000000000, 0.000000000000000000, -0.000000000000000000 ) ) ;
#46 = SURFACE_STYLE_FILL_AREA ( #113 ) ;
#47 = VECTOR ( 'NONE', #186, 39.37007874015747433 ) ;
#48 = ORIENTED_EDGE ( 'NONE', *, *, #76, .T. ) ;
#49 = VERTEX_POINT ( 'NONE', #85 ) ;
#50 = UNCERTAINTY_MEASURE_WITH_UNIT (LENGTH_MEASURE( 1.000000000000000082E-05 ), #109, 'distance_accuracy_value', 'NONE');
#51 = ADVANCED_FACE ( 'NONE', ( #175 ), #215, .T. ) ;
#52 = ORIENTED_EDGE ( 'NONE', *, *, #240, .T. ) ;
#53 = EDGE_LOOP ( 'NONE', ( #56, #69, #30, #247 ) ) ;
#54 =( GEOMETRIC_REPRESENTATION_CONTEXT ( 3 ) GLOBAL_UNCERTAINTY_ASSIGNED_CONTEXT ( ( #132 ) ) GLOBAL_UNIT_ASSIGNED_CONTEXT ( ( #93, #224, #141 ) ) REPRESENTATION_CONTEXT ( 'NONE', 'WORKASPACE' ) );
#55 = EDGE_CURVE ( 'NONE', #277, #49, #214, .T. ) ;
#56 = ORIENTED_EDGE ( 'NONE', *, *, #148, .F. ) ;
#57 = CARTESIAN_POINT ( 'NONE',  ( -0.07874000000000000443, 0.000000000000000000, 1.968503999999999809 ) ) ;
#58 = ORIENTED_EDGE ( 'NONE', *, *, #170, .F. ) ;
#59 = LINE ( 'NONE', #151, #157 ) ;
#60 = DIRECTION ( 'NONE',  ( 0.000000000000000000, 0.000000000000000000, 1.000000000000000000 ) ) ;
#61 = CARTESIAN_POINT ( 'NONE',  ( 0.04916328749999999276, 6.020766267243607560E-18, -9.478001694819074349E-34 ) ) ;
#62 = CARTESIAN_POINT ( 'NONE',  ( 0.07874000000000000443, 9.642868896486258509E-18, 1.968503999999999809 ) ) ;
#63 = DIRECTION ( 'NONE',  ( -1.224646799147353207E-16, -0.000000000000000000, -1.000000000000000000 ) ) ;
#64 = ADVANCED_FACE ( 'NONE', ( #105 ), #126, .T. ) ;
#65 = LINE ( 'NONE', #199, #47 ) ;
#66 = CARTESIAN_POINT ( 'NONE',  ( 0.04916328750000002745, 0.000000000000000000, 0.2362200000000000133 ) ) ;
#67 = CIRCLE ( 'NONE', #196, 0.04916328750000000664 ) ;
#68 = DIRECTION ( 'NONE',  ( -1.224646799147353207E-16, -0.000000000000000000, -1.000000000000000000 ) ) ;
#69 = ORIENTED_EDGE ( 'NONE', *, *, #201, .F. ) ;
#70 = SURFACE_SIDE_STYLE ('',( #46 ) ) ;
#71 = EDGE_LOOP ( 'NONE', ( #127, #24 ) ) ;
#72 = ORIENTED_EDGE ( 'NONE', *, *, #170, .T. ) ;
#73 = DIRECTION ( 'NONE',  ( 1.000000000000000000, 0.000000000000000000, 0.000000000000000000 ) ) ;
#74 = VECTOR ( 'NONE', #233, 39.37007874015748143 ) ;
#75 = ORIENTED_EDGE ( 'NONE', *, *, #191, .F. ) ;
#76 = EDGE_CURVE ( 'NONE', #49, #246, #82, .T. ) ;
#77 = FACE_OUTER_BOUND ( 'NONE', #71, .T. ) ;
#78 = DIRECTION ( 'NONE',  ( 0.000000000000000000, 0.000000000000000000, -1.000000000000000000 ) ) ;
#79 = EDGE_CURVE ( 'NONE', #226, #119, #32, .T. ) ;
#80 = CARTESIAN_POINT ( 'NONE',  ( 0.000000000000000000, 0.000000000000000000, 1.968503999999999809 ) ) ;
#81 = AXIS2_PLACEMENT_3D ( 'NONE', #166, #68, #245 ) ;
#82 = LINE ( 'NONE', #57, #74 ) ;
#83 = MANIFOLD_SOLID_BREP ( 'Cut-Revolve1', #271 ) ;
#84 = CARTESIAN_POINT ( 'NONE',  ( 7.373312137594241536E-34, 0.000000000000000000, 6.020766267243607560E-18 ) ) ;
#85 = CARTESIAN_POINT ( 'NONE',  ( -0.07874000000000000443, 0.000000000000000000, 1.953504000000000129 ) ) ;
#86 = DIRECTION ( 'NONE',  ( 0.000000000000000000, 0.000000000000000000, -1.000000000000000000 ) ) ;
#87 = CARTESIAN_POINT ( 'NONE',  ( 0.000000000000000000, 0.000000000000000000, 0.000000000000000000 ) ) ;
#88 = VECTOR ( 'NONE', #128, 39.37007874015748854 ) ;
#89 = CIRCLE ( 'NONE', #251, 0.07874000000000000443 ) ;
#90 = CARTESIAN_POINT ( 'NONE',  ( 2.892860668945878169E-17, 0.000000000000000000, 0.2362200000000000133 ) ) ;
#91 = DIRECTION ( 'NONE',  ( 1.224646799147353207E-16, 0.000000000000000000, 1.000000000000000000 ) ) ;
#92 = FACE_OUTER_BOUND ( 'NONE', #274, .T. ) ;
#93 =( CONVERSION_BASED_UNIT ( 'INCH', #134 ) LENGTH_UNIT ( ) NAMED_UNIT ( #137 ) );
#94 =( GEOMETRIC_REPRESENTATION_CONTEXT ( 3 ) GLOBAL_UNCERTAINTY_ASSIGNED_CONTEXT ( ( #21 ) ) GLOBAL_UNIT_ASSIGNED_CONTEXT ( ( #96, #130, #16 ) ) REPRESENTATION_CONTEXT ( 'NONE', 'WORKASPACE' ) );
#95 = PLANE ( 'NONE',  #154 ) ;
#96 =( CONVERSION_BASED_UNIT ( 'INCH', #25 ) LENGTH_UNIT ( ) NAMED_UNIT ( #133 ) );
#97 = APPLICATION_PROTOCOL_DEFINITION ( 'draft international standard', 'automotive_design', 1998, #150 ) ;
#98 = VERTEX_POINT ( 'NONE', #178 ) ;
#99 = EDGE_CURVE ( 'NONE', #163, #98, #280, .T. ) ;
#100 = DIRECTION ( 'NONE',  ( -1.000000000000000000, 0.000000000000000000, 0.000000000000000000 ) ) ;
#101 = AXIS2_PLACEMENT_3D ( 'NONE', #6, #279, #102 ) ;
#102 = DIRECTION ( 'NONE',  ( -1.000000000000000000, 0.000000000000000000, 0.000000000000000000 ) ) ;
#103 = AXIS2_PLACEMENT_3D ( 'NONE', #18, #202, #289 ) ;
#104 = FILL_AREA_STYLE_COLOUR ( '', #293 ) ;
#105 = FACE_OUTER_BOUND ( 'NONE', #185, .T. ) ;
#106 =( NAMED_UNIT ( * ) PLANE_ANGLE_UNIT ( ) SI_UNIT ( $, .RADIAN. ) );
#107 = CARTESIAN_POINT ( 'NONE',  ( 7.373312137594241536E-34, 0.000000000000000000, 6.020766267243607560E-18 ) ) ;
#108 = EDGE_CURVE ( 'NONE', #226, #163, #180, .T. ) ;
#109 =( CONVERSION_BASED_UNIT ( 'INCH', #219 ) LENGTH_UNIT ( ) NAMED_UNIT ( #135 ) );
#110 = CARTESIAN_POINT ( 'NONE',  ( 0.04916328750000000664, 6.020766267243608331E-18, -6.020766267243608331E-18 ) ) ;
#111 = DIRECTION ( 'NONE',  ( 1.000000000000000000, 0.000000000000000000, 0.000000000000000000 ) ) ;
#112 = PRODUCT_DEFINITION_SHAPE ( 'NONE', 'NONE',  #43 ) ;
#113 = FILL_AREA_STYLE ('',( #248 ) ) ;
#114 = ORIENTED_EDGE ( 'NONE', *, *, #240, .F. ) ;
#115 = AXIS2_PLACEMENT_3D ( 'NONE', #116, #296, #181 ) ;
#116 = CARTESIAN_POINT ( 'NONE',  ( 0.000000000000000000, 0.000000000000000000, 0.000000000000000000 ) ) ;
#117 = ORIENTED_EDGE ( 'NONE', *, *, #55, .F. ) ;
#118 = CARTESIAN_POINT ( 'NONE',  ( -0.07873999999999994892, 0.000000000000000000, 0.4039578718853090167 ) ) ;
#119 = VERTEX_POINT ( 'NONE', #39 ) ;
#120 = ORIENTED_EDGE ( 'NONE', *, *, #108, .F. ) ;
#121 = AXIS2_PLACEMENT_3D ( 'NONE', #167, #235, #10 ) ;
#122 = ORIENTED_EDGE ( 'NONE', *, *, #159, .T. ) ;
#123 = ORIENTED_EDGE ( 'NONE', *, *, #227, .F. ) ;
#124 = CARTESIAN_POINT ( 'NONE',  ( 0.04916328750000002745, 0.000000000000000000, 0.2362200000000000133 ) ) ;
#125 = VECTOR ( 'NONE', #42, 39.37007874015748143 ) ;
#126 = CYLINDRICAL_SURFACE ( 'NONE', #101, 0.07874000000000000443 ) ;
#127 = ORIENTED_EDGE ( 'NONE', *, *, #191, .T. ) ;
#128 = DIRECTION ( 'NONE',  ( 0.7071067811865502373, 8.659560562354966138E-17, -0.7071067811865446862 ) ) ;
#129 = ADVANCED_FACE ( 'NONE', ( #244 ), #37, .T. ) ;
#130 =( NAMED_UNIT ( * ) PLANE_ANGLE_UNIT ( ) SI_UNIT ( $, .RADIAN. ) );
#131 = SURFACE_SIDE_STYLE ('',( #174 ) ) ;
#132 = UNCERTAINTY_MEASURE_WITH_UNIT (LENGTH_MEASURE( 1.000000000000000082E-05 ), #93, 'distance_accuracy_value', 'NONE');
#133 = DIMENSIONAL_EXPONENTS ( 1.000000000000000000, 0.000000000000000000, 0.000000000000000000, 0.000000000000000000, 0.000000000000000000, 0.000000000000000000, 0.000000000000000000 ) ;
#134 = LENGTH_MEASURE_WITH_UNIT ( LENGTH_MEASURE( 0.02539999999999999897 ), #272 );
#135 = DIMENSIONAL_EXPONENTS ( 1.000000000000000000, 0.000000000000000000, 0.000000000000000000, 0.000000000000000000, 0.000000000000000000, 0.000000000000000000, 0.000000000000000000 ) ;
#136 = CARTESIAN_POINT ( 'NONE',  ( -0.04916328749999997888, 7.831817581864934190E-18, 0.2362200000000000133 ) ) ;
#137 = DIMENSIONAL_EXPONENTS ( 1.000000000000000000, 0.000000000000000000, 0.000000000000000000, 0.000000000000000000, 0.000000000000000000, 0.000000000000000000, 0.000000000000000000 ) ;
#138 = CIRCLE ( 'NONE', #7, 0.04916328750000000664 ) ;
#139 =( LENGTH_UNIT ( ) NAMED_UNIT ( * ) SI_UNIT ( $, .METRE. ) );
#140 = EDGE_LOOP ( 'NONE', ( #120, #256, #187, #144 ) ) ;
#141 =( NAMED_UNIT ( * ) SI_UNIT ( $, .STERADIAN. ) SOLID_ANGLE_UNIT ( ) );
#142 = ORIENTED_EDGE ( 'NONE', *, *, #148, .T. ) ;
#143 = ORIENTED_EDGE ( 'NONE', *, *, #108, .T. ) ;
#144 = ORIENTED_EDGE ( 'NONE', *, *, #99, .F. ) ;
#145 = AXIS2_PLACEMENT_3D ( 'NONE', #211, #205, #188 ) ;
#146 = DIRECTION ( 'NONE',  ( -1.000000000000000000, 0.000000000000000000, 0.000000000000000000 ) ) ;
#147 = ORIENTED_EDGE ( 'NONE', *, *, #31, .F. ) ;
#148 = EDGE_CURVE ( 'NONE', #29, #195, #221, .T. ) ;
#149 = FACE_OUTER_BOUND ( 'NONE', #53, .T. ) ;
#150 = APPLICATION_CONTEXT ( 'automotive_design' ) ;
#151 = CARTESIAN_POINT ( 'NONE',  ( -0.04916328750000000664, 0.000000000000000000, 6.020766267243608331E-18 ) ) ;
#152 = CARTESIAN_POINT ( 'NONE',  ( 0.07874000000000000443, 9.642868896486258509E-18, 1.953504000000000129 ) ) ;
#153 = FACE_OUTER_BOUND ( 'NONE', #193, .T. ) ;
#154 = AXIS2_PLACEMENT_3D ( 'NONE', #253, #23, #45 ) ;
#155 = AXIS2_PLACEMENT_3D ( 'NONE', #208, #222, #73 ) ;
#156 = CARTESIAN_POINT ( 'NONE',  ( 0.06374000000000018540, 7.805898697765251255E-18, 1.968503999999999809 ) ) ;
#157 = VECTOR ( 'NONE', #232, 39.37007874015748143 ) ;
#158 = DIRECTION ( 'NONE',  ( 0.000000000000000000, 0.000000000000000000, 1.000000000000000000 ) ) ;
#159 = EDGE_CURVE ( 'NONE', #29, #277, #192, .T. ) ;
#160 = SURFACE_STYLE_USAGE ( .BOTH. , #70 ) ;
#161 = ORIENTED_EDGE ( 'NONE', *, *, #79, .F. ) ;
#162 = CARTESIAN_POINT ( 'NONE',  ( -0.06374000000000018540, 0.000000000000000000, 1.968503999999999809 ) ) ;
#163 = VERTEX_POINT ( 'NONE', #61 ) ;
#164 = STYLED_ITEM ( 'NONE', ( #241 ), #83 ) ;
#165 = CONICAL_SURFACE ( 'NONE', #207, 0.04916328750000000664, 0.1745329251994338360 ) ;
#166 = CARTESIAN_POINT ( 'NONE',  ( 4.947057147947202128E-17, 0.000000000000000000, 0.4039578718853090167 ) ) ;
#167 = CARTESIAN_POINT ( 'NONE',  ( 0.000000000000000000, 0.000000000000000000, 1.968503999999999809 ) ) ;
#168 = DIRECTION ( 'NONE',  ( -1.224646799147353207E-16, -0.000000000000000000, -1.000000000000000000 ) ) ;
#169 = MECHANICAL_DESIGN_GEOMETRIC_PRESENTATION_REPRESENTATION (  '', ( #183 ), #94 ) ;
#170 = EDGE_CURVE ( 'NONE', #119, #246, #89, .T. ) ;
#171 = ORIENTED_EDGE ( 'NONE', *, *, #182, .F. ) ;
#172 = AXIS2_PLACEMENT_3D ( 'NONE', #87, #242, #204 ) ;
#173 = APPLICATION_CONTEXT ( 'automotive_design' ) ;
#174 = SURFACE_STYLE_FILL_AREA ( #194 ) ;
#175 = FACE_OUTER_BOUND ( 'NONE', #284, .T. ) ;
#176 = DIRECTION ( 'NONE',  ( 1.000000000000000000, 0.000000000000000000, 0.000000000000000000 ) ) ;
#177 = DIRECTION ( 'NONE',  ( -1.224646799147353207E-16, -0.000000000000000000, -1.000000000000000000 ) ) ;
#178 = CARTESIAN_POINT ( 'NONE',  ( -0.04916328749999999276, 0.000000000000000000, 1.204153253448721512E-17 ) ) ;
#179 = CIRCLE ( 'NONE', #38, 0.07874000000000000443 ) ;
#180 = LINE ( 'NONE', #110, #5 ) ;
#181 = DIRECTION ( 'NONE',  ( -1.000000000000000000, 0.000000000000000000, 1.224646799147353207E-16 ) ) ;
#182 = EDGE_CURVE ( 'NONE', #195, #119, #294, .T. ) ;
#183 = STYLED_ITEM ( 'NONE', ( #20 ), #255 ) ;
#184 = CYLINDRICAL_SURFACE ( 'NONE', #115, 0.04916328750000000664 ) ;
#185 = EDGE_LOOP ( 'NONE', ( #36, #212, #249, #252 ) ) ;
#186 = DIRECTION ( 'NONE',  ( -0.1736481776669311639, 2.126576849575782392E-17, 0.9848077530122080203 ) ) ;
#187 = ORIENTED_EDGE ( 'NONE', *, *, #8, .T. ) ;
#188 = DIRECTION ( 'NONE',  ( 1.000000000000000000, 0.000000000000000000, 0.000000000000000000 ) ) ;
#189 = ORIENTED_EDGE ( 'NONE', *, *, #201, .T. ) ;
#190 = CARTESIAN_POINT ( 'NONE',  ( 2.892860668945878169E-17, 0.000000000000000000, 0.2362200000000000133 ) ) ;
#191 = EDGE_CURVE ( 'NONE', #98, #163, #34, .T. ) ;
#192 = CIRCLE ( 'NONE', #103, 0.06374000000000018540 ) ;
#193 = EDGE_LOOP ( 'NONE', ( #114, #259, #26, #72 ) ) ;
#194 = FILL_AREA_STYLE ('',( #104 ) ) ;
#195 = VERTEX_POINT ( 'NONE', #152 ) ;
#196 = AXIS2_PLACEMENT_3D ( 'NONE', #190, #168, #281 ) ;
#197 = DIRECTION ( 'NONE',  ( -1.224646799147353207E-16, -0.000000000000000000, -1.000000000000000000 ) ) ;
#198 = CONICAL_SURFACE ( 'NONE', #145, 0.04916328750000000664, 0.1745329251994338360 ) ;
#199 = CARTESIAN_POINT ( 'NONE',  ( -0.04916328749999997888, 6.020766267243608331E-18, 0.2362200000000000133 ) ) ;
#200 = DIRECTION ( 'NONE',  ( -1.224646799147353207E-16, -0.000000000000000000, -1.000000000000000000 ) ) ;
#201 = EDGE_CURVE ( 'NONE', #277, #29, #203, .T. ) ;
#202 = DIRECTION ( 'NONE',  ( 0.000000000000000000, 0.000000000000000000, 1.000000000000000000 ) ) ;
#203 = CIRCLE ( 'NONE', #268, 0.06374000000000018540 ) ;
#204 = DIRECTION ( 'NONE',  ( -1.000000000000000000, 0.000000000000000000, 1.224646799147353207E-16 ) ) ;
#205 = DIRECTION ( 'NONE',  ( 1.224646799147353207E-16, 0.000000000000000000, 1.000000000000000000 ) ) ;
#206 = CARTESIAN_POINT ( 'NONE',  ( 0.000000000000000000, 0.000000000000000000, 1.968503999999999809 ) ) ;
#207 = AXIS2_PLACEMENT_3D ( 'NONE', #239, #91, #270 ) ;
#208 = CARTESIAN_POINT ( 'NONE',  ( 0.000000000000000000, 0.000000000000000000, 1.953504000000000129 ) ) ;
#209 = ORIENTED_EDGE ( 'NONE', *, *, #8, .F. ) ;
#210 = EDGE_CURVE ( 'NONE', #226, #262, #138, .T. ) ;
#211 = CARTESIAN_POINT ( 'NONE',  ( 2.892860668945878169E-17, 0.000000000000000000, 0.2362200000000000133 ) ) ;
#212 = ORIENTED_EDGE ( 'NONE', *, *, #182, .T. ) ;
#213 = PRODUCT_RELATED_PRODUCT_CATEGORY ( 'part', '', ( #223 ) ) ;
#214 = LINE ( 'NONE', #260, #250 ) ;
#215 = CYLINDRICAL_SURFACE ( 'NONE', #33, 0.07874000000000000443 ) ;
#216 = CARTESIAN_POINT ( 'NONE',  ( 0.000000000000000000, 0.000000000000000000, 1.968503999999999809 ) ) ;
#217 = DIRECTION ( 'NONE',  ( -1.000000000000000000, 0.000000000000000000, 1.224646799147353207E-16 ) ) ;
#218 = DIRECTION ( 'NONE',  ( 0.000000000000000000, 0.000000000000000000, 1.000000000000000000 ) ) ;
#219 = LENGTH_MEASURE_WITH_UNIT ( LENGTH_MEASURE( 0.02539999999999999897 ), #291 );
#220 = ADVANCED_FACE ( 'NONE', ( #153 ), #165, .T. ) ;
#221 = LINE ( 'NONE', #156, #88 ) ;
#222 = DIRECTION ( 'NONE',  ( 0.000000000000000000, 0.000000000000000000, -1.000000000000000000 ) ) ;
#223 = PRODUCT ( 'Micro_AEMM-025-2X', 'Micro_AEMM-025-2X', '', ( #263 ) ) ;
#224 =( NAMED_UNIT ( * ) PLANE_ANGLE_UNIT ( ) SI_UNIT ( $, .RADIAN. ) );
#225 = AXIS2_PLACEMENT_3D ( 'NONE', #107, #19, #217 ) ;
#226 = VERTEX_POINT ( 'NONE', #66 ) ;
#227 = EDGE_CURVE ( 'NONE', #49, #195, #179, .T. ) ;
#228 = PRODUCT_DEFINITION_CONTEXT ( 'detailed design', #173, 'design' ) ;
#229 = CARTESIAN_POINT ( 'NONE',  ( 0.000000000000000000, 0.000000000000000000, 0.000000000000000000 ) ) ;
#230 = AXIS2_PLACEMENT_3D ( 'NONE', #229, #60, #28 ) ;
#231 = ORIENTED_EDGE ( 'NONE', *, *, #31, .T. ) ;
#232 = DIRECTION ( 'NONE',  ( -1.224646799147353207E-16, -0.000000000000000000, -1.000000000000000000 ) ) ;
#233 = DIRECTION ( 'NONE',  ( -0.000000000000000000, -0.000000000000000000, -1.000000000000000000 ) ) ;
#234 = PRESENTATION_LAYER_ASSIGNMENT (  '', '', ( #164 ) ) ;
#235 = DIRECTION ( 'NONE',  ( 0.000000000000000000, 0.000000000000000000, -1.000000000000000000 ) ) ;
#236 = ORIENTED_EDGE ( 'NONE', *, *, #285, .T. ) ;
#237 = SHAPE_DEFINITION_REPRESENTATION ( #112, #255 ) ;
#238 = AXIS2_PLACEMENT_3D ( 'NONE', #206, #158, #297 ) ;
#239 = CARTESIAN_POINT ( 'NONE',  ( 2.892860668945878169E-17, 0.000000000000000000, 0.2362200000000000133 ) ) ;
#240 = EDGE_CURVE ( 'NONE', #262, #246, #65, .T. ) ;
#241 = PRESENTATION_STYLE_ASSIGNMENT (( #292 ) ) ;
#242 = DIRECTION ( 'NONE',  ( -1.224646799147353207E-16, -0.000000000000000000, -1.000000000000000000 ) ) ;
#243 = CONICAL_SURFACE ( 'NONE', #121, 0.06374000000000018540, 0.7853981633974522758 ) ;
#244 = FACE_OUTER_BOUND ( 'NONE', #286, .T. ) ;
#245 = DIRECTION ( 'NONE',  ( 1.000000000000000000, 0.000000000000000000, 0.000000000000000000 ) ) ;
#246 = VERTEX_POINT ( 'NONE', #118 ) ;
#247 = ORIENTED_EDGE ( 'NONE', *, *, #298, .F. ) ;
#248 = FILL_AREA_STYLE_COLOUR ( '', #257 ) ;
#249 = ORIENTED_EDGE ( 'NONE', *, *, #285, .F. ) ;
#250 = VECTOR ( 'NONE', #258, 39.37007874015748854 ) ;
#251 = AXIS2_PLACEMENT_3D ( 'NONE', #41, #177, #266 ) ;
#252 = ORIENTED_EDGE ( 'NONE', *, *, #76, .F. ) ;
#253 = CARTESIAN_POINT ( 'NONE',  ( 0.000000000000000000, 0.000000000000000000, 0.000000000000000000 ) ) ;
#254 = ORIENTED_EDGE ( 'NONE', *, *, #298, .T. ) ;
#255 = ADVANCED_BREP_SHAPE_REPRESENTATION ( 'Micro_AEMM-025-2X', ( #83, #230 ), #54 ) ;
#256 = ORIENTED_EDGE ( 'NONE', *, *, #210, .T. ) ;
#257 = COLOUR_RGB ( '',0.7921568627450980005, 0.8196078431372548767, 0.9333333333333333481 ) ;
#258 = DIRECTION ( 'NONE',  ( -0.7071067811865502373, 0.000000000000000000, -0.7071067811865446862 ) ) ;
#259 = ORIENTED_EDGE ( 'NONE', *, *, #210, .F. ) ;
#260 = CARTESIAN_POINT ( 'NONE',  ( -0.06374000000000018540, 0.000000000000000000, 1.968503999999999809 ) ) ;
#261 = ADVANCED_FACE ( 'NONE', ( #77 ), #95, .F. ) ;
#262 = VERTEX_POINT ( 'NONE', #136 ) ;
#263 = PRODUCT_CONTEXT ( 'NONE', #150, 'mechanical' ) ;
#264 =( GEOMETRIC_REPRESENTATION_CONTEXT ( 3 ) GLOBAL_UNCERTAINTY_ASSIGNED_CONTEXT ( ( #50 ) ) GLOBAL_UNIT_ASSIGNED_CONTEXT ( ( #109, #106, #17 ) ) REPRESENTATION_CONTEXT ( 'NONE', 'WORKASPACE' ) );
#265 = ADVANCED_FACE ( 'NONE', ( #92 ), #27, .T. ) ;
#266 = DIRECTION ( 'NONE',  ( 1.000000000000000000, 0.000000000000000000, 0.000000000000000000 ) ) ;
#267 = VECTOR ( 'NONE', #9, 39.37007874015748143 ) ;
#268 = AXIS2_PLACEMENT_3D ( 'NONE', #295, #218, #111 ) ;
#269 = DIRECTION ( 'NONE',  ( -1.000000000000000000, 0.000000000000000000, 1.224646799147353207E-16 ) ) ;
#270 = DIRECTION ( 'NONE',  ( 1.000000000000000000, 0.000000000000000000, 0.000000000000000000 ) ) ;
#271 = CLOSED_SHELL ( 'NONE', ( #129, #290, #44, #64, #51, #265, #12, #220, #275, #261 ) ) ;
#272 =( LENGTH_UNIT ( ) NAMED_UNIT ( * ) SI_UNIT ( $, .METRE. ) );
#273 = EDGE_LOOP ( 'NONE', ( #147, #52, #236, #161 ) ) ;
#274 = EDGE_LOOP ( 'NONE', ( #189, #122 ) ) ;
#275 = ADVANCED_FACE ( 'NONE', ( #276 ), #184, .T. ) ;
#276 = FACE_OUTER_BOUND ( 'NONE', #140, .T. ) ;
#277 = VERTEX_POINT ( 'NONE', #162 ) ;
#278 = MECHANICAL_DESIGN_GEOMETRIC_PRESENTATION_REPRESENTATION (  '', ( #164 ), #264 ) ;
#279 = DIRECTION ( 'NONE',  ( -0.000000000000000000, -0.000000000000000000, -1.000000000000000000 ) ) ;
#280 = CIRCLE ( 'NONE', #22, 0.04916328749999999276 ) ;
#281 = DIRECTION ( 'NONE',  ( -1.000000000000000000, 0.000000000000000000, 0.000000000000000000 ) ) ;
#282 = CIRCLE ( 'NONE', #81, 0.07874000000000000443 ) ;
#283 = PRESENTATION_LAYER_ASSIGNMENT (  '', '', ( #183 ) ) ;
#284 = EDGE_LOOP ( 'NONE', ( #171, #254, #48, #58 ) ) ;
#285 = EDGE_CURVE ( 'NONE', #246, #119, #282, .T. ) ;
#286 = EDGE_LOOP ( 'NONE', ( #231, #143, #75, #209 ) ) ;
#287 = CONICAL_SURFACE ( 'NONE', #11, 0.06374000000000018540, 0.7853981633974522758 ) ;
#288 = CARTESIAN_POINT ( 'NONE',  ( 0.06374000000000018540, 8.724383797125754882E-18, 1.968503999999999809 ) ) ;
#289 = DIRECTION ( 'NONE',  ( 1.000000000000000000, 0.000000000000000000, 0.000000000000000000 ) ) ;
#290 = ADVANCED_FACE ( 'NONE', ( #299 ), #198, .T. ) ;
#291 =( LENGTH_UNIT ( ) NAMED_UNIT ( * ) SI_UNIT ( $, .METRE. ) );
#292 = SURFACE_STYLE_USAGE ( .BOTH. , #131 ) ;
#293 = COLOUR_RGB ( '',0.7921568627450980005, 0.8196078431372548767, 0.9333333333333333481 ) ;
#294 = LINE ( 'NONE', #62, #125 ) ;
#295 = CARTESIAN_POINT ( 'NONE',  ( 0.000000000000000000, 0.000000000000000000, 1.968503999999999809 ) ) ;
#296 = DIRECTION ( 'NONE',  ( -1.224646799147353207E-16, -0.000000000000000000, -1.000000000000000000 ) ) ;
#297 = DIRECTION ( 'NONE',  ( 1.000000000000000000, 0.000000000000000000, -0.000000000000000000 ) ) ;
#298 = EDGE_CURVE ( 'NONE', #195, #49, #15, .T. ) ;
#299 = FACE_OUTER_BOUND ( 'NONE', #273, .T. ) ;
ENDSEC;
END-ISO-10303-21;
