ISO-10303-21;
HEADER;
FILE_DESCRIPTION (( 'STEP AP214' ),
    '1' );
FILE_NAME ('Micro_GEC-001-2-020.STEP',
    '2021-09-03T17:00:09',
    ( '' ),
    ( '' ),
    'SwSTEP 2.0',
    'SolidWorks 2020',
    '' );
FILE_SCHEMA (( 'AUTOMOTIVE_DESIGN' ));
ENDSEC;

DATA;
#1 = ADVANCED_FACE ( 'NONE', ( #246 ), #273, .T. ) ;
#2 = CARTESIAN_POINT ( 'NONE',  ( 1.840442857284759413E-16, 0.0000000000000000000, 1.502835640909809589 ) ) ;
#3 = CARTESIAN_POINT ( 'NONE',  ( 2.449293598294706769E-18, 0.0000000000000000000, 0.02000000000000000042 ) ) ;
#4 = FACE_OUTER_BOUND ( 'NONE', #297, .T. ) ;
#5 = AXIS2_PLACEMENT_3D ( 'NONE', #76, #271, #124 ) ;
#6 = SURFACE_SIDE_STYLE ('',( #63 ) ) ;
#7 = CIRCLE ( 'NONE', #300, 0.4850000000000009859 ) ;
#8 = CARTESIAN_POINT ( 'NONE',  ( -0.4999999999999997780, 0.0000000000000000000, 1.502835640909809589 ) ) ;
#9 = FACE_OUTER_BOUND ( 'NONE', #221, .T. ) ;
#10 = FACE_OUTER_BOUND ( 'NONE', #23, .T. ) ;
#11 = DIRECTION ( 'NONE',  ( -0.0000000000000000000, -0.0000000000000000000, -1.000000000000000000 ) ) ;
#12 = ORIENTED_EDGE ( 'NONE', *, *, #21, .F. ) ;
#13 = EDGE_CURVE ( 'NONE', #244, #133, #58, .T. ) ;
#14 = LINE ( 'NONE', #296, #148 ) ;
#15 = AXIS2_PLACEMENT_3D ( 'NONE', #115, #93, #207 ) ;
#16 = DIRECTION ( 'NONE',  ( -0.0000000000000000000, -0.0000000000000000000, -1.000000000000000000 ) ) ;
#17 = LINE ( 'NONE', #191, #233 ) ;
#18 = ADVANCED_FACE ( 'NONE', ( #10 ), #318, .T. ) ;
#19 = UNCERTAINTY_MEASURE_WITH_UNIT (LENGTH_MEASURE( 1.000000000000000082E-05 ), #111, 'distance_accuracy_value', 'NONE');
#20 = CARTESIAN_POINT ( 'NONE',  ( -0.4994999999999996665, 6.120172378738897351E-17, 1.500000000000000222 ) ) ;
#21 = EDGE_CURVE ( 'NONE', #79, #85, #231, .T. ) ;
#22 = EDGE_CURVE ( 'NONE', #247, #85, #267, .T. ) ;
#23 = EDGE_LOOP ( 'NONE', ( #278, #198, #275, #167 ) ) ;
#24 = ORIENTED_EDGE ( 'NONE', *, *, #241, .T. ) ;
#25 = VERTEX_POINT ( 'NONE', #98 ) ;
#26 =( GEOMETRIC_REPRESENTATION_CONTEXT ( 3 ) GLOBAL_UNCERTAINTY_ASSIGNED_CONTEXT ( ( #67 ) ) GLOBAL_UNIT_ASSIGNED_CONTEXT ( ( #36, #264, #182 ) ) REPRESENTATION_CONTEXT ( 'NONE', 'WORKASPACE' ) );
#27 = ORIENTED_EDGE ( 'NONE', *, *, #338, .F. ) ;
#28 = ORIENTED_EDGE ( 'NONE', *, *, #101, .F. ) ;
#29 = DIMENSIONAL_EXPONENTS ( 1.000000000000000000, 0.0000000000000000000, 0.0000000000000000000, 0.0000000000000000000, 0.0000000000000000000, 0.0000000000000000000, 0.0000000000000000000 ) ;
#30 = LENGTH_MEASURE_WITH_UNIT ( LENGTH_MEASURE( 0.02539999999999999897 ), #265 );
#31 = PRESENTATION_LAYER_ASSIGNMENT (  '', '', ( #335 ) ) ;
#32 = DIRECTION ( 'NONE',  ( -1.000000000000000000, 0.0000000000000000000, 0.0000000000000000000 ) ) ;
#33 = FACE_OUTER_BOUND ( 'NONE', #222, .T. ) ;
#34 = ADVANCED_FACE ( 'NONE', ( #9 ), #39, .T. ) ;
#35 = CARTESIAN_POINT ( 'NONE',  ( 0.0000000000000000000, 0.0000000000000000000, 0.0000000000000000000 ) ) ;
#36 =( CONVERSION_BASED_UNIT ( 'INCH', #177 ) LENGTH_UNIT ( ) NAMED_UNIT ( #29 ) );
#37 = DIRECTION ( 'NONE',  ( -0.7071067811865443531, 0.0000000000000000000, -0.7071067811865507924 ) ) ;
#38 = ADVANCED_FACE ( 'NONE', ( #143 ), #69, .T. ) ;
#39 = TOROIDAL_SURFACE ( 'NONE', #80, 0.4794999999999999818, 0.02000000000000000042 ) ;
#40 = FILL_AREA_STYLE_COLOUR ( '', #102 ) ;
#41 = TOROIDAL_SURFACE ( 'NONE', #52, 0.4794999999999999818, 0.02000000000000000042 ) ;
#42 = SURFACE_SIDE_STYLE ('',( #254 ) ) ;
#43 =( NAMED_UNIT ( * ) SI_UNIT ( $, .STERADIAN. ) SOLID_ANGLE_UNIT ( ) );
#44 = DIRECTION ( 'NONE',  ( 1.000000000000000000, 0.0000000000000000000, 0.0000000000000000000 ) ) ;
#45 = CARTESIAN_POINT ( 'NONE',  ( -0.4994999999999999440, 0.0000000000000000000, 6.117110761741028667E-17 ) ) ;
#46 = EDGE_CURVE ( 'NONE', #195, #247, #162, .T. ) ;
#47 = DIRECTION ( 'NONE',  ( -1.000000000000000000, 0.0000000000000000000, 1.224646799147353207E-16 ) ) ;
#48 = PRODUCT_RELATED_PRODUCT_CATEGORY ( 'part', '', ( #291 ) ) ;
#49 = CARTESIAN_POINT ( 'NONE',  ( 0.0000000000000000000, 0.0000000000000000000, 0.0000000000000000000 ) ) ;
#50 = AXIS2_PLACEMENT_3D ( 'NONE', #259, #158, #32 ) ;
#51 = ORIENTED_EDGE ( 'NONE', *, *, #214, .F. ) ;
#52 = AXIS2_PLACEMENT_3D ( 'NONE', #229, #122, #72 ) ;
#53 = EDGE_LOOP ( 'NONE', ( #103, #82 ) ) ;
#54 = ADVANCED_FACE ( 'NONE', ( #172 ), #179, .T. ) ;
#55 = EDGE_LOOP ( 'NONE', ( #138, #245, #57, #350 ) ) ;
#56 = ADVANCED_FACE ( 'NONE', ( #142 ), #269, .T. ) ;
#57 = ORIENTED_EDGE ( 'NONE', *, *, #113, .T. ) ;
#58 = CIRCLE ( 'NONE', #216, 0.4994999999999999440 ) ;
#59 = VERTEX_POINT ( 'NONE', #176 ) ;
#60 = ADVANCED_FACE ( 'NONE', ( #4 ), #329, .T. ) ;
#61 = DIRECTION ( 'NONE',  ( 1.000000000000000000, 0.0000000000000000000, 0.0000000000000000000 ) ) ;
#62 = VECTOR ( 'NONE', #129, 39.37007874015748143 ) ;
#63 = SURFACE_STYLE_FILL_AREA ( #209 ) ;
#64 = DIRECTION ( 'NONE',  ( -1.224646799147353207E-16, -0.0000000000000000000, -1.000000000000000000 ) ) ;
#65 = CARTESIAN_POINT ( 'NONE',  ( 0.5000000000000000000, 6.123233995736766036E-17, 3.985000000000000764 ) ) ;
#66 = DIRECTION ( 'NONE',  ( -1.224646799147353207E-16, -0.0000000000000000000, -1.000000000000000000 ) ) ;
#67 = UNCERTAINTY_MEASURE_WITH_UNIT (LENGTH_MEASURE( 1.000000000000000082E-05 ), #36, 'distance_accuracy_value', 'NONE');
#68 = CARTESIAN_POINT ( 'NONE',  ( 0.4794999999999999818, 0.0000000000000000000, 0.02000000000000000042 ) ) ;
#69 = CONICAL_SURFACE ( 'NONE', #287, 0.4994999999999998885, 0.1745329251994339192 ) ;
#70 = VECTOR ( 'NONE', #215, 39.37007874015748143 ) ;
#71 = CARTESIAN_POINT ( 'NONE',  ( 0.4994999999999999440, 6.117110761741028667E-17, -6.117110761741028667E-17 ) ) ;
#72 = DIRECTION ( 'NONE',  ( 1.000000000000000000, 0.0000000000000000000, 0.0000000000000000000 ) ) ;
#73 = CARTESIAN_POINT ( 'NONE',  ( 1.836970198721030181E-16, 0.0000000000000000000, 1.500000000000000222 ) ) ;
#74 = FACE_OUTER_BOUND ( 'NONE', #53, .T. ) ;
#75 = CIRCLE ( 'NONE', #308, 0.4794999999999999818 ) ;
#76 = CARTESIAN_POINT ( 'NONE',  ( 1.840442857284759413E-16, 0.0000000000000000000, 1.502835640909809589 ) ) ;
#77 = PLANE ( 'NONE',  #249 ) ;
#78 = DIRECTION ( 'NONE',  ( 1.000000000000000000, 0.0000000000000000000, 0.0000000000000000000 ) ) ;
#79 = VERTEX_POINT ( 'NONE', #89 ) ;
#80 = AXIS2_PLACEMENT_3D ( 'NONE', #3, #341, #131 ) ;
#81 = VERTEX_POINT ( 'NONE', #206 ) ;
#82 = ORIENTED_EDGE ( 'NONE', *, *, #340, .T. ) ;
#83 = ORIENTED_EDGE ( 'NONE', *, *, #101, .T. ) ;
#84 = ORIENTED_EDGE ( 'NONE', *, *, #226, .T. ) ;
#85 = VERTEX_POINT ( 'NONE', #8 ) ;
#86 = AXIS2_PLACEMENT_3D ( 'NONE', #2, #66, #312 ) ;
#87 = EDGE_LOOP ( 'NONE', ( #24, #280, #192, #51 ) ) ;
#88 =( NAMED_UNIT ( * ) PLANE_ANGLE_UNIT ( ) SI_UNIT ( $, .RADIAN. ) );
#89 = CARTESIAN_POINT ( 'NONE',  ( 0.5000000000000002220, 6.123233995736768501E-17, 1.502835640909809589 ) ) ;
#90 = MECHANICAL_DESIGN_GEOMETRIC_PRESENTATION_REPRESENTATION (  '', ( #335 ), #189 ) ;
#91 = CIRCLE ( 'NONE', #294, 0.01999999999999999001 ) ;
#92 = DIRECTION ( 'NONE',  ( 0.0000000000000000000, 0.0000000000000000000, -1.000000000000000000 ) ) ;
#93 = DIRECTION ( 'NONE',  ( -1.224646799147353207E-16, -0.0000000000000000000, -1.000000000000000000 ) ) ;
#94 = VECTOR ( 'NONE', #37, 39.37007874015748143 ) ;
#95 =( LENGTH_UNIT ( ) NAMED_UNIT ( * ) SI_UNIT ( $, .METRE. ) );
#96 = PRESENTATION_LAYER_ASSIGNMENT (  '', '', ( #324 ) ) ;
#97 = DIRECTION ( 'NONE',  ( -1.000000000000000000, 1.224646799147354933E-16, 0.0000000000000000000 ) ) ;
#98 = CARTESIAN_POINT ( 'NONE',  ( -0.5000000000000000000, 0.0000000000000000000, 3.985000000000000764 ) ) ;
#99 = CARTESIAN_POINT ( 'NONE',  ( 0.4994999999999999440, 6.117110761741028667E-17, 0.02000000000000000389 ) ) ;
#100 = CARTESIAN_POINT ( 'NONE',  ( -0.4794999999999999818, 5.872181401911558568E-17, 0.02000000000000000042 ) ) ;
#101 = EDGE_CURVE ( 'NONE', #322, #25, #261, .T. ) ;
#102 = COLOUR_RGB ( '',0.7921568627450980005, 0.8196078431372548767, 0.9333333333333333481 ) ;
#103 = ORIENTED_EDGE ( 'NONE', *, *, #227, .T. ) ;
#104 = PRODUCT_DEFINITION_CONTEXT ( 'detailed design', #114, 'design' ) ;
#105 = EDGE_LOOP ( 'NONE', ( #224, #170, #194, #347 ) ) ;
#106 = AXIS2_PLACEMENT_3D ( 'NONE', #144, #204, #316 ) ;
#107 = EDGE_LOOP ( 'NONE', ( #252, #83, #219, #12 ) ) ;
#108 = EDGE_LOOP ( 'NONE', ( #137, #325, #84, #164 ) ) ;
#109 = ORIENTED_EDGE ( 'NONE', *, *, #251, .T. ) ;
#110 = CIRCLE ( 'NONE', #320, 0.4850000000000009859 ) ;
#111 =( CONVERSION_BASED_UNIT ( 'INCH', #174 ) LENGTH_UNIT ( ) NAMED_UNIT ( #330 ) );
#112 = DIMENSIONAL_EXPONENTS ( 1.000000000000000000, 0.0000000000000000000, 0.0000000000000000000, 0.0000000000000000000, 0.0000000000000000000, 0.0000000000000000000, 0.0000000000000000000 ) ;
#113 = EDGE_CURVE ( 'NONE', #85, #79, #181, .T. ) ;
#114 = APPLICATION_CONTEXT ( 'automotive_design' ) ;
#115 = CARTESIAN_POINT ( 'NONE',  ( 0.0000000000000000000, 0.0000000000000000000, 0.0000000000000000000 ) ) ;
#116 = PRODUCT_DEFINITION_SHAPE ( 'NONE', 'NONE',  #346 ) ;
#117 = AXIS2_PLACEMENT_3D ( 'NONE', #257, #64, #313 ) ;
#118 = AXIS2_PLACEMENT_3D ( 'NONE', #128, #272, #289 ) ;
#119 = DIRECTION ( 'NONE',  ( -1.224646799147353207E-16, -0.0000000000000000000, -1.000000000000000000 ) ) ;
#120 = DIRECTION ( 'NONE',  ( 1.224646799147353207E-16, 0.0000000000000000000, 1.000000000000000000 ) ) ;
#121 = CARTESIAN_POINT ( 'NONE',  ( 0.0000000000000000000, 0.0000000000000000000, 4.000000000000000000 ) ) ;
#122 = DIRECTION ( 'NONE',  ( 0.0000000000000000000, 0.0000000000000000000, 1.000000000000000000 ) ) ;
#123 = ADVANCED_FACE ( 'NONE', ( #334 ), #282, .F. ) ;
#124 = DIRECTION ( 'NONE',  ( 1.000000000000000000, 0.0000000000000000000, 0.0000000000000000000 ) ) ;
#125 = DIRECTION ( 'NONE',  ( 1.224646799147353207E-16, 1.000000000000000000, -0.0000000000000000000 ) ) ;
#126 = DIRECTION ( 'NONE',  ( 0.0000000000000000000, 0.0000000000000000000, 1.000000000000000000 ) ) ;
#127 = CARTESIAN_POINT ( 'NONE',  ( 0.0000000000000000000, 0.0000000000000000000, 0.0000000000000000000 ) ) ;
#128 = CARTESIAN_POINT ( 'NONE',  ( 0.0000000000000000000, 0.0000000000000000000, 3.985000000000000764 ) ) ;
#129 = DIRECTION ( 'NONE',  ( -1.224646799147353207E-16, -0.0000000000000000000, -1.000000000000000000 ) ) ;
#130 = CARTESIAN_POINT ( 'NONE',  ( 0.0000000000000000000, 0.0000000000000000000, 4.000000000000000000 ) ) ;
#131 = DIRECTION ( 'NONE',  ( 1.000000000000000000, 0.0000000000000000000, 0.0000000000000000000 ) ) ;
#132 = PRODUCT_CONTEXT ( 'NONE', #225, 'mechanical' ) ;
#133 = VERTEX_POINT ( 'NONE', #331 ) ;
#134 = EDGE_CURVE ( 'NONE', #81, #244, #237, .T. ) ;
#135 = ORIENTED_EDGE ( 'NONE', *, *, #241, .F. ) ;
#136 = CIRCLE ( 'NONE', #106, 0.4994999999999999440 ) ;
#137 = ORIENTED_EDGE ( 'NONE', *, *, #22, .F. ) ;
#138 = ORIENTED_EDGE ( 'NONE', *, *, #201, .F. ) ;
#139 = DIRECTION ( 'NONE',  ( 0.0000000000000000000, 0.0000000000000000000, 1.000000000000000000 ) ) ;
#140 = AXIS2_PLACEMENT_3D ( 'NONE', #270, #266, #242 ) ;
#141 = CYLINDRICAL_SURFACE ( 'NONE', #15, 0.4994999999999999440 ) ;
#142 = FACE_OUTER_BOUND ( 'NONE', #328, .T. ) ;
#143 = FACE_OUTER_BOUND ( 'NONE', #108, .T. ) ;
#144 = CARTESIAN_POINT ( 'NONE',  ( 2.449293598294707154E-18, 0.0000000000000000000, 0.02000000000000000389 ) ) ;
#145 = CARTESIAN_POINT ( 'NONE',  ( -0.4850000000000009859, 0.0000000000000000000, 4.000000000000000000 ) ) ;
#146 = DIRECTION ( 'NONE',  ( 1.000000000000000000, 0.0000000000000000000, 0.0000000000000000000 ) ) ;
#147 = LINE ( 'NONE', #71, #171 ) ;
#148 = VECTOR ( 'NONE', #236, 39.37007874015748143 ) ;
#149 =( NAMED_UNIT ( * ) SI_UNIT ( $, .STERADIAN. ) SOLID_ANGLE_UNIT ( ) );
#150 = LINE ( 'NONE', #45, #62 ) ;
#151 = ADVANCED_BREP_SHAPE_REPRESENTATION ( 'Micro_GEC-001-2-020', ( #175, #238 ), #277 ) ;
#152 = ORIENTED_EDGE ( 'NONE', *, *, #211, .F. ) ;
#153 = CARTESIAN_POINT ( 'NONE',  ( 0.4850000000000009859, 6.031385485800721528E-17, 4.000000000000000000 ) ) ;
#154 = AXIS2_PLACEMENT_3D ( 'NONE', #121, #235, #232 ) ;
#155 = MECHANICAL_DESIGN_GEOMETRIC_PRESENTATION_REPRESENTATION (  '', ( #324 ), #26 ) ;
#156 = CARTESIAN_POINT ( 'NONE',  ( 0.0000000000000000000, 0.0000000000000000000, 4.000000000000000000 ) ) ;
#157 = DIRECTION ( 'NONE',  ( 0.0000000000000000000, 0.0000000000000000000, 1.000000000000000000 ) ) ;
#158 = DIRECTION ( 'NONE',  ( -0.0000000000000000000, -0.0000000000000000000, -1.000000000000000000 ) ) ;
#159 = DIRECTION ( 'NONE',  ( -1.224646799147353207E-16, -0.0000000000000000000, -1.000000000000000000 ) ) ;
#160 = DIRECTION ( 'NONE',  ( 1.000000000000000000, 0.0000000000000000000, 0.0000000000000000000 ) ) ;
#161 = APPLICATION_PROTOCOL_DEFINITION ( 'draft international standard', 'automotive_design', 1998, #114 ) ;
#162 = CIRCLE ( 'NONE', #117, 0.4994999999999998885 ) ;
#163 = CONICAL_SURFACE ( 'NONE', #344, 0.4994999999999998885, 0.1745329251994339192 ) ;
#164 = ORIENTED_EDGE ( 'NONE', *, *, #21, .T. ) ;
#165 = EDGE_CURVE ( 'NONE', #169, #25, #262, .T. ) ;
#166 = ORIENTED_EDGE ( 'NONE', *, *, #134, .F. ) ;
#167 = ORIENTED_EDGE ( 'NONE', *, *, #327, .T. ) ;
#168 = AXIS2_PLACEMENT_3D ( 'NONE', #339, #319, #44 ) ;
#169 = VERTEX_POINT ( 'NONE', #145 ) ;
#170 = ORIENTED_EDGE ( 'NONE', *, *, #173, .T. ) ;
#171 = VECTOR ( 'NONE', #119, 39.37007874015748143 ) ;
#172 = FACE_OUTER_BOUND ( 'NONE', #107, .T. ) ;
#173 = EDGE_CURVE ( 'NONE', #195, #244, #147, .T. ) ;
#174 = LENGTH_MEASURE_WITH_UNIT ( LENGTH_MEASURE( 0.02539999999999999897 ), #95 );
#175 = MANIFOLD_SOLID_BREP ( 'Fillet1', #298 ) ;
#176 = CARTESIAN_POINT ( 'NONE',  ( -0.4794999999999999818, 5.994646081826293618E-17, 0.0000000000000000000 ) ) ;
#177 = LENGTH_MEASURE_WITH_UNIT ( LENGTH_MEASURE( 0.02539999999999999897 ), #311 );
#178 = DIRECTION ( 'NONE',  ( 0.0000000000000000000, -1.000000000000000000, 0.0000000000000000000 ) ) ;
#179 = CYLINDRICAL_SURFACE ( 'NONE', #50, 0.5000000000000000000 ) ;
#180 = DIRECTION ( 'NONE',  ( -0.0000000000000000000, -0.0000000000000000000, -1.000000000000000000 ) ) ;
#181 = CIRCLE ( 'NONE', #86, 0.5000000000000000000 ) ;
#182 =( NAMED_UNIT ( * ) SI_UNIT ( $, .STERADIAN. ) SOLID_ANGLE_UNIT ( ) );
#183 = CARTESIAN_POINT ( 'NONE',  ( 0.0000000000000000000, 0.0000000000000000000, 4.000000000000000000 ) ) ;
#184 =( NAMED_UNIT ( * ) PLANE_ANGLE_UNIT ( ) SI_UNIT ( $, .RADIAN. ) );
#185 = DIRECTION ( 'NONE',  ( 1.224646799147353207E-16, 0.0000000000000000000, 1.000000000000000000 ) ) ;
#186 = EDGE_CURVE ( 'NONE', #247, #133, #150, .T. ) ;
#187 = DIRECTION ( 'NONE',  ( 0.0000000000000000000, 0.0000000000000000000, 1.000000000000000000 ) ) ;
#188 = AXIS2_PLACEMENT_3D ( 'NONE', #35, #139, #314 ) ;
#189 =( GEOMETRIC_REPRESENTATION_CONTEXT ( 3 ) GLOBAL_UNCERTAINTY_ASSIGNED_CONTEXT ( ( #205 ) ) GLOBAL_UNIT_ASSIGNED_CONTEXT ( ( #208, #88, #43 ) ) REPRESENTATION_CONTEXT ( 'NONE', 'WORKASPACE' ) );
#190 = SHAPE_DEFINITION_REPRESENTATION ( #116, #151 ) ;
#191 = CARTESIAN_POINT ( 'NONE',  ( -0.5000000000000000000, 0.0000000000000000000, 4.000000000000000000 ) ) ;
#192 = ORIENTED_EDGE ( 'NONE', *, *, #113, .F. ) ;
#193 = PRODUCT_DEFINITION_FORMATION_WITH_SPECIFIED_SOURCE ( 'ANY', '', #291, .NOT_KNOWN. ) ;
#194 = ORIENTED_EDGE ( 'NONE', *, *, #13, .T. ) ;
#195 = VERTEX_POINT ( 'NONE', #256 ) ;
#196 = AXIS2_PLACEMENT_3D ( 'NONE', #228, #315, #258 ) ;
#197 = CIRCLE ( 'NONE', #140, 0.4994999999999998885 ) ;
#198 = ORIENTED_EDGE ( 'NONE', *, *, #46, .T. ) ;
#199 = PRESENTATION_STYLE_ASSIGNMENT (( #202 ) ) ;
#200 = SURFACE_STYLE_USAGE ( .BOTH. , #42 ) ;
#201 = EDGE_CURVE ( 'NONE', #247, #195, #197, .T. ) ;
#202 = SURFACE_STYLE_USAGE ( .BOTH. , #6 ) ;
#203 = DIRECTION ( 'NONE',  ( 1.000000000000000000, 0.0000000000000000000, 0.0000000000000000000 ) ) ;
#204 = DIRECTION ( 'NONE',  ( 0.0000000000000000000, 0.0000000000000000000, 1.000000000000000000 ) ) ;
#205 = UNCERTAINTY_MEASURE_WITH_UNIT (LENGTH_MEASURE( 1.000000000000000082E-05 ), #208, 'distance_accuracy_value', 'NONE');
#206 = CARTESIAN_POINT ( 'NONE',  ( 0.4794999999999999818, 0.0000000000000000000, 0.0000000000000000000 ) ) ;
#207 = DIRECTION ( 'NONE',  ( -1.000000000000000000, 0.0000000000000000000, 1.224646799147353207E-16 ) ) ;
#208 =( CONVERSION_BASED_UNIT ( 'INCH', #30 ) LENGTH_UNIT ( ) NAMED_UNIT ( #112 ) );
#209 = FILL_AREA_STYLE ('',( #40 ) ) ;
#210 = FACE_OUTER_BOUND ( 'NONE', #55, .T. ) ;
#211 = EDGE_CURVE ( 'NONE', #218, #322, #14, .T. ) ;
#212 = DIRECTION ( 'NONE',  ( 0.0000000000000000000, 0.0000000000000000000, 1.000000000000000000 ) ) ;
#213 = CARTESIAN_POINT ( 'NONE',  ( 0.5000000000000000000, 6.123233995736766036E-17, 4.000000000000000000 ) ) ;
#214 = EDGE_CURVE ( 'NONE', #25, #85, #17, .T. ) ;
#215 = DIRECTION ( 'NONE',  ( -0.0000000000000000000, -0.0000000000000000000, -1.000000000000000000 ) ) ;
#216 = AXIS2_PLACEMENT_3D ( 'NONE', #293, #157, #217 ) ;
#217 = DIRECTION ( 'NONE',  ( 1.000000000000000000, 0.0000000000000000000, 0.0000000000000000000 ) ) ;
#218 = VERTEX_POINT ( 'NONE', #153 ) ;
#219 = ORIENTED_EDGE ( 'NONE', *, *, #214, .T. ) ;
#220 = ORIENTED_EDGE ( 'NONE', *, *, #165, .F. ) ;
#221 = EDGE_LOOP ( 'NONE', ( #27, #109, #301, #166 ) ) ;
#222 = EDGE_LOOP ( 'NONE', ( #302, #250, #279, #321 ) ) ;
#223 = ORIENTED_EDGE ( 'NONE', *, *, #165, .T. ) ;
#224 = ORIENTED_EDGE ( 'NONE', *, *, #201, .T. ) ;
#225 = APPLICATION_CONTEXT ( 'automotive_design' ) ;
#226 = EDGE_CURVE ( 'NONE', #195, #79, #317, .T. ) ;
#227 = EDGE_CURVE ( 'NONE', #169, #218, #110, .T. ) ;
#228 = CARTESIAN_POINT ( 'NONE',  ( 0.0000000000000000000, 0.0000000000000000000, 4.000000000000000000 ) ) ;
#229 = CARTESIAN_POINT ( 'NONE',  ( 2.449293598294706769E-18, 0.0000000000000000000, 0.02000000000000000042 ) ) ;
#230 = FILL_AREA_STYLE ('',( #234 ) ) ;
#231 = CIRCLE ( 'NONE', #5, 0.5000000000000000000 ) ;
#232 = DIRECTION ( 'NONE',  ( -1.000000000000000000, 0.0000000000000000000, 0.0000000000000000000 ) ) ;
#233 = VECTOR ( 'NONE', #11, 39.37007874015748143 ) ;
#234 = FILL_AREA_STYLE_COLOUR ( '', #349 ) ;
#235 = DIRECTION ( 'NONE',  ( 0.0000000000000000000, 0.0000000000000000000, -1.000000000000000000 ) ) ;
#236 = DIRECTION ( 'NONE',  ( 0.7071067811865443531, 8.659560562354894648E-17, -0.7071067811865507924 ) ) ;
#237 = CIRCLE ( 'NONE', #253, 0.02000000000000000042 ) ;
#238 = AXIS2_PLACEMENT_3D ( 'NONE', #49, #212, #78 ) ;
#239 = CARTESIAN_POINT ( 'NONE',  ( 0.4995000000000001106, 0.0000000000000000000, 1.500000000000000222 ) ) ;
#240 = DIRECTION ( 'NONE',  ( 0.1736481776669314137, 0.0000000000000000000, 0.9848077530122077983 ) ) ;
#241 = EDGE_CURVE ( 'NONE', #25, #322, #351, .T. ) ;
#242 = DIRECTION ( 'NONE',  ( -1.000000000000000000, 0.0000000000000000000, 0.0000000000000000000 ) ) ;
#243 = EDGE_CURVE ( 'NONE', #81, #59, #274, .T. ) ;
#244 = VERTEX_POINT ( 'NONE', #99 ) ;
#245 = ORIENTED_EDGE ( 'NONE', *, *, #22, .T. ) ;
#246 = FACE_OUTER_BOUND ( 'NONE', #87, .T. ) ;
#247 = VERTEX_POINT ( 'NONE', #20 ) ;
#248 = AXIS2_PLACEMENT_3D ( 'NONE', #284, #92, #203 ) ;
#249 = AXIS2_PLACEMENT_3D ( 'NONE', #183, #187, #292 ) ;
#250 = ORIENTED_EDGE ( 'NONE', *, *, #243, .F. ) ;
#251 = EDGE_CURVE ( 'NONE', #59, #133, #91, .T. ) ;
#252 = ORIENTED_EDGE ( 'NONE', *, *, #295, .F. ) ;
#253 = AXIS2_PLACEMENT_3D ( 'NONE', #68, #178, #288 ) ;
#254 = SURFACE_STYLE_FILL_AREA ( #230 ) ;
#255 = CARTESIAN_POINT ( 'NONE',  ( 2.449293598294706769E-18, 0.0000000000000000000, 0.0000000000000000000 ) ) ;
#256 = CARTESIAN_POINT ( 'NONE',  ( 0.4995000000000001106, 0.0000000000000000000, 1.500000000000000222 ) ) ;
#257 = CARTESIAN_POINT ( 'NONE',  ( 1.836970198721030181E-16, 0.0000000000000000000, 1.500000000000000222 ) ) ;
#258 = DIRECTION ( 'NONE',  ( -1.000000000000000000, 0.0000000000000000000, 0.0000000000000000000 ) ) ;
#259 = CARTESIAN_POINT ( 'NONE',  ( 0.0000000000000000000, 0.0000000000000000000, 4.000000000000000000 ) ) ;
#260 = DIRECTION ( 'NONE',  ( 0.0000000000000000000, 0.0000000000000000000, 1.000000000000000000 ) ) ;
#261 = CIRCLE ( 'NONE', #248, 0.5000000000000000000 ) ;
#262 = LINE ( 'NONE', #286, #94 ) ;
#263 = VECTOR ( 'NONE', #240, 39.37007874015748143 ) ;
#264 =( NAMED_UNIT ( * ) PLANE_ANGLE_UNIT ( ) SI_UNIT ( $, .RADIAN. ) );
#265 =( LENGTH_UNIT ( ) NAMED_UNIT ( * ) SI_UNIT ( $, .METRE. ) );
#266 = DIRECTION ( 'NONE',  ( -1.224646799147353207E-16, -0.0000000000000000000, -1.000000000000000000 ) ) ;
#267 = LINE ( 'NONE', #337, #342 ) ;
#268 = FACE_OUTER_BOUND ( 'NONE', #105, .T. ) ;
#269 = CONICAL_SURFACE ( 'NONE', #154, 0.4850000000000009859, 0.7853981633974437271 ) ;
#270 = CARTESIAN_POINT ( 'NONE',  ( 1.836970198721030181E-16, 0.0000000000000000000, 1.500000000000000222 ) ) ;
#271 = DIRECTION ( 'NONE',  ( -1.224646799147353207E-16, -0.0000000000000000000, -1.000000000000000000 ) ) ;
#272 = DIRECTION ( 'NONE',  ( 0.0000000000000000000, 0.0000000000000000000, -1.000000000000000000 ) ) ;
#273 = CYLINDRICAL_SURFACE ( 'NONE', #304, 0.5000000000000000000 ) ;
#274 = CIRCLE ( 'NONE', #168, 0.4794999999999999818 ) ;
#275 = ORIENTED_EDGE ( 'NONE', *, *, #186, .T. ) ;
#276 = EDGE_LOOP ( 'NONE', ( #303, #348 ) ) ;
#277 =( GEOMETRIC_REPRESENTATION_CONTEXT ( 3 ) GLOBAL_UNCERTAINTY_ASSIGNED_CONTEXT ( ( #19 ) ) GLOBAL_UNIT_ASSIGNED_CONTEXT ( ( #111, #184, #149 ) ) REPRESENTATION_CONTEXT ( 'NONE', 'WORKASPACE' ) );
#278 = ORIENTED_EDGE ( 'NONE', *, *, #173, .F. ) ;
#279 = ORIENTED_EDGE ( 'NONE', *, *, #134, .T. ) ;
#280 = ORIENTED_EDGE ( 'NONE', *, *, #295, .T. ) ;
#281 = AXIS2_PLACEMENT_3D ( 'NONE', #127, #159, #47 ) ;
#282 = PLANE ( 'NONE',  #188 ) ;
#283 = APPLICATION_PROTOCOL_DEFINITION ( 'draft international standard', 'automotive_design', 1998, #225 ) ;
#284 = CARTESIAN_POINT ( 'NONE',  ( 0.0000000000000000000, 0.0000000000000000000, 3.985000000000000764 ) ) ;
#285 = CARTESIAN_POINT ( 'NONE',  ( 0.0000000000000000000, 0.0000000000000000000, 4.000000000000000000 ) ) ;
#286 = CARTESIAN_POINT ( 'NONE',  ( -0.4850000000000009859, 0.0000000000000000000, 4.000000000000000000 ) ) ;
#287 = AXIS2_PLACEMENT_3D ( 'NONE', #332, #120, #61 ) ;
#288 = DIRECTION ( 'NONE',  ( 0.0000000000000000000, 0.0000000000000000000, -1.000000000000000000 ) ) ;
#289 = DIRECTION ( 'NONE',  ( 1.000000000000000000, 0.0000000000000000000, 0.0000000000000000000 ) ) ;
#290 = DIRECTION ( 'NONE',  ( 1.000000000000000000, 0.0000000000000000000, 0.0000000000000000000 ) ) ;
#291 = PRODUCT ( 'Micro_GEC-001-2-020', 'Micro_GEC-001-2-020', '', ( #132 ) ) ;
#292 = DIRECTION ( 'NONE',  ( 1.000000000000000000, 0.0000000000000000000, -0.0000000000000000000 ) ) ;
#293 = CARTESIAN_POINT ( 'NONE',  ( 2.449293598294707154E-18, 0.0000000000000000000, 0.02000000000000000389 ) ) ;
#294 = AXIS2_PLACEMENT_3D ( 'NONE', #100, #125, #97 ) ;
#295 = EDGE_CURVE ( 'NONE', #322, #79, #336, .T. ) ;
#296 = CARTESIAN_POINT ( 'NONE',  ( 0.4850000000000009859, 5.939536975864675788E-17, 4.000000000000000000 ) ) ;
#297 = EDGE_LOOP ( 'NONE', ( #306, #345, #135, #220 ) ) ;
#298 = CLOSED_SHELL ( 'NONE', ( #34, #310, #305, #60, #1, #54, #299, #56, #38, #18, #123, #323 ) ) ;
#299 = ADVANCED_FACE ( 'NONE', ( #74 ), #77, .T. ) ;
#300 = AXIS2_PLACEMENT_3D ( 'NONE', #285, #260, #146 ) ;
#301 = ORIENTED_EDGE ( 'NONE', *, *, #13, .F. ) ;
#302 = ORIENTED_EDGE ( 'NONE', *, *, #251, .F. ) ;
#303 = ORIENTED_EDGE ( 'NONE', *, *, #243, .T. ) ;
#304 = AXIS2_PLACEMENT_3D ( 'NONE', #130, #16, #343 ) ;
#305 = ADVANCED_FACE ( 'NONE', ( #210 ), #163, .T. ) ;
#306 = ORIENTED_EDGE ( 'NONE', *, *, #340, .F. ) ;
#307 = DIRECTION ( 'NONE',  ( -0.1736481776669312194, 2.126576849575783625E-17, 0.9848077530122080203 ) ) ;
#308 = AXIS2_PLACEMENT_3D ( 'NONE', #255, #180, #333 ) ;
#309 = PRESENTATION_STYLE_ASSIGNMENT (( #200 ) ) ;
#310 = ADVANCED_FACE ( 'NONE', ( #268 ), #141, .T. ) ;
#311 =( LENGTH_UNIT ( ) NAMED_UNIT ( * ) SI_UNIT ( $, .METRE. ) );
#312 = DIRECTION ( 'NONE',  ( 1.000000000000000000, 0.0000000000000000000, 0.0000000000000000000 ) ) ;
#313 = DIRECTION ( 'NONE',  ( -1.000000000000000000, 0.0000000000000000000, 0.0000000000000000000 ) ) ;
#314 = DIRECTION ( 'NONE',  ( 1.000000000000000000, 0.0000000000000000000, -0.0000000000000000000 ) ) ;
#315 = DIRECTION ( 'NONE',  ( 0.0000000000000000000, 0.0000000000000000000, -1.000000000000000000 ) ) ;
#316 = DIRECTION ( 'NONE',  ( 1.000000000000000000, 0.0000000000000000000, 0.0000000000000000000 ) ) ;
#317 = LINE ( 'NONE', #239, #263 ) ;
#318 = CYLINDRICAL_SURFACE ( 'NONE', #281, 0.4994999999999999440 ) ;
#319 = DIRECTION ( 'NONE',  ( -0.0000000000000000000, -0.0000000000000000000, -1.000000000000000000 ) ) ;
#320 = AXIS2_PLACEMENT_3D ( 'NONE', #156, #126, #160 ) ;
#321 = ORIENTED_EDGE ( 'NONE', *, *, #327, .F. ) ;
#322 = VERTEX_POINT ( 'NONE', #65 ) ;
#323 = ADVANCED_FACE ( 'NONE', ( #33 ), #41, .T. ) ;
#324 = STYLED_ITEM ( 'NONE', ( #199 ), #151 ) ;
#325 = ORIENTED_EDGE ( 'NONE', *, *, #46, .F. ) ;
#326 = ORIENTED_EDGE ( 'NONE', *, *, #227, .F. ) ;
#327 = EDGE_CURVE ( 'NONE', #133, #244, #136, .T. ) ;
#328 = EDGE_LOOP ( 'NONE', ( #152, #326, #223, #28 ) ) ;
#329 = CONICAL_SURFACE ( 'NONE', #196, 0.4850000000000009859, 0.7853981633974437271 ) ;
#330 = DIMENSIONAL_EXPONENTS ( 1.000000000000000000, 0.0000000000000000000, 0.0000000000000000000, 0.0000000000000000000, 0.0000000000000000000, 0.0000000000000000000, 0.0000000000000000000 ) ;
#331 = CARTESIAN_POINT ( 'NONE',  ( -0.4994999999999999440, 0.0000000000000000000, 0.02000000000000000389 ) ) ;
#332 = CARTESIAN_POINT ( 'NONE',  ( 1.836970198721030181E-16, 0.0000000000000000000, 1.500000000000000222 ) ) ;
#333 = DIRECTION ( 'NONE',  ( 1.000000000000000000, 0.0000000000000000000, 0.0000000000000000000 ) ) ;
#334 = FACE_OUTER_BOUND ( 'NONE', #276, .T. ) ;
#335 = STYLED_ITEM ( 'NONE', ( #309 ), #175 ) ;
#336 = LINE ( 'NONE', #213, #70 ) ;
#337 = CARTESIAN_POINT ( 'NONE',  ( -0.4994999999999996665, 6.117110761741027434E-17, 1.500000000000000222 ) ) ;
#338 = EDGE_CURVE ( 'NONE', #59, #81, #75, .T. ) ;
#339 = CARTESIAN_POINT ( 'NONE',  ( 2.449293598294706769E-18, 0.0000000000000000000, 0.0000000000000000000 ) ) ;
#340 = EDGE_CURVE ( 'NONE', #218, #169, #7, .T. ) ;
#341 = DIRECTION ( 'NONE',  ( 0.0000000000000000000, 0.0000000000000000000, 1.000000000000000000 ) ) ;
#342 = VECTOR ( 'NONE', #307, 39.37007874015747433 ) ;
#343 = DIRECTION ( 'NONE',  ( -1.000000000000000000, 0.0000000000000000000, 0.0000000000000000000 ) ) ;
#344 = AXIS2_PLACEMENT_3D ( 'NONE', #73, #185, #290 ) ;
#345 = ORIENTED_EDGE ( 'NONE', *, *, #211, .T. ) ;
#346 = PRODUCT_DEFINITION ( 'UNKNOWN', '', #193, #104 ) ;
#347 = ORIENTED_EDGE ( 'NONE', *, *, #186, .F. ) ;
#348 = ORIENTED_EDGE ( 'NONE', *, *, #338, .T. ) ;
#349 = COLOUR_RGB ( '',0.7921568627450980005, 0.8196078431372548767, 0.9333333333333333481 ) ;
#350 = ORIENTED_EDGE ( 'NONE', *, *, #226, .F. ) ;
#351 = CIRCLE ( 'NONE', #118, 0.5000000000000000000 ) ;
ENDSEC;
END-ISO-10303-21;
