ISO-10303-21;
HEADER;
FILE_DESCRIPTION (( 'STEP AP214' ),
    '1' );
FILE_NAME ('17647.STEP',
    '2023-06-30T21:54:41',
    ( '' ),
    ( '' ),
    'SwSTEP 2.0',
    'SolidWorks 2023',
    '' );
FILE_SCHEMA (( 'AUTOMOTIVE_DESIGN' ));
ENDSEC;

DATA;
#1 = PRESENTATION_STYLE_ASSIGNMENT (( #259 ) ) ;
#2 = EDGE_LOOP ( 'NONE', ( #186, #372 ) ) ;
#3 = CIRCLE ( 'NONE', #68, 0.3750000000000001110 ) ;
#4 = DIRECTION ( 'NONE',  ( -1.231509348634544819E-16, 1.000000000000000000, -0.000000000000000000 ) ) ;
#5 = CARTESIAN_POINT ( 'NONE',  ( 0.3750000000000001110, 0.3750000000000001110, 0.000000000000000000 ) ) ;
#6 = VERTEX_POINT ( 'NONE', #133 ) ;
#7 = DIRECTION ( 'NONE',  ( -0.000000000000000000, -1.000000000000000000, -0.000000000000000000 ) ) ;
#8 = AXIS2_PLACEMENT_3D ( 'NONE', #141, #110, #165 ) ;
#9 = VECTOR ( 'NONE', #335, 39.37007874015748143 ) ;
#10 = ADVANCED_FACE ( 'NONE', ( #273 ), #333, .T. ) ;
#11 = CARTESIAN_POINT ( 'NONE',  ( 0.000000000000000000, 1.000000000000000000, 0.000000000000000000 ) ) ;
#12 = EDGE_CURVE ( 'NONE', #231, #32, #143, .T. ) ;
#13 = SURFACE_STYLE_USAGE ( .BOTH. , #327 ) ;
#14 = STYLED_ITEM ( 'NONE', ( #261 ), #138 ) ;
#15 = APPLICATION_CONTEXT ( 'automotive_design' ) ;
#16 =( CONVERSION_BASED_UNIT ( 'INCH', #136 ) LENGTH_UNIT ( ) NAMED_UNIT ( #65 ) );
#17 = CARTESIAN_POINT ( 'NONE',  ( -0.3750000000000000555, 4.000000000000000000, 0.000000000000000000 ) ) ;
#18 = DIRECTION ( 'NONE',  ( 0.000000000000000000, 0.000000000000000000, -1.000000000000000000 ) ) ;
#19 = AXIS2_PLACEMENT_3D ( 'NONE', #83, #76, #196 ) ;
#20 =( GEOMETRIC_REPRESENTATION_CONTEXT ( 3 ) GLOBAL_UNCERTAINTY_ASSIGNED_CONTEXT ( ( #161 ) ) GLOBAL_UNIT_ASSIGNED_CONTEXT ( ( #113, #148, #286 ) ) REPRESENTATION_CONTEXT ( 'NONE', 'WORKASPACE' ) );
#21 =( CONVERSION_BASED_UNIT ( 'INCH', #115 ) LENGTH_UNIT ( ) NAMED_UNIT ( #350 ) );
#22 = SURFACE_STYLE_USAGE ( .BOTH. , #337 ) ;
#23 = FILL_AREA_STYLE ('',( #290 ) ) ;
#24 = PRESENTATION_LAYER_ASSIGNMENT (  '', '', ( #260 ) ) ;
#25 = MECHANICAL_DESIGN_GEOMETRIC_PRESENTATION_REPRESENTATION (  '', ( #171 ), #343 ) ;
#26 = PRODUCT_DEFINITION ( 'UNKNOWN', '', #326, #194 ) ;
#27 = PRODUCT_CONTEXT ( 'NONE', #28, 'mechanical' ) ;
#28 = APPLICATION_CONTEXT ( 'automotive_design' ) ;
#29 = VERTEX_POINT ( 'NONE', #73 ) ;
#30 = SURFACE_STYLE_USAGE ( .BOTH. , #174 ) ;
#31 = VERTEX_POINT ( 'NONE', #256 ) ;
#32 = VERTEX_POINT ( 'NONE', #307 ) ;
#33 =( GEOMETRIC_REPRESENTATION_CONTEXT ( 3 ) GLOBAL_UNCERTAINTY_ASSIGNED_CONTEXT ( ( #205 ) ) GLOBAL_UNIT_ASSIGNED_CONTEXT ( ( #338, #142, #317 ) ) REPRESENTATION_CONTEXT ( 'NONE', 'WORKASPACE' ) );
#34 = CIRCLE ( 'NONE', #303, 0.3749999999999997780 ) ;
#35 = DIRECTION ( 'NONE',  ( 1.231509348634544819E-16, -1.000000000000000000, 0.000000000000000000 ) ) ;
#36 = DIRECTION ( 'NONE',  ( -0.000000000000000000, -1.000000000000000000, -0.000000000000000000 ) ) ;
#37 = ORIENTED_EDGE ( 'NONE', *, *, #239, .F. ) ;
#38 = CARTESIAN_POINT ( 'NONE',  ( 0.3750000000000000555, 1.000000000000000222, 4.592425496802575451E-17 ) ) ;
#39 =( LENGTH_UNIT ( ) NAMED_UNIT ( * ) SI_UNIT ( $, .METRE. ) );
#40 = MECHANICAL_DESIGN_GEOMETRIC_PRESENTATION_REPRESENTATION (  '', ( #362 ), #33 ) ;
#41 = DIRECTION ( 'NONE',  ( -0.000000000000000000, -1.000000000000000000, -0.000000000000000000 ) ) ;
#42 = SURFACE_SIDE_STYLE ('',( #302 ) ) ;
#43 = DIRECTION ( 'NONE',  ( -1.231509348634544819E-16, 1.000000000000000000, -0.000000000000000000 ) ) ;
#44 = EDGE_LOOP ( 'NONE', ( #91, #295, #330, #294 ) ) ;
#45 = SURFACE_STYLE_FILL_AREA ( #109 ) ;
#46 = DIRECTION ( 'NONE',  ( -1.231509348634544819E-16, 1.000000000000000000, -0.000000000000000000 ) ) ;
#47 = CIRCLE ( 'NONE', #226, 0.3750000000000001110 ) ;
#48 = COLOUR_RGB ( '',1.000000000000000000, 0.000000000000000000, 0.000000000000000000 ) ;
#49 =( GEOMETRIC_REPRESENTATION_CONTEXT ( 3 ) GLOBAL_UNCERTAINTY_ASSIGNED_CONTEXT ( ( #263 ) ) GLOBAL_UNIT_ASSIGNED_CONTEXT ( ( #162, #306, #192 ) ) REPRESENTATION_CONTEXT ( 'NONE', 'WORKASPACE' ) );
#50 = DIRECTION ( 'NONE',  ( -0.000000000000000000, -1.000000000000000000, -0.000000000000000000 ) ) ;
#51 = CARTESIAN_POINT ( 'NONE',  ( -4.592425496802575451E-17, 0.3750000000000000555, 0.000000000000000000 ) ) ;
#52 = LENGTH_MEASURE_WITH_UNIT ( LENGTH_MEASURE( 0.02539999999999999897 ), #188 );
#53 = COLOUR_RGB ( '',1.000000000000000000, 0.000000000000000000, 0.000000000000000000 ) ;
#54 = UNCERTAINTY_MEASURE_WITH_UNIT (LENGTH_MEASURE( 1.000000000000000082E-05 ), #21, 'distance_accuracy_value', 'NONE');
#55 = PLANE ( 'NONE',  #232 ) ;
#56 = EDGE_CURVE ( 'NONE', #211, #352, #47, .T. ) ;
#57 = CLOSED_SHELL ( 'NONE', ( #131, #138, #67, #331, #10 ) ) ;
#58 = AXIS2_PLACEMENT_3D ( 'NONE', #11, #213, #270 ) ;
#59 = DIRECTION ( 'NONE',  ( 1.000000000000000000, 0.000000000000000000, 0.000000000000000000 ) ) ;
#60 = FILL_AREA_STYLE_COLOUR ( '', #48 ) ;
#61 = ORIENTED_EDGE ( 'NONE', *, *, #93, .T. ) ;
#62 = ADVANCED_BREP_SHAPE_REPRESENTATION ( '17647', ( #336, #92, #101 ), #20 ) ;
#63 = DIRECTION ( 'NONE',  ( -1.231509348634544819E-16, 1.000000000000000000, -0.000000000000000000 ) ) ;
#64 = ORIENTED_EDGE ( 'NONE', *, *, #152, .T. ) ;
#65 = DIMENSIONAL_EXPONENTS ( 1.000000000000000000, 0.000000000000000000, 0.000000000000000000, 0.000000000000000000, 0.000000000000000000, 0.000000000000000000, 0.000000000000000000 ) ;
#66 = STYLED_ITEM ( 'NONE', ( #1 ), #131 ) ;
#67 = ADVANCED_FACE ( 'NONE', ( #369 ), #55, .T. ) ;
#68 = AXIS2_PLACEMENT_3D ( 'NONE', #125, #7, #296 ) ;
#69 = DIRECTION ( 'NONE',  ( -1.231509348634544819E-16, 1.000000000000000000, -0.000000000000000000 ) ) ;
#70 = ORIENTED_EDGE ( 'NONE', *, *, #147, .F. ) ;
#71 = FILL_AREA_STYLE ('',( #355 ) ) ;
#72 =( GEOMETRIC_REPRESENTATION_CONTEXT ( 3 ) GLOBAL_UNCERTAINTY_ASSIGNED_CONTEXT ( ( #370 ) ) GLOBAL_UNIT_ASSIGNED_CONTEXT ( ( #221, #168, #249 ) ) REPRESENTATION_CONTEXT ( 'NONE', 'WORKASPACE' ) );
#73 = CARTESIAN_POINT ( 'NONE',  ( -0.3749999999999995004, 1.000000000000000222, 0.000000000000000000 ) ) ;
#74 = EDGE_CURVE ( 'NONE', #31, #211, #122, .T. ) ;
#75 = DIRECTION ( 'NONE',  ( 1.224646799147353207E-16, -0.000000000000000000, 1.000000000000000000 ) ) ;
#76 = DIRECTION ( 'NONE',  ( -0.000000000000000000, -1.000000000000000000, -0.000000000000000000 ) ) ;
#77 = FACE_OUTER_BOUND ( 'NONE', #98, .T. ) ;
#78 = PRESENTATION_STYLE_ASSIGNMENT (( #22 ) ) ;
#79 = EDGE_CURVE ( 'NONE', #32, #31, #201, .T. ) ;
#80 = FILL_AREA_STYLE ('',( #200 ) ) ;
#81 = AXIS2_PLACEMENT_3D ( 'NONE', #206, #182, #321 ) ;
#82 = PRODUCT ( '17647', '17647', '', ( #27 ) ) ;
#83 = CARTESIAN_POINT ( 'NONE',  ( 0.000000000000000000, 0.3750000000000001110, 0.000000000000000000 ) ) ;
#84 =( LENGTH_UNIT ( ) NAMED_UNIT ( * ) SI_UNIT ( $, .METRE. ) );
#85 =( CONVERSION_BASED_UNIT ( 'INCH', #228 ) LENGTH_UNIT ( ) NAMED_UNIT ( #127 ) );
#86 = ORIENTED_EDGE ( 'NONE', *, *, #187, .F. ) ;
#87 = AXIS2_PLACEMENT_3D ( 'NONE', #316, #4, #149 ) ;
#88 = COLOUR_RGB ( '',0.7921568627450980005, 0.8196078431372548767, 0.9333333333333333481 ) ;
#89 = APPLICATION_PROTOCOL_DEFINITION ( 'draft international standard', 'automotive_design', 1998, #28 ) ;
#90 =( LENGTH_UNIT ( ) NAMED_UNIT ( * ) SI_UNIT ( $, .METRE. ) );
#91 = ORIENTED_EDGE ( 'NONE', *, *, #147, .T. ) ;
#92 = MANIFOLD_SOLID_BREP ( 'Revolve - Tool Body (Straight Shanked)', #280 ) ;
#93 = EDGE_CURVE ( 'NONE', #341, #172, #274, .T. ) ;
#94 = DIRECTION ( 'NONE',  ( -1.000000000000000000, 0.000000000000000000, 0.000000000000000000 ) ) ;
#95 = FACE_OUTER_BOUND ( 'NONE', #218, .T. ) ;
#96 = CIRCLE ( 'NONE', #58, 0.3749999999999999445 ) ;
#97 = DIRECTION ( 'NONE',  ( -1.231509348634544819E-16, 1.000000000000000000, -0.000000000000000000 ) ) ;
#98 = EDGE_LOOP ( 'NONE', ( #86, #318, #209, #344 ) ) ;
#99 =( NAMED_UNIT ( * ) PLANE_ANGLE_UNIT ( ) SI_UNIT ( $, .RADIAN. ) );
#100 = DIRECTION ( 'NONE',  ( -1.000000000000000000, 0.000000000000000000, 0.000000000000000000 ) ) ;
#101 = AXIS2_PLACEMENT_3D ( 'NONE', #229, #314, #59 ) ;
#102 = SURFACE_SIDE_STYLE ('',( #45 ) ) ;
#103 = DIRECTION ( 'NONE',  ( -1.000000000000000000, 0.000000000000000000, 0.000000000000000000 ) ) ;
#104 =( NAMED_UNIT ( * ) SI_UNIT ( $, .STERADIAN. ) SOLID_ANGLE_UNIT ( ) );
#105 = SURFACE_STYLE_USAGE ( .BOTH. , #42 ) ;
#106 = LINE ( 'NONE', #222, #9 ) ;
#107 = COLOUR_RGB ( '',0.7921568627450980005, 0.8196078431372548767, 0.9333333333333333481 ) ;
#108 = VECTOR ( 'NONE', #69, 39.37007874015748143 ) ;
#109 = FILL_AREA_STYLE ('',( #195 ) ) ;
#110 = DIRECTION ( 'NONE',  ( 0.000000000000000000, 0.000000000000000000, 1.000000000000000000 ) ) ;
#111 = DIRECTION ( 'NONE',  ( 0.000000000000000000, 1.000000000000000000, 0.000000000000000000 ) ) ;
#112 = AXIS2_PLACEMENT_3D ( 'NONE', #238, #63, #94 ) ;
#113 =( CONVERSION_BASED_UNIT ( 'INCH', #146 ) LENGTH_UNIT ( ) NAMED_UNIT ( #210 ) );
#114 = ADVANCED_FACE ( 'NONE', ( #230 ), #236, .F. ) ;
#115 = LENGTH_MEASURE_WITH_UNIT ( LENGTH_MEASURE( 0.02539999999999999897 ), #84 );
#116 = ORIENTED_EDGE ( 'NONE', *, *, #252, .F. ) ;
#117 = DIRECTION ( 'NONE',  ( 1.000000000000000000, 0.000000000000000000, 0.000000000000000000 ) ) ;
#118 = CARTESIAN_POINT ( 'NONE',  ( -0.3750000000000001110, 0.3750000000000001110, 4.592425496802575451E-17 ) ) ;
#119 = ORIENTED_EDGE ( 'NONE', *, *, #304, .F. ) ;
#120 = CARTESIAN_POINT ( 'NONE',  ( 0.3749999999999997780, 4.000000000000000000, 4.592425496802572986E-17 ) ) ;
#121 = ORIENTED_EDGE ( 'NONE', *, *, #56, .T. ) ;
#122 = CIRCLE ( 'NONE', #19, 0.3750000000000001110 ) ;
#123 = CIRCLE ( 'NONE', #315, 0.3750000000000001110 ) ;
#124 = DIMENSIONAL_EXPONENTS ( 1.000000000000000000, 0.000000000000000000, 0.000000000000000000, 0.000000000000000000, 0.000000000000000000, 0.000000000000000000, 0.000000000000000000 ) ;
#125 = CARTESIAN_POINT ( 'NONE',  ( 0.000000000000000000, 0.3750000000000001110, 0.000000000000000000 ) ) ;
#126 = LENGTH_MEASURE_WITH_UNIT ( LENGTH_MEASURE( 0.02539999999999999897 ), #39 );
#127 = DIMENSIONAL_EXPONENTS ( 1.000000000000000000, 0.000000000000000000, 0.000000000000000000, 0.000000000000000000, 0.000000000000000000, 0.000000000000000000, 0.000000000000000000 ) ;
#128 = CARTESIAN_POINT ( 'NONE',  ( 0.3749999999999999445, 4.000000000000000000, 0.000000000000000000 ) ) ;
#129 = AXIS2_PLACEMENT_3D ( 'NONE', #157, #265, #353 ) ;
#130 = PRESENTATION_STYLE_ASSIGNMENT (( #105 ) ) ;
#131 = ADVANCED_FACE ( 'NONE', ( #309 ), #257, .T. ) ;
#132 = CYLINDRICAL_SURFACE ( 'NONE', #348, 0.3750000000000000555 ) ;
#133 = CARTESIAN_POINT ( 'NONE',  ( 4.592425496802576068E-17, 0.3750000000000001110, 0.3750000000000001110 ) ) ;
#134 = DIRECTION ( 'NONE',  ( -1.231509348634544819E-16, 1.000000000000000000, -0.000000000000000000 ) ) ;
#135 = LENGTH_MEASURE_WITH_UNIT ( LENGTH_MEASURE( 0.02539999999999999897 ), #164 );
#136 = LENGTH_MEASURE_WITH_UNIT ( LENGTH_MEASURE( 0.02539999999999999897 ), #246 );
#137 = AXIS2_PLACEMENT_3D ( 'NONE', #181, #43, #100 ) ;
#138 = ADVANCED_FACE ( 'NONE', ( #227 ), #371, .T. ) ;
#139 =( NAMED_UNIT ( * ) PLANE_ANGLE_UNIT ( ) SI_UNIT ( $, .RADIAN. ) );
#140 = LENGTH_MEASURE_WITH_UNIT ( LENGTH_MEASURE( 0.02539999999999999897 ), #281 );
#141 = CARTESIAN_POINT ( 'NONE',  ( -4.592425496802575451E-17, 0.3750000000000000555, 0.000000000000000000 ) ) ;
#142 =( NAMED_UNIT ( * ) PLANE_ANGLE_UNIT ( ) SI_UNIT ( $, .RADIAN. ) );
#143 = CIRCLE ( 'NONE', #190, 0.3749999999999999445 ) ;
#144 = FILL_AREA_STYLE ('',( #60 ) ) ;
#145 = MECHANICAL_DESIGN_GEOMETRIC_PRESENTATION_REPRESENTATION (  '', ( #245 ), #49 ) ;
#146 = LENGTH_MEASURE_WITH_UNIT ( LENGTH_MEASURE( 0.02539999999999999897 ), #282 );
#147 = EDGE_CURVE ( 'NONE', #6, #214, #358, .T. ) ;
#148 =( NAMED_UNIT ( * ) PLANE_ANGLE_UNIT ( ) SI_UNIT ( $, .RADIAN. ) );
#149 = DIRECTION ( 'NONE',  ( -1.000000000000000000, 0.000000000000000000, 0.000000000000000000 ) ) ;
#150 = DIRECTION ( 'NONE',  ( 0.000000000000000000, 0.000000000000000000, 1.000000000000000000 ) ) ;
#151 = PRESENTATION_LAYER_ASSIGNMENT (  '', '', ( #66 ) ) ;
#152 = EDGE_CURVE ( 'NONE', #214, #31, #255, .T. ) ;
#153 = CIRCLE ( 'NONE', #112, 0.3750000000000001110 ) ;
#154 = DIRECTION ( 'NONE',  ( 1.000000000000000000, 1.231509348634544819E-16, 0.000000000000000000 ) ) ;
#155 = ORIENTED_EDGE ( 'NONE', *, *, #79, .T. ) ;
#156 = PLANE ( 'NONE',  #269 ) ;
#157 = CARTESIAN_POINT ( 'NONE',  ( 0.000000000000000000, 0.3750000000000001110, 0.000000000000000000 ) ) ;
#158 = CARTESIAN_POINT ( 'NONE',  ( 0.000000000000000000, 0.3750000000000001110, 0.000000000000000000 ) ) ;
#159 =( GEOMETRIC_REPRESENTATION_CONTEXT ( 3 ) GLOBAL_UNCERTAINTY_ASSIGNED_CONTEXT ( ( #176 ) ) GLOBAL_UNIT_ASSIGNED_CONTEXT ( ( #242, #271, #328 ) ) REPRESENTATION_CONTEXT ( 'NONE', 'WORKASPACE' ) );
#160 = FILL_AREA_STYLE_COLOUR ( '', #53 ) ;
#161 = UNCERTAINTY_MEASURE_WITH_UNIT (LENGTH_MEASURE( 1.000000000000000082E-05 ), #113, 'distance_accuracy_value', 'NONE');
#162 =( CONVERSION_BASED_UNIT ( 'INCH', #52 ) LENGTH_UNIT ( ) NAMED_UNIT ( #322 ) );
#163 = MECHANICAL_DESIGN_GEOMETRIC_PRESENTATION_REPRESENTATION (  '', ( #208 ), #159 ) ;
#164 =( LENGTH_UNIT ( ) NAMED_UNIT ( * ) SI_UNIT ( $, .METRE. ) );
#165 = DIRECTION ( 'NONE',  ( 1.000000000000000000, 0.000000000000000000, 0.000000000000000000 ) ) ;
#166 =( NAMED_UNIT ( * ) PLANE_ANGLE_UNIT ( ) SI_UNIT ( $, .RADIAN. ) );
#167 = UNCERTAINTY_MEASURE_WITH_UNIT (LENGTH_MEASURE( 1.000000000000000082E-05 ), #16, 'distance_accuracy_value', 'NONE');
#168 =( NAMED_UNIT ( * ) PLANE_ANGLE_UNIT ( ) SI_UNIT ( $, .RADIAN. ) );
#169 =( NAMED_UNIT ( * ) SI_UNIT ( $, .STERADIAN. ) SOLID_ANGLE_UNIT ( ) );
#170 = EDGE_CURVE ( 'NONE', #32, #231, #96, .T. ) ;
#171 = STYLED_ITEM ( 'NONE', ( #225 ), #336 ) ;
#172 = VERTEX_POINT ( 'NONE', #297 ) ;
#173 = CARTESIAN_POINT ( 'NONE',  ( 2.469881246756281744E-16, 1.000000000000000000, 0.000000000000000000 ) ) ;
#174 = SURFACE_SIDE_STYLE ('',( #233 ) ) ;
#175 = ORIENTED_EDGE ( 'NONE', *, *, #368, .F. ) ;
#176 = UNCERTAINTY_MEASURE_WITH_UNIT (LENGTH_MEASURE( 1.000000000000000082E-05 ), #242, 'distance_accuracy_value', 'NONE');
#177 = COLOUR_RGB ( '',1.000000000000000000, 0.000000000000000000, 0.000000000000000000 ) ;
#178 = PRESENTATION_LAYER_ASSIGNMENT (  '', '', ( #14 ) ) ;
#179 = CARTESIAN_POINT ( 'NONE',  ( 2.469881246756281744E-16, 1.000000000000000222, 0.000000000000000000 ) ) ;
#180 = DIMENSIONAL_EXPONENTS ( 1.000000000000000000, 0.000000000000000000, 0.000000000000000000, 0.000000000000000000, 0.000000000000000000, 0.000000000000000000, 0.000000000000000000 ) ;
#181 = CARTESIAN_POINT ( 'NONE',  ( 2.469881246756281744E-16, 1.000000000000000222, 0.000000000000000000 ) ) ;
#182 = DIRECTION ( 'NONE',  ( -1.231509348634544819E-16, 1.000000000000000000, -0.000000000000000000 ) ) ;
#183 = ORIENTED_EDGE ( 'NONE', *, *, #152, .F. ) ;
#184 = AXIS2_PLACEMENT_3D ( 'NONE', #173, #312, #287 ) ;
#185 = FACE_OUTER_BOUND ( 'NONE', #324, .T. ) ;
#186 = ORIENTED_EDGE ( 'NONE', *, *, #170, .F. ) ;
#187 = EDGE_CURVE ( 'NONE', #204, #341, #346, .T. ) ;
#188 =( LENGTH_UNIT ( ) NAMED_UNIT ( * ) SI_UNIT ( $, .METRE. ) );
#189 = FILL_AREA_STYLE ('',( #247 ) ) ;
#190 = AXIS2_PLACEMENT_3D ( 'NONE', #223, #50, #277 ) ;
#191 = PRESENTATION_LAYER_ASSIGNMENT (  '', '', ( #171 ) ) ;
#192 =( NAMED_UNIT ( * ) SI_UNIT ( $, .STERADIAN. ) SOLID_ANGLE_UNIT ( ) );
#193 = PRESENTATION_STYLE_ASSIGNMENT (( #311 ) ) ;
#194 = PRODUCT_DEFINITION_CONTEXT ( 'detailed design', #15, 'design' ) ;
#195 = FILL_AREA_STYLE_COLOUR ( '', #363 ) ;
#196 = DIRECTION ( 'NONE',  ( 0.000000000000000000, 0.000000000000000000, -1.000000000000000000 ) ) ;
#197 = CARTESIAN_POINT ( 'NONE',  ( -1.224646799147352714E-16, 4.000000000000000000, 0.000000000000000000 ) ) ;
#198 = SURFACE_SIDE_STYLE ('',( #305 ) ) ;
#199 = AXIS2_PLACEMENT_3D ( 'NONE', #351, #41, #319 ) ;
#200 = FILL_AREA_STYLE_COLOUR ( '', #107 ) ;
#201 = LINE ( 'NONE', #279, #268 ) ;
#202 = PRESENTATION_LAYER_ASSIGNMENT (  '', '', ( #362 ) ) ;
#203 = AXIS2_PLACEMENT_3D ( 'NONE', #158, #36, #293 ) ;
#204 = VERTEX_POINT ( 'NONE', #38 ) ;
#205 = UNCERTAINTY_MEASURE_WITH_UNIT (LENGTH_MEASURE( 1.000000000000000082E-05 ), #338, 'distance_accuracy_value', 'NONE');
#206 = CARTESIAN_POINT ( 'NONE',  ( -1.224646799147352714E-16, 4.000000000000000000, 0.000000000000000000 ) ) ;
#207 = CYLINDRICAL_SURFACE ( 'NONE', #81, 0.3749999999999998890 ) ;
#208 = STYLED_ITEM ( 'NONE', ( #130 ), #10 ) ;
#209 = ORIENTED_EDGE ( 'NONE', *, *, #340, .T. ) ;
#210 = DIMENSIONAL_EXPONENTS ( 1.000000000000000000, 0.000000000000000000, 0.000000000000000000, 0.000000000000000000, 0.000000000000000000, 0.000000000000000000, 0.000000000000000000 ) ;
#211 = VERTEX_POINT ( 'NONE', #5 ) ;
#212 = EDGE_CURVE ( 'NONE', #204, #29, #234, .T. ) ;
#213 = DIRECTION ( 'NONE',  ( -0.000000000000000000, -1.000000000000000000, -0.000000000000000000 ) ) ;
#214 = VERTEX_POINT ( 'NONE', #118 ) ;
#215 = CARTESIAN_POINT ( 'NONE',  ( 4.592425496802575451E-17, 1.000000000000000000, 0.3749999999999999445 ) ) ;
#216 = PRESENTATION_LAYER_ASSIGNMENT (  '', '', ( #245 ) ) ;
#217 = DIRECTION ( 'NONE',  ( -0.000000000000000000, -1.000000000000000000, -0.000000000000000000 ) ) ;
#218 = EDGE_LOOP ( 'NONE', ( #300, #264, #37, #262 ) ) ;
#219 = SURFACE_STYLE_FILL_AREA ( #71 ) ;
#220 = EDGE_LOOP ( 'NONE', ( #320, #237, #323, #325, #288 ) ) ;
#221 =( CONVERSION_BASED_UNIT ( 'INCH', #135 ) LENGTH_UNIT ( ) NAMED_UNIT ( #345 ) );
#222 = CARTESIAN_POINT ( 'NONE',  ( 4.592425496802575451E-17, 0.000000000000000000, 0.3750000000000000555 ) ) ;
#223 = CARTESIAN_POINT ( 'NONE',  ( 0.000000000000000000, 1.000000000000000000, 0.000000000000000000 ) ) ;
#224 = EDGE_CURVE ( 'NONE', #211, #6, #3, .T. ) ;
#225 = PRESENTATION_STYLE_ASSIGNMENT (( #13 ) ) ;
#226 = AXIS2_PLACEMENT_3D ( 'NONE', #51, #18, #283 ) ;
#227 = FACE_OUTER_BOUND ( 'NONE', #220, .T. ) ;
#228 = LENGTH_MEASURE_WITH_UNIT ( LENGTH_MEASURE( 0.02539999999999999897 ), #90 );
#229 = CARTESIAN_POINT ( 'NONE',  ( 0.000000000000000000, 0.000000000000000000, 0.000000000000000000 ) ) ;
#230 = FACE_OUTER_BOUND ( 'NONE', #292, .T. ) ;
#231 = VERTEX_POINT ( 'NONE', #215 ) ;
#232 = AXIS2_PLACEMENT_3D ( 'NONE', #308, #111, #361 ) ;
#233 = SURFACE_STYLE_FILL_AREA ( #144 ) ;
#234 = CIRCLE ( 'NONE', #137, 0.3749999999999997780 ) ;
#235 = ADVANCED_FACE ( 'NONE', ( #185 ), #156, .F. ) ;
#236 = PLANE ( 'NONE',  #184 ) ;
#237 = ORIENTED_EDGE ( 'NONE', *, *, #368, .T. ) ;
#238 = CARTESIAN_POINT ( 'NONE',  ( -1.224646799147352714E-16, 4.000000000000000000, 0.000000000000000000 ) ) ;
#239 = EDGE_CURVE ( 'NONE', #172, #341, #153, .T. ) ;
#240 = VECTOR ( 'NONE', #134, 39.37007874015748143 ) ;
#241 = DIRECTION ( 'NONE',  ( -1.000000000000000000, 0.000000000000000000, 0.000000000000000000 ) ) ;
#242 =( CONVERSION_BASED_UNIT ( 'INCH', #126 ) LENGTH_UNIT ( ) NAMED_UNIT ( #124 ) );
#243 =( NAMED_UNIT ( * ) SI_UNIT ( $, .STERADIAN. ) SOLID_ANGLE_UNIT ( ) );
#244 = ADVANCED_FACE ( 'NONE', ( #95 ), #207, .T. ) ;
#245 = STYLED_ITEM ( 'NONE', ( #278 ), #331 ) ;
#246 =( LENGTH_UNIT ( ) NAMED_UNIT ( * ) SI_UNIT ( $, .METRE. ) );
#247 = FILL_AREA_STYLE_COLOUR ( '', #177 ) ;
#248 = CARTESIAN_POINT ( 'NONE',  ( -2.296212748401287109E-17, -6.829619984160658046E-17, 0.000000000000000000 ) ) ;
#249 =( NAMED_UNIT ( * ) SI_UNIT ( $, .STERADIAN. ) SOLID_ANGLE_UNIT ( ) );
#250 = CYLINDRICAL_SURFACE ( 'NONE', #334, 0.3749999999999998890 ) ;
#251 = DIRECTION ( 'NONE',  ( -0.000000000000000000, -1.000000000000000000, -0.000000000000000000 ) ) ;
#252 = EDGE_CURVE ( 'NONE', #29, #204, #34, .T. ) ;
#253 = SURFACE_STYLE_FILL_AREA ( #23 ) ;
#254 = MECHANICAL_DESIGN_GEOMETRIC_PRESENTATION_REPRESENTATION (  '', ( #14 ), #275 ) ;
#255 = CIRCLE ( 'NONE', #129, 0.3750000000000001110 ) ;
#256 = CARTESIAN_POINT ( 'NONE',  ( 0.000000000000000000, 0.3750000000000001110, -0.3750000000000001110 ) ) ;
#257 = SPHERICAL_SURFACE ( 'NONE', #339, 0.3750000000000001110 ) ;
#258 = SHAPE_DEFINITION_REPRESENTATION ( #373, #62 ) ;
#259 = SURFACE_STYLE_USAGE ( .BOTH. , #366 ) ;
#260 = STYLED_ITEM ( 'NONE', ( #193 ), #67 ) ;
#261 = PRESENTATION_STYLE_ASSIGNMENT (( #30 ) ) ;
#262 = ORIENTED_EDGE ( 'NONE', *, *, #340, .F. ) ;
#263 = UNCERTAINTY_MEASURE_WITH_UNIT (LENGTH_MEASURE( 1.000000000000000082E-05 ), #162, 'distance_accuracy_value', 'NONE');
#264 = ORIENTED_EDGE ( 'NONE', *, *, #187, .T. ) ;
#265 = DIRECTION ( 'NONE',  ( -0.000000000000000000, -1.000000000000000000, -0.000000000000000000 ) ) ;
#266 = ORIENTED_EDGE ( 'NONE', *, *, #212, .F. ) ;
#267 = CARTESIAN_POINT ( 'NONE',  ( -4.592425496802575451E-17, 0.3750000000000000555, 0.000000000000000000 ) ) ;
#268 = VECTOR ( 'NONE', #251, 39.37007874015748143 ) ;
#269 = AXIS2_PLACEMENT_3D ( 'NONE', #128, #35, #154 ) ;
#270 = DIRECTION ( 'NONE',  ( 0.000000000000000000, 0.000000000000000000, -1.000000000000000000 ) ) ;
#271 =( NAMED_UNIT ( * ) PLANE_ANGLE_UNIT ( ) SI_UNIT ( $, .RADIAN. ) );
#272 = DIRECTION ( 'NONE',  ( 0.000000000000000000, 0.000000000000000000, -1.000000000000000000 ) ) ;
#273 = FACE_OUTER_BOUND ( 'NONE', #354, .T. ) ;
#274 = CIRCLE ( 'NONE', #87, 0.3750000000000001110 ) ;
#275 =( GEOMETRIC_REPRESENTATION_CONTEXT ( 3 ) GLOBAL_UNCERTAINTY_ASSIGNED_CONTEXT ( ( #342 ) ) GLOBAL_UNIT_ASSIGNED_CONTEXT ( ( #85, #99, #243 ) ) REPRESENTATION_CONTEXT ( 'NONE', 'WORKASPACE' ) );
#276 = LINE ( 'NONE', #17, #240 ) ;
#277 = DIRECTION ( 'NONE',  ( 0.000000000000000000, 0.000000000000000000, -1.000000000000000000 ) ) ;
#278 = PRESENTATION_STYLE_ASSIGNMENT (( #329 ) ) ;
#279 = CARTESIAN_POINT ( 'NONE',  ( 0.000000000000000000, 0.000000000000000000, -0.3750000000000000555 ) ) ;
#280 = CLOSED_SHELL ( 'NONE', ( #244, #114, #313, #235 ) ) ;
#281 =( LENGTH_UNIT ( ) NAMED_UNIT ( * ) SI_UNIT ( $, .METRE. ) );
#282 =( LENGTH_UNIT ( ) NAMED_UNIT ( * ) SI_UNIT ( $, .METRE. ) );
#283 = DIRECTION ( 'NONE',  ( -1.000000000000000000, 0.000000000000000000, 0.000000000000000000 ) ) ;
#284 = SURFACE_STYLE_FILL_AREA ( #80 ) ;
#285 = CARTESIAN_POINT ( 'NONE',  ( -4.592425496802575451E-17, 0.3750000000000000555, 0.000000000000000000 ) ) ;
#286 =( NAMED_UNIT ( * ) SI_UNIT ( $, .STERADIAN. ) SOLID_ANGLE_UNIT ( ) );
#287 = DIRECTION ( 'NONE',  ( -1.000000000000000000, -1.231509348634544819E-16, 0.000000000000000000 ) ) ;
#288 = ORIENTED_EDGE ( 'NONE', *, *, #79, .F. ) ;
#289 = ORIENTED_EDGE ( 'NONE', *, *, #239, .T. ) ;
#290 = FILL_AREA_STYLE_COLOUR ( '', #298 ) ;
#291 = PRODUCT_RELATED_PRODUCT_CATEGORY ( 'part', '', ( #82 ) ) ;
#292 = EDGE_LOOP ( 'NONE', ( #116, #266 ) ) ;
#293 = DIRECTION ( 'NONE',  ( 0.000000000000000000, 0.000000000000000000, -1.000000000000000000 ) ) ;
#294 = ORIENTED_EDGE ( 'NONE', *, *, #224, .T. ) ;
#295 = ORIENTED_EDGE ( 'NONE', *, *, #304, .T. ) ;
#296 = DIRECTION ( 'NONE',  ( 0.000000000000000000, 0.000000000000000000, -1.000000000000000000 ) ) ;
#297 = CARTESIAN_POINT ( 'NONE',  ( -0.3750000000000002220, 4.000000000000000000, 0.000000000000000000 ) ) ;
#298 = COLOUR_RGB ( '',1.000000000000000000, 0.000000000000000000, 0.000000000000000000 ) ;
#299 =( GEOMETRIC_REPRESENTATION_CONTEXT ( 3 ) GLOBAL_UNCERTAINTY_ASSIGNED_CONTEXT ( ( #54 ) ) GLOBAL_UNIT_ASSIGNED_CONTEXT ( ( #21, #166, #169 ) ) REPRESENTATION_CONTEXT ( 'NONE', 'WORKASPACE' ) );
#300 = ORIENTED_EDGE ( 'NONE', *, *, #252, .T. ) ;
#301 = DIRECTION ( 'NONE',  ( 1.000000000000000000, 0.000000000000000000, -1.224646799147353207E-16 ) ) ;
#302 = SURFACE_STYLE_FILL_AREA ( #189 ) ;
#303 = AXIS2_PLACEMENT_3D ( 'NONE', #179, #97, #241 ) ;
#304 = EDGE_CURVE ( 'NONE', #214, #352, #123, .T. ) ;
#305 = SURFACE_STYLE_FILL_AREA ( #365 ) ;
#306 =( NAMED_UNIT ( * ) PLANE_ANGLE_UNIT ( ) SI_UNIT ( $, .RADIAN. ) );
#307 = CARTESIAN_POINT ( 'NONE',  ( 0.000000000000000000, 1.000000000000000000, -0.3749999999999999445 ) ) ;
#308 = CARTESIAN_POINT ( 'NONE',  ( 0.000000000000000000, 1.000000000000000000, 0.000000000000000000 ) ) ;
#309 = FACE_OUTER_BOUND ( 'NONE', #44, .T. ) ;
#310 = APPLICATION_PROTOCOL_DEFINITION ( 'draft international standard', 'automotive_design', 1998, #15 ) ;
#311 = SURFACE_STYLE_USAGE ( .BOTH. , #198 ) ;
#312 = DIRECTION ( 'NONE',  ( -1.231509348634544819E-16, 1.000000000000000000, 0.000000000000000000 ) ) ;
#313 = ADVANCED_FACE ( 'NONE', ( #77 ), #250, .T. ) ;
#314 = DIRECTION ( 'NONE',  ( 0.000000000000000000, 0.000000000000000000, 1.000000000000000000 ) ) ;
#315 = AXIS2_PLACEMENT_3D ( 'NONE', #267, #75, #301 ) ;
#316 = CARTESIAN_POINT ( 'NONE',  ( -1.224646799147352714E-16, 4.000000000000000000, 0.000000000000000000 ) ) ;
#317 =( NAMED_UNIT ( * ) SI_UNIT ( $, .STERADIAN. ) SOLID_ANGLE_UNIT ( ) );
#318 = ORIENTED_EDGE ( 'NONE', *, *, #212, .T. ) ;
#319 = DIRECTION ( 'NONE',  ( 0.000000000000000000, 0.000000000000000000, -1.000000000000000000 ) ) ;
#320 = ORIENTED_EDGE ( 'NONE', *, *, #170, .T. ) ;
#321 = DIRECTION ( 'NONE',  ( -1.000000000000000000, 0.000000000000000000, 0.000000000000000000 ) ) ;
#322 = DIMENSIONAL_EXPONENTS ( 1.000000000000000000, 0.000000000000000000, 0.000000000000000000, 0.000000000000000000, 0.000000000000000000, 0.000000000000000000, 0.000000000000000000 ) ;
#323 = ORIENTED_EDGE ( 'NONE', *, *, #224, .F. ) ;
#324 = EDGE_LOOP ( 'NONE', ( #289, #61 ) ) ;
#325 = ORIENTED_EDGE ( 'NONE', *, *, #74, .F. ) ;
#326 = PRODUCT_DEFINITION_FORMATION_WITH_SPECIFIED_SOURCE ( 'ANY', '', #82, .NOT_KNOWN. ) ;
#327 = SURFACE_SIDE_STYLE ('',( #219 ) ) ;
#328 =( NAMED_UNIT ( * ) SI_UNIT ( $, .STERADIAN. ) SOLID_ANGLE_UNIT ( ) );
#329 = SURFACE_STYLE_USAGE ( .BOTH. , #102 ) ;
#330 = ORIENTED_EDGE ( 'NONE', *, *, #56, .F. ) ;
#331 = ADVANCED_FACE ( 'NONE', ( #364 ), #132, .T. ) ;
#332 = CARTESIAN_POINT ( 'NONE',  ( 0.000000000000000000, 0.000000000000000000, 0.000000000000000000 ) ) ;
#333 = SPHERICAL_SURFACE ( 'NONE', #8, 0.3750000000000001110 ) ;
#334 = AXIS2_PLACEMENT_3D ( 'NONE', #197, #46, #103 ) ;
#335 = DIRECTION ( 'NONE',  ( -0.000000000000000000, -1.000000000000000000, -0.000000000000000000 ) ) ;
#336 = MANIFOLD_SOLID_BREP ( 'Revolve - Cutting Edge', #57 ) ;
#337 = SURFACE_SIDE_STYLE ('',( #284 ) ) ;
#338 =( CONVERSION_BASED_UNIT ( 'INCH', #140 ) LENGTH_UNIT ( ) NAMED_UNIT ( #180 ) );
#339 = AXIS2_PLACEMENT_3D ( 'NONE', #285, #150, #117 ) ;
#340 = EDGE_CURVE ( 'NONE', #29, #172, #276, .T. ) ;
#341 = VERTEX_POINT ( 'NONE', #359 ) ;
#342 = UNCERTAINTY_MEASURE_WITH_UNIT (LENGTH_MEASURE( 1.000000000000000082E-05 ), #85, 'distance_accuracy_value', 'NONE');
#343 =( GEOMETRIC_REPRESENTATION_CONTEXT ( 3 ) GLOBAL_UNCERTAINTY_ASSIGNED_CONTEXT ( ( #167 ) ) GLOBAL_UNIT_ASSIGNED_CONTEXT ( ( #16, #139, #104 ) ) REPRESENTATION_CONTEXT ( 'NONE', 'WORKASPACE' ) );
#344 = ORIENTED_EDGE ( 'NONE', *, *, #93, .F. ) ;
#345 = DIMENSIONAL_EXPONENTS ( 1.000000000000000000, 0.000000000000000000, 0.000000000000000000, 0.000000000000000000, 0.000000000000000000, 0.000000000000000000, 0.000000000000000000 ) ;
#346 = LINE ( 'NONE', #120, #108 ) ;
#347 = PRESENTATION_LAYER_ASSIGNMENT (  '', '', ( #208 ) ) ;
#348 = AXIS2_PLACEMENT_3D ( 'NONE', #332, #217, #272 ) ;
#349 = EDGE_LOOP ( 'NONE', ( #175, #357, #155, #183, #70 ) ) ;
#350 = DIMENSIONAL_EXPONENTS ( 1.000000000000000000, 0.000000000000000000, 0.000000000000000000, 0.000000000000000000, 0.000000000000000000, 0.000000000000000000, 0.000000000000000000 ) ;
#351 = CARTESIAN_POINT ( 'NONE',  ( 0.000000000000000000, 0.000000000000000000, 0.000000000000000000 ) ) ;
#352 = VERTEX_POINT ( 'NONE', #248 ) ;
#353 = DIRECTION ( 'NONE',  ( 0.000000000000000000, 0.000000000000000000, -1.000000000000000000 ) ) ;
#354 = EDGE_LOOP ( 'NONE', ( #119, #64, #360, #121 ) ) ;
#355 = FILL_AREA_STYLE_COLOUR ( '', #88 ) ;
#356 = MECHANICAL_DESIGN_GEOMETRIC_PRESENTATION_REPRESENTATION (  '', ( #66 ), #299 ) ;
#357 = ORIENTED_EDGE ( 'NONE', *, *, #12, .T. ) ;
#358 = CIRCLE ( 'NONE', #203, 0.3750000000000001110 ) ;
#359 = CARTESIAN_POINT ( 'NONE',  ( 0.3749999999999999445, 4.000000000000000000, 4.592425496802575451E-17 ) ) ;
#360 = ORIENTED_EDGE ( 'NONE', *, *, #74, .T. ) ;
#361 = DIRECTION ( 'NONE',  ( 0.000000000000000000, -0.000000000000000000, 1.000000000000000000 ) ) ;
#362 = STYLED_ITEM ( 'NONE', ( #78 ), #92 ) ;
#363 = COLOUR_RGB ( '',1.000000000000000000, 0.000000000000000000, 0.000000000000000000 ) ;
#364 = FACE_OUTER_BOUND ( 'NONE', #349, .T. ) ;
#365 = FILL_AREA_STYLE ('',( #160 ) ) ;
#366 = SURFACE_SIDE_STYLE ('',( #253 ) ) ;
#367 = MECHANICAL_DESIGN_GEOMETRIC_PRESENTATION_REPRESENTATION (  '', ( #260 ), #72 ) ;
#368 = EDGE_CURVE ( 'NONE', #231, #6, #106, .T. ) ;
#369 = FACE_OUTER_BOUND ( 'NONE', #2, .T. ) ;
#370 = UNCERTAINTY_MEASURE_WITH_UNIT (LENGTH_MEASURE( 1.000000000000000082E-05 ), #221, 'distance_accuracy_value', 'NONE');
#371 = CYLINDRICAL_SURFACE ( 'NONE', #199, 0.3750000000000000555 ) ;
#372 = ORIENTED_EDGE ( 'NONE', *, *, #12, .F. ) ;
#373 = PRODUCT_DEFINITION_SHAPE ( 'NONE', 'NONE',  #26 ) ;
ENDSEC;
END-ISO-10303-21;
