ISO-10303-21;
HEADER;
FILE_DESCRIPTION (( 'STEP AP214' ),
    '1' );
FILE_NAME ('12542.STEP',
    '2023-06-30T21:51:37',
    ( '' ),
    ( '' ),
    'SwSTEP 2.0',
    'SolidWorks 2023',
    '' );
FILE_SCHEMA (( 'AUTOMOTIVE_DESIGN' ));
ENDSEC;

DATA;
#1 = ORIENTED_EDGE ( 'NONE', *, *, #361, .T. ) ;
#2 = SURFACE_SIDE_STYLE ('',( #29 ) ) ;
#3 = AXIS2_PLACEMENT_3D ( 'NONE', #50, #344, #144 ) ;
#4 =( LENGTH_UNIT ( ) NAMED_UNIT ( * ) SI_UNIT ( $, .METRE. ) );
#5 = SURFACE_STYLE_FILL_AREA ( #296 ) ;
#6 = DIRECTION ( 'NONE',  ( -0.000000000000000000, -1.000000000000000000, -0.000000000000000000 ) ) ;
#7 = COLOUR_RGB ( '',1.000000000000000000, 0.000000000000000000, 0.000000000000000000 ) ;
#8 =( CONVERSION_BASED_UNIT ( 'INCH', #276 ) LENGTH_UNIT ( ) NAMED_UNIT ( #241 ) );
#9 =( NAMED_UNIT ( * ) SI_UNIT ( $, .STERADIAN. ) SOLID_ANGLE_UNIT ( ) );
#10 = SURFACE_STYLE_USAGE ( .BOTH. , #269 ) ;
#11 = DIRECTION ( 'NONE',  ( -1.224646799147353454E-16, 1.000000000000000000, -0.000000000000000000 ) ) ;
#12 = FILL_AREA_STYLE ('',( #94 ) ) ;
#13 = CYLINDRICAL_SURFACE ( 'NONE', #3, 0.4999999999999998335 ) ;
#14 = EDGE_CURVE ( 'NONE', #182, #117, #366, .T. ) ;
#15 = SURFACE_STYLE_FILL_AREA ( #252 ) ;
#16 = DIRECTION ( 'NONE',  ( -1.000000000000000000, 0.000000000000000000, 0.000000000000000000 ) ) ;
#17 = LENGTH_MEASURE_WITH_UNIT ( LENGTH_MEASURE( 0.02539999999999999897 ), #43 );
#18 = PRODUCT_DEFINITION_SHAPE ( 'NONE', 'NONE',  #256 ) ;
#19 = CARTESIAN_POINT ( 'NONE',  ( -0.4999999999999999445, 4.500000000000000000, 0.000000000000000000 ) ) ;
#20 = VECTOR ( 'NONE', #27, 39.37007874015748143 ) ;
#21 = DIRECTION ( 'NONE',  ( -1.224646799147353454E-16, 1.000000000000000000, -0.000000000000000000 ) ) ;
#22 = EDGE_LOOP ( 'NONE', ( #371, #110, #221, #177 ) ) ;
#23 = CARTESIAN_POINT ( 'NONE',  ( -0.5000000000000000000, 0.5000000000000000000, 6.123233995736764803E-17 ) ) ;
#24 = PRESENTATION_LAYER_ASSIGNMENT (  '', '', ( #259 ) ) ;
#25 = MANIFOLD_SOLID_BREP ( 'Revolve - Tool Body (Straight Shanked)', #324 ) ;
#26 =( GEOMETRIC_REPRESENTATION_CONTEXT ( 3 ) GLOBAL_UNCERTAINTY_ASSIGNED_CONTEXT ( ( #373 ) ) GLOBAL_UNIT_ASSIGNED_CONTEXT ( ( #51, #334, #131 ) ) REPRESENTATION_CONTEXT ( 'NONE', 'WORKASPACE' ) );
#27 = DIRECTION ( 'NONE',  ( -1.224646799147353454E-16, 1.000000000000000000, -0.000000000000000000 ) ) ;
#28 = DIRECTION ( 'NONE',  ( -0.000000000000000000, -1.000000000000000000, -0.000000000000000000 ) ) ;
#29 = SURFACE_STYLE_FILL_AREA ( #310 ) ;
#30 = EDGE_CURVE ( 'NONE', #114, #210, #336, .T. ) ;
#31 =( GEOMETRIC_REPRESENTATION_CONTEXT ( 3 ) GLOBAL_UNCERTAINTY_ASSIGNED_CONTEXT ( ( #105 ) ) GLOBAL_UNIT_ASSIGNED_CONTEXT ( ( #247, #69, #222 ) ) REPRESENTATION_CONTEXT ( 'NONE', 'WORKASPACE' ) );
#32 = ORIENTED_EDGE ( 'NONE', *, *, #56, .T. ) ;
#33 = ORIENTED_EDGE ( 'NONE', *, *, #361, .F. ) ;
#34 = AXIS2_PLACEMENT_3D ( 'NONE', #70, #152, #161 ) ;
#35 = FILL_AREA_STYLE_COLOUR ( '', #54 ) ;
#36 = VERTEX_POINT ( 'NONE', #19 ) ;
#37 = CARTESIAN_POINT ( 'NONE',  ( -6.123233995736766036E-17, 0.5000000000000000000, 0.000000000000000000 ) ) ;
#38 = COLOUR_RGB ( '',0.7921568627450980005, 0.8196078431372548767, 0.9333333333333333481 ) ;
#39 = ORIENTED_EDGE ( 'NONE', *, *, #81, .F. ) ;
#40 = CARTESIAN_POINT ( 'NONE',  ( 0.000000000000000000, 0.000000000000000000, 0.000000000000000000 ) ) ;
#41 = SURFACE_STYLE_FILL_AREA ( #65 ) ;
#42 = AXIS2_PLACEMENT_3D ( 'NONE', #251, #332, #302 ) ;
#43 =( LENGTH_UNIT ( ) NAMED_UNIT ( * ) SI_UNIT ( $, .METRE. ) );
#44 = DIRECTION ( 'NONE',  ( -1.000000000000000000, 0.000000000000000000, 0.000000000000000000 ) ) ;
#45 = CIRCLE ( 'NONE', #157, 0.4999999999999998335 ) ;
#46 = CARTESIAN_POINT ( 'NONE',  ( 2.449293598294706414E-16, 2.000000000000000000, 0.000000000000000000 ) ) ;
#47 = SURFACE_STYLE_USAGE ( .BOTH. , #273 ) ;
#48 = SURFACE_STYLE_USAGE ( .BOTH. , #162 ) ;
#49 = ADVANCED_FACE ( 'NONE', ( #79 ), #193, .T. ) ;
#50 = CARTESIAN_POINT ( 'NONE',  ( 0.000000000000000000, 0.000000000000000000, 0.000000000000000000 ) ) ;
#51 =( CONVERSION_BASED_UNIT ( 'INCH', #329 ) LENGTH_UNIT ( ) NAMED_UNIT ( #199 ) );
#52 = MECHANICAL_DESIGN_GEOMETRIC_PRESENTATION_REPRESENTATION (  '', ( #311 ), #26 ) ;
#53 = EDGE_LOOP ( 'NONE', ( #83, #220, #321, #62, #289 ) ) ;
#54 = COLOUR_RGB ( '',0.7921568627450980005, 0.8196078431372548767, 0.9333333333333333481 ) ;
#55 = STYLED_ITEM ( 'NONE', ( #265 ), #280 ) ;
#56 = EDGE_CURVE ( 'NONE', #123, #266, #96, .T. ) ;
#57 = DIRECTION ( 'NONE',  ( 0.000000000000000000, 0.000000000000000000, -1.000000000000000000 ) ) ;
#58 = ORIENTED_EDGE ( 'NONE', *, *, #81, .T. ) ;
#59 = FACE_OUTER_BOUND ( 'NONE', #89, .T. ) ;
#60 = PRESENTATION_LAYER_ASSIGNMENT (  '', '', ( #55 ) ) ;
#61 = EDGE_CURVE ( 'NONE', #36, #171, #357, .T. ) ;
#62 = ORIENTED_EDGE ( 'NONE', *, *, #263, .F. ) ;
#63 = AXIS2_PLACEMENT_3D ( 'NONE', #115, #342, #353 ) ;
#64 = ORIENTED_EDGE ( 'NONE', *, *, #263, .T. ) ;
#65 = FILL_AREA_STYLE ('',( #326 ) ) ;
#66 = CARTESIAN_POINT ( 'NONE',  ( 0.000000000000000000, 2.000000000000000000, 0.000000000000000000 ) ) ;
#67 = SPHERICAL_SURFACE ( 'NONE', #109, 0.5000000000000000000 ) ;
#68 = MECHANICAL_DESIGN_GEOMETRIC_PRESENTATION_REPRESENTATION (  '', ( #297 ), #300 ) ;
#69 =( NAMED_UNIT ( * ) PLANE_ANGLE_UNIT ( ) SI_UNIT ( $, .RADIAN. ) );
#70 = CARTESIAN_POINT ( 'NONE',  ( -6.123233995736766036E-17, 0.5000000000000000000, 0.000000000000000000 ) ) ;
#71 = ADVANCED_FACE ( 'NONE', ( #278 ), #365, .T. ) ;
#72 = FILL_AREA_STYLE_COLOUR ( '', #7 ) ;
#73 = UNCERTAINTY_MEASURE_WITH_UNIT (LENGTH_MEASURE( 1.000000000000000082E-05 ), #8, 'distance_accuracy_value', 'NONE');
#74 = CARTESIAN_POINT ( 'NONE',  ( 2.449293598294706414E-16, 2.000000000000000000, 0.000000000000000000 ) ) ;
#75 = CARTESIAN_POINT ( 'NONE',  ( 0.4999999999999998335, 4.500000000000000000, 6.123233995736764803E-17 ) ) ;
#76 = APPLICATION_CONTEXT ( 'automotive_design' ) ;
#77 = FACE_OUTER_BOUND ( 'NONE', #22, .T. ) ;
#78 = AXIS2_PLACEMENT_3D ( 'NONE', #88, #172, #137 ) ;
#79 = FACE_OUTER_BOUND ( 'NONE', #218, .T. ) ;
#80 = PRESENTATION_STYLE_ASSIGNMENT (( #48 ) ) ;
#81 = EDGE_CURVE ( 'NONE', #182, #337, #370, .T. ) ;
#82 = CIRCLE ( 'NONE', #78, 0.4999999999999998335 ) ;
#83 = ORIENTED_EDGE ( 'NONE', *, *, #223, .T. ) ;
#84 = ORIENTED_EDGE ( 'NONE', *, *, #61, .T. ) ;
#85 = FACE_OUTER_BOUND ( 'NONE', #203, .T. ) ;
#86 =( NAMED_UNIT ( * ) SI_UNIT ( $, .STERADIAN. ) SOLID_ANGLE_UNIT ( ) );
#87 =( NAMED_UNIT ( * ) SI_UNIT ( $, .STERADIAN. ) SOLID_ANGLE_UNIT ( ) );
#88 = CARTESIAN_POINT ( 'NONE',  ( 0.000000000000000000, 0.5000000000000000000, 0.000000000000000000 ) ) ;
#89 = EDGE_LOOP ( 'NONE', ( #232, #212 ) ) ;
#90 = PRESENTATION_STYLE_ASSIGNMENT (( #345 ) ) ;
#91 = ORIENTED_EDGE ( 'NONE', *, *, #30, .F. ) ;
#92 = EDGE_CURVE ( 'NONE', #171, #36, #320, .T. ) ;
#93 =( CONVERSION_BASED_UNIT ( 'INCH', #135 ) LENGTH_UNIT ( ) NAMED_UNIT ( #286 ) );
#94 = FILL_AREA_STYLE_COLOUR ( '', #38 ) ;
#95 = PRESENTATION_STYLE_ASSIGNMENT (( #190 ) ) ;
#96 = CIRCLE ( 'NONE', #148, 0.4999999999999996114 ) ;
#97 = UNCERTAINTY_MEASURE_WITH_UNIT (LENGTH_MEASURE( 1.000000000000000082E-05 ), #93, 'distance_accuracy_value', 'NONE');
#98 = LENGTH_MEASURE_WITH_UNIT ( LENGTH_MEASURE( 0.02539999999999999897 ), #271 );
#99 =( GEOMETRIC_REPRESENTATION_CONTEXT ( 3 ) GLOBAL_UNCERTAINTY_ASSIGNED_CONTEXT ( ( #97 ) ) GLOBAL_UNIT_ASSIGNED_CONTEXT ( ( #93, #132, #154 ) ) REPRESENTATION_CONTEXT ( 'NONE', 'WORKASPACE' ) );
#100 = FACE_OUTER_BOUND ( 'NONE', #140, .T. ) ;
#101 = SURFACE_SIDE_STYLE ('',( #194 ) ) ;
#102 = DIRECTION ( 'NONE',  ( 0.000000000000000000, 0.000000000000000000, 1.000000000000000000 ) ) ;
#103 = COLOUR_RGB ( '',1.000000000000000000, 0.000000000000000000, 0.000000000000000000 ) ;
#104 =( GEOMETRIC_REPRESENTATION_CONTEXT ( 3 ) GLOBAL_UNCERTAINTY_ASSIGNED_CONTEXT ( ( #192 ) ) GLOBAL_UNIT_ASSIGNED_CONTEXT ( ( #147, #197, #86 ) ) REPRESENTATION_CONTEXT ( 'NONE', 'WORKASPACE' ) );
#105 = UNCERTAINTY_MEASURE_WITH_UNIT (LENGTH_MEASURE( 1.000000000000000082E-05 ), #247, 'distance_accuracy_value', 'NONE');
#106 = EDGE_CURVE ( 'NONE', #210, #244, #267, .T. ) ;
#107 = ORIENTED_EDGE ( 'NONE', *, *, #335, .F. ) ;
#108 = CARTESIAN_POINT ( 'NONE',  ( 0.000000000000000000, 0.5000000000000000000, -0.4999999999999998335 ) ) ;
#109 = AXIS2_PLACEMENT_3D ( 'NONE', #37, #275, #322 ) ;
#110 = ORIENTED_EDGE ( 'NONE', *, *, #369, .T. ) ;
#111 = COLOUR_RGB ( '',1.000000000000000000, 0.000000000000000000, 0.000000000000000000 ) ;
#112 = CARTESIAN_POINT ( 'NONE',  ( 0.4999999999999998335, 2.000000000000000000, 6.123233995736764803E-17 ) ) ;
#113 =( CONVERSION_BASED_UNIT ( 'INCH', #341 ) LENGTH_UNIT ( ) NAMED_UNIT ( #262 ) );
#114 = VERTEX_POINT ( 'NONE', #119 ) ;
#115 = CARTESIAN_POINT ( 'NONE',  ( 0.4999999999999997780, 4.500000000000000000, 0.000000000000000000 ) ) ;
#116 = AXIS2_PLACEMENT_3D ( 'NONE', #364, #126, #268 ) ;
#117 = VERTEX_POINT ( 'NONE', #347 ) ;
#118 = SURFACE_STYLE_USAGE ( .BOTH. , #285 ) ;
#119 = CARTESIAN_POINT ( 'NONE',  ( 6.123233995736763571E-17, 2.000000000000000000, 0.4999999999999997780 ) ) ;
#120 = MECHANICAL_DESIGN_GEOMETRIC_PRESENTATION_REPRESENTATION (  '', ( #217 ), #213 ) ;
#121 = PLANE ( 'NONE',  #235 ) ;
#122 = PRESENTATION_LAYER_ASSIGNMENT (  '', '', ( #284 ) ) ;
#123 = VERTEX_POINT ( 'NONE', #243 ) ;
#124 = PRESENTATION_LAYER_ASSIGNMENT (  '', '', ( #217 ) ) ;
#125 = PRESENTATION_STYLE_ASSIGNMENT (( #10 ) ) ;
#126 = DIRECTION ( 'NONE',  ( -0.000000000000000000, -1.000000000000000000, -0.000000000000000000 ) ) ;
#127 = CYLINDRICAL_SURFACE ( 'NONE', #307, 0.4999999999999998335 ) ;
#128 = SHAPE_DEFINITION_REPRESENTATION ( #18, #283 ) ;
#129 = SURFACE_STYLE_FILL_AREA ( #12 ) ;
#130 = MECHANICAL_DESIGN_GEOMETRIC_PRESENTATION_REPRESENTATION (  '', ( #284 ), #31 ) ;
#131 =( NAMED_UNIT ( * ) SI_UNIT ( $, .STERADIAN. ) SOLID_ANGLE_UNIT ( ) );
#132 =( NAMED_UNIT ( * ) PLANE_ANGLE_UNIT ( ) SI_UNIT ( $, .RADIAN. ) );
#133 = PRESENTATION_STYLE_ASSIGNMENT (( #188 ) ) ;
#134 = AXIS2_PLACEMENT_3D ( 'NONE', #40, #187, #159 ) ;
#135 = LENGTH_MEASURE_WITH_UNIT ( LENGTH_MEASURE( 0.02539999999999999897 ), #355 );
#136 = DIRECTION ( 'NONE',  ( -1.000000000000000000, 0.000000000000000000, 0.000000000000000000 ) ) ;
#137 = DIRECTION ( 'NONE',  ( 0.000000000000000000, 0.000000000000000000, -1.000000000000000000 ) ) ;
#138 = AXIS2_PLACEMENT_3D ( 'NONE', #294, #352, #340 ) ;
#139 = EDGE_CURVE ( 'NONE', #123, #36, #319, .T. ) ;
#140 = EDGE_LOOP ( 'NONE', ( #107, #305, #64, #58 ) ) ;
#141 = CLOSED_SHELL ( 'NONE', ( #71, #180, #313, #155, #167 ) ) ;
#142 = ORIENTED_EDGE ( 'NONE', *, *, #335, .T. ) ;
#143 = ADVANCED_FACE ( 'NONE', ( #59 ), #121, .F. ) ;
#144 = DIRECTION ( 'NONE',  ( 0.000000000000000000, 0.000000000000000000, -1.000000000000000000 ) ) ;
#145 = ORIENTED_EDGE ( 'NONE', *, *, #106, .T. ) ;
#146 = DIRECTION ( 'NONE',  ( -1.000000000000000000, -1.224646799147353454E-16, 0.000000000000000000 ) ) ;
#147 =( CONVERSION_BASED_UNIT ( 'INCH', #368 ) LENGTH_UNIT ( ) NAMED_UNIT ( #208 ) );
#148 = AXIS2_PLACEMENT_3D ( 'NONE', #46, #21, #255 ) ;
#149 = ADVANCED_FACE ( 'NONE', ( #261 ), #215, .F. ) ;
#150 = VECTOR ( 'NONE', #236, 39.37007874015748143 ) ;
#151 = APPLICATION_CONTEXT ( 'automotive_design' ) ;
#152 = DIRECTION ( 'NONE',  ( 1.224646799147353207E-16, -0.000000000000000000, 1.000000000000000000 ) ) ;
#153 = DIRECTION ( 'NONE',  ( 0.000000000000000000, 0.000000000000000000, -1.000000000000000000 ) ) ;
#154 =( NAMED_UNIT ( * ) SI_UNIT ( $, .STERADIAN. ) SOLID_ANGLE_UNIT ( ) );
#155 = ADVANCED_FACE ( 'NONE', ( #228 ), #127, .T. ) ;
#156 =( NAMED_UNIT ( * ) PLANE_ANGLE_UNIT ( ) SI_UNIT ( $, .RADIAN. ) );
#157 = AXIS2_PLACEMENT_3D ( 'NONE', #234, #202, #304 ) ;
#158 = LENGTH_MEASURE_WITH_UNIT ( LENGTH_MEASURE( 0.02539999999999999897 ), #4 );
#159 = DIRECTION ( 'NONE',  ( 1.000000000000000000, 0.000000000000000000, 0.000000000000000000 ) ) ;
#160 = FILL_AREA_STYLE ('',( #363 ) ) ;
#161 = DIRECTION ( 'NONE',  ( 1.000000000000000000, 0.000000000000000000, -1.224646799147353207E-16 ) ) ;
#162 = SURFACE_SIDE_STYLE ('',( #15 ) ) ;
#163 = DIRECTION ( 'NONE',  ( -1.224646799147353454E-16, 1.000000000000000000, -0.000000000000000000 ) ) ;
#164 = SURFACE_STYLE_FILL_AREA ( #160 ) ;
#165 = DIRECTION ( 'NONE',  ( -1.224646799147353454E-16, 1.000000000000000000, -0.000000000000000000 ) ) ;
#166 = CYLINDRICAL_SURFACE ( 'NONE', #138, 0.4999999999999997224 ) ;
#167 = ADVANCED_FACE ( 'NONE', ( #100 ), #67, .T. ) ;
#168 = STYLED_ITEM ( 'NONE', ( #367 ), #180 ) ;
#169 = CARTESIAN_POINT ( 'NONE',  ( -6.123233995736770966E-17, 4.500000000000000000, 0.000000000000000000 ) ) ;
#170 = VECTOR ( 'NONE', #6, 39.37007874015748143 ) ;
#171 = VERTEX_POINT ( 'NONE', #75 ) ;
#172 = DIRECTION ( 'NONE',  ( -0.000000000000000000, -1.000000000000000000, -0.000000000000000000 ) ) ;
#173 = UNCERTAINTY_MEASURE_WITH_UNIT (LENGTH_MEASURE( 1.000000000000000082E-05 ), #219, 'distance_accuracy_value', 'NONE');
#174 = VECTOR ( 'NONE', #28, 39.37007874015748143 ) ;
#175 =( LENGTH_UNIT ( ) NAMED_UNIT ( * ) SI_UNIT ( $, .METRE. ) );
#176 = DIMENSIONAL_EXPONENTS ( 1.000000000000000000, 0.000000000000000000, 0.000000000000000000, 0.000000000000000000, 0.000000000000000000, 0.000000000000000000, 0.000000000000000000 ) ;
#177 = ORIENTED_EDGE ( 'NONE', *, *, #92, .F. ) ;
#178 =( LENGTH_UNIT ( ) NAMED_UNIT ( * ) SI_UNIT ( $, .METRE. ) );
#179 = AXIS2_PLACEMENT_3D ( 'NONE', #66, #189, #292 ) ;
#180 = ADVANCED_FACE ( 'NONE', ( #246 ), #13, .T. ) ;
#181 = CARTESIAN_POINT ( 'NONE',  ( 0.000000000000000000, 0.5000000000000000000, 0.000000000000000000 ) ) ;
#182 = VERTEX_POINT ( 'NONE', #264 ) ;
#183 = DIMENSIONAL_EXPONENTS ( 1.000000000000000000, 0.000000000000000000, 0.000000000000000000, 0.000000000000000000, 0.000000000000000000, 0.000000000000000000, 0.000000000000000000 ) ;
#184 =( GEOMETRIC_REPRESENTATION_CONTEXT ( 3 ) GLOBAL_UNCERTAINTY_ASSIGNED_CONTEXT ( ( #358 ) ) GLOBAL_UNIT_ASSIGNED_CONTEXT ( ( #113, #214, #87 ) ) REPRESENTATION_CONTEXT ( 'NONE', 'WORKASPACE' ) );
#185 = CARTESIAN_POINT ( 'NONE',  ( -3.061616997868383018E-17, 0.000000000000000000, 0.000000000000000000 ) ) ;
#186 = ORIENTED_EDGE ( 'NONE', *, *, #14, .T. ) ;
#187 = DIRECTION ( 'NONE',  ( 0.000000000000000000, 0.000000000000000000, 1.000000000000000000 ) ) ;
#188 = SURFACE_STYLE_USAGE ( .BOTH. , #249 ) ;
#189 = DIRECTION ( 'NONE',  ( -0.000000000000000000, -1.000000000000000000, -0.000000000000000000 ) ) ;
#190 = SURFACE_STYLE_USAGE ( .BOTH. , #101 ) ;
#191 = CIRCLE ( 'NONE', #34, 0.5000000000000000000 ) ;
#192 = UNCERTAINTY_MEASURE_WITH_UNIT (LENGTH_MEASURE( 1.000000000000000082E-05 ), #147, 'distance_accuracy_value', 'NONE');
#193 = CYLINDRICAL_SURFACE ( 'NONE', #303, 0.4999999999999997224 ) ;
#194 = SURFACE_STYLE_FILL_AREA ( #356 ) ;
#195 = CARTESIAN_POINT ( 'NONE',  ( 0.000000000000000000, 0.000000000000000000, 0.000000000000000000 ) ) ;
#196 = CARTESIAN_POINT ( 'NONE',  ( -6.123233995736766036E-17, 0.5000000000000000000, 0.000000000000000000 ) ) ;
#197 =( NAMED_UNIT ( * ) PLANE_ANGLE_UNIT ( ) SI_UNIT ( $, .RADIAN. ) );
#198 =( LENGTH_UNIT ( ) NAMED_UNIT ( * ) SI_UNIT ( $, .METRE. ) );
#199 = DIMENSIONAL_EXPONENTS ( 1.000000000000000000, 0.000000000000000000, 0.000000000000000000, 0.000000000000000000, 0.000000000000000000, 0.000000000000000000, 0.000000000000000000 ) ;
#200 = EDGE_CURVE ( 'NONE', #266, #171, #206, .T. ) ;
#201 = DIRECTION ( 'NONE',  ( -1.224646799147353454E-16, 1.000000000000000000, -0.000000000000000000 ) ) ;
#202 = DIRECTION ( 'NONE',  ( -0.000000000000000000, -1.000000000000000000, -0.000000000000000000 ) ) ;
#203 = EDGE_LOOP ( 'NONE', ( #257, #91 ) ) ;
#204 = DIRECTION ( 'NONE',  ( -1.000000000000000000, 0.000000000000000000, 0.000000000000000000 ) ) ;
#205 = FILL_AREA_STYLE_COLOUR ( '', #359 ) ;
#206 = LINE ( 'NONE', #260, #150 ) ;
#207 = ORIENTED_EDGE ( 'NONE', *, *, #216, .F. ) ;
#209 = EDGE_CURVE ( 'NONE', #114, #117, #309, .T. ) ;
#208 = DIMENSIONAL_EXPONENTS ( 1.000000000000000000, 0.000000000000000000, 0.000000000000000000, 0.000000000000000000, 0.000000000000000000, 0.000000000000000000, 0.000000000000000000 ) ;
#210 = VERTEX_POINT ( 'NONE', #281 ) ;
#211 = DIMENSIONAL_EXPONENTS ( 1.000000000000000000, 0.000000000000000000, 0.000000000000000000, 0.000000000000000000, 0.000000000000000000, 0.000000000000000000, 0.000000000000000000 ) ;
#212 = ORIENTED_EDGE ( 'NONE', *, *, #369, .F. ) ;
#213 =( GEOMETRIC_REPRESENTATION_CONTEXT ( 3 ) GLOBAL_UNCERTAINTY_ASSIGNED_CONTEXT ( ( #173 ) ) GLOBAL_UNIT_ASSIGNED_CONTEXT ( ( #219, #156, #9 ) ) REPRESENTATION_CONTEXT ( 'NONE', 'WORKASPACE' ) );
#214 =( NAMED_UNIT ( * ) PLANE_ANGLE_UNIT ( ) SI_UNIT ( $, .RADIAN. ) );
#215 = PLANE ( 'NONE',  #63 ) ;
#216 = EDGE_CURVE ( 'NONE', #239, #244, #82, .T. ) ;
#217 = STYLED_ITEM ( 'NONE', ( #133 ), #155 ) ;
#218 = EDGE_LOOP ( 'NONE', ( #32, #338, #258, #315 ) ) ;
#219 =( CONVERSION_BASED_UNIT ( 'INCH', #98 ) LENGTH_UNIT ( ) NAMED_UNIT ( #176 ) );
#220 = ORIENTED_EDGE ( 'NONE', *, *, #209, .T. ) ;
#221 = ORIENTED_EDGE ( 'NONE', *, *, #139, .T. ) ;
#222 =( NAMED_UNIT ( * ) SI_UNIT ( $, .STERADIAN. ) SOLID_ANGLE_UNIT ( ) );
#223 = EDGE_CURVE ( 'NONE', #210, #114, #231, .T. ) ;
#224 = MECHANICAL_DESIGN_GEOMETRIC_PRESENTATION_REPRESENTATION (  '', ( #168 ), #104 ) ;
#225 = DIRECTION ( 'NONE',  ( -0.000000000000000000, -1.000000000000000000, -0.000000000000000000 ) ) ;
#226 = CIRCLE ( 'NONE', #291, 0.4999999999999996114 ) ;
#227 = CARTESIAN_POINT ( 'NONE',  ( -6.123233995736770966E-17, 4.500000000000000000, 0.000000000000000000 ) ) ;
#228 = FACE_OUTER_BOUND ( 'NONE', #372, .T. ) ;
#229 =( CONVERSION_BASED_UNIT ( 'INCH', #17 ) LENGTH_UNIT ( ) NAMED_UNIT ( #211 ) );
#230 = DIRECTION ( 'NONE',  ( 1.000000000000000000, 0.000000000000000000, 0.000000000000000000 ) ) ;
#231 = CIRCLE ( 'NONE', #233, 0.4999999999999997780 ) ;
#232 = ORIENTED_EDGE ( 'NONE', *, *, #56, .F. ) ;
#233 = AXIS2_PLACEMENT_3D ( 'NONE', #237, #253, #57 ) ;
#234 = CARTESIAN_POINT ( 'NONE',  ( 0.000000000000000000, 0.5000000000000000000, 0.000000000000000000 ) ) ;
#235 = AXIS2_PLACEMENT_3D ( 'NONE', #245, #349, #146 ) ;
#236 = DIRECTION ( 'NONE',  ( -1.224646799147353454E-16, 1.000000000000000000, -0.000000000000000000 ) ) ;
#237 = CARTESIAN_POINT ( 'NONE',  ( 0.000000000000000000, 2.000000000000000000, 0.000000000000000000 ) ) ;
#238 = CIRCLE ( 'NONE', #116, 0.4999999999999998335 ) ;
#239 = VERTEX_POINT ( 'NONE', #23 ) ;
#240 = PLANE ( 'NONE',  #343 ) ;
#241 = DIMENSIONAL_EXPONENTS ( 1.000000000000000000, 0.000000000000000000, 0.000000000000000000, 0.000000000000000000, 0.000000000000000000, 0.000000000000000000, 0.000000000000000000 ) ;
#242 = EDGE_LOOP ( 'NONE', ( #84, #351 ) ) ;
#243 = CARTESIAN_POINT ( 'NONE',  ( -0.4999999999999993339, 2.000000000000000000, 0.000000000000000000 ) ) ;
#244 = VERTEX_POINT ( 'NONE', #108 ) ;
#245 = CARTESIAN_POINT ( 'NONE',  ( 2.449293598294706414E-16, 2.000000000000000000, 0.000000000000000000 ) ) ;
#246 = FACE_OUTER_BOUND ( 'NONE', #53, .T. ) ;
#247 =( CONVERSION_BASED_UNIT ( 'INCH', #158 ) LENGTH_UNIT ( ) NAMED_UNIT ( #183 ) );
#248 = PRESENTATION_LAYER_ASSIGNMENT (  '', '', ( #168 ) ) ;
#249 = SURFACE_SIDE_STYLE ('',( #164 ) ) ;
#250 = DIRECTION ( 'NONE',  ( 0.000000000000000000, 1.000000000000000000, 0.000000000000000000 ) ) ;
#251 = CARTESIAN_POINT ( 'NONE',  ( -6.123233995736766036E-17, 0.5000000000000000000, 0.000000000000000000 ) ) ;
#252 = FILL_AREA_STYLE ('',( #301 ) ) ;
#253 = DIRECTION ( 'NONE',  ( -0.000000000000000000, -1.000000000000000000, -0.000000000000000000 ) ) ;
#254 = MECHANICAL_DESIGN_GEOMETRIC_PRESENTATION_REPRESENTATION (  '', ( #259 ), #327 ) ;
#255 = DIRECTION ( 'NONE',  ( -1.000000000000000000, 0.000000000000000000, 0.000000000000000000 ) ) ;
#256 = PRODUCT_DEFINITION ( 'UNKNOWN', '', #308, #274 ) ;
#257 = ORIENTED_EDGE ( 'NONE', *, *, #223, .F. ) ;
#258 = ORIENTED_EDGE ( 'NONE', *, *, #61, .F. ) ;
#259 = STYLED_ITEM ( 'NONE', ( #90 ), #313 ) ;
#260 = CARTESIAN_POINT ( 'NONE',  ( 0.4999999999999996669, 4.500000000000000000, 6.123233995736763571E-17 ) ) ;
#261 = FACE_OUTER_BOUND ( 'NONE', #242, .T. ) ;
#263 = EDGE_CURVE ( 'NONE', #244, #182, #45, .T. ) ;
#262 = DIMENSIONAL_EXPONENTS ( 1.000000000000000000, 0.000000000000000000, 0.000000000000000000, 0.000000000000000000, 0.000000000000000000, 0.000000000000000000, 0.000000000000000000 ) ;
#264 = CARTESIAN_POINT ( 'NONE',  ( 0.4999999999999998335, 0.5000000000000000000, 0.000000000000000000 ) ) ;
#265 = PRESENTATION_STYLE_ASSIGNMENT (( #118 ) ) ;
#266 = VERTEX_POINT ( 'NONE', #112 ) ;
#267 = LINE ( 'NONE', #287, #170 ) ;
#268 = DIRECTION ( 'NONE',  ( 0.000000000000000000, 0.000000000000000000, -1.000000000000000000 ) ) ;
#269 = SURFACE_SIDE_STYLE ('',( #5 ) ) ;
#270 = DIRECTION ( 'NONE',  ( 0.000000000000000000, -0.000000000000000000, 1.000000000000000000 ) ) ;
#271 =( LENGTH_UNIT ( ) NAMED_UNIT ( * ) SI_UNIT ( $, .METRE. ) );
#272 = APPLICATION_PROTOCOL_DEFINITION ( 'draft international standard', 'automotive_design', 1998, #76 ) ;
#273 = SURFACE_SIDE_STYLE ('',( #41 ) ) ;
#274 = PRODUCT_DEFINITION_CONTEXT ( 'detailed design', #76, 'design' ) ;
#275 = DIRECTION ( 'NONE',  ( 0.000000000000000000, 0.000000000000000000, 1.000000000000000000 ) ) ;
#276 = LENGTH_MEASURE_WITH_UNIT ( LENGTH_MEASURE( 0.02539999999999999897 ), #178 );
#277 = PRESENTATION_LAYER_ASSIGNMENT (  '', '', ( #297 ) ) ;
#278 = FACE_OUTER_BOUND ( 'NONE', #346, .T. ) ;
#279 = ADVANCED_FACE ( 'NONE', ( #77 ), #166, .T. ) ;
#280 = MANIFOLD_SOLID_BREP ( 'Revolve - Cutting Edge', #141 ) ;
#281 = CARTESIAN_POINT ( 'NONE',  ( 0.000000000000000000, 2.000000000000000000, -0.4999999999999997780 ) ) ;
#282 = AXIS2_PLACEMENT_3D ( 'NONE', #169, #201, #204 ) ;
#283 = ADVANCED_BREP_SHAPE_REPRESENTATION ( '12542', ( #280, #25, #134 ), #99 ) ;
#284 = STYLED_ITEM ( 'NONE', ( #125 ), #25 ) ;
#285 = SURFACE_SIDE_STYLE ('',( #129 ) ) ;
#286 = DIMENSIONAL_EXPONENTS ( 1.000000000000000000, 0.000000000000000000, 0.000000000000000000, 0.000000000000000000, 0.000000000000000000, 0.000000000000000000, 0.000000000000000000 ) ;
#287 = CARTESIAN_POINT ( 'NONE',  ( 0.000000000000000000, 0.000000000000000000, -0.4999999999999998335 ) ) ;
#288 = CARTESIAN_POINT ( 'NONE',  ( 6.123233995736764803E-17, 0.000000000000000000, 0.4999999999999998335 ) ) ;
#289 = ORIENTED_EDGE ( 'NONE', *, *, #106, .F. ) ;
#290 = ORIENTED_EDGE ( 'NONE', *, *, #30, .T. ) ;
#291 = AXIS2_PLACEMENT_3D ( 'NONE', #74, #11, #16 ) ;
#292 = DIRECTION ( 'NONE',  ( 0.000000000000000000, 0.000000000000000000, -1.000000000000000000 ) ) ;
#293 =( LENGTH_UNIT ( ) NAMED_UNIT ( * ) SI_UNIT ( $, .METRE. ) );
#294 = CARTESIAN_POINT ( 'NONE',  ( -6.123233995736772199E-17, 4.500000000000000000, 0.000000000000000000 ) ) ;
#295 = UNCERTAINTY_MEASURE_WITH_UNIT (LENGTH_MEASURE( 1.000000000000000082E-05 ), #229, 'distance_accuracy_value', 'NONE');
#296 = FILL_AREA_STYLE ('',( #35 ) ) ;
#297 = STYLED_ITEM ( 'NONE', ( #95 ), #167 ) ;
#298 =( NAMED_UNIT ( * ) PLANE_ANGLE_UNIT ( ) SI_UNIT ( $, .RADIAN. ) );
#299 = APPLICATION_PROTOCOL_DEFINITION ( 'draft international standard', 'automotive_design', 1998, #151 ) ;
#300 =( GEOMETRIC_REPRESENTATION_CONTEXT ( 3 ) GLOBAL_UNCERTAINTY_ASSIGNED_CONTEXT ( ( #295 ) ) GLOBAL_UNIT_ASSIGNED_CONTEXT ( ( #229, #298, #331 ) ) REPRESENTATION_CONTEXT ( 'NONE', 'WORKASPACE' ) );
#301 = FILL_AREA_STYLE_COLOUR ( '', #103 ) ;
#302 = DIRECTION ( 'NONE',  ( -1.000000000000000000, 0.000000000000000000, 0.000000000000000000 ) ) ;
#303 = AXIS2_PLACEMENT_3D ( 'NONE', #360, #165, #44 ) ;
#304 = DIRECTION ( 'NONE',  ( 0.000000000000000000, 0.000000000000000000, -1.000000000000000000 ) ) ;
#305 = ORIENTED_EDGE ( 'NONE', *, *, #216, .T. ) ;
#306 = PRODUCT_RELATED_PRODUCT_CATEGORY ( 'part', '', ( #333 ) ) ;
#307 = AXIS2_PLACEMENT_3D ( 'NONE', #195, #225, #328 ) ;
#308 = PRODUCT_DEFINITION_FORMATION_WITH_SPECIFIED_SOURCE ( 'ANY', '', #333, .NOT_KNOWN. ) ;
#309 = LINE ( 'NONE', #288, #174 ) ;
#310 = FILL_AREA_STYLE ('',( #205 ) ) ;
#311 = STYLED_ITEM ( 'NONE', ( #80 ), #71 ) ;
#312 = ORIENTED_EDGE ( 'NONE', *, *, #209, .F. ) ;
#313 = ADVANCED_FACE ( 'NONE', ( #85 ), #240, .T. ) ;
#314 = AXIS2_PLACEMENT_3D ( 'NONE', #227, #163, #136 ) ;
#315 = ORIENTED_EDGE ( 'NONE', *, *, #139, .F. ) ;
#316 = CARTESIAN_POINT ( 'NONE',  ( -0.4999999999999997780, 4.500000000000000000, 0.000000000000000000 ) ) ;
#317 = MECHANICAL_DESIGN_GEOMETRIC_PRESENTATION_REPRESENTATION (  '', ( #55 ), #184 ) ;
#318 =( NAMED_UNIT ( * ) PLANE_ANGLE_UNIT ( ) SI_UNIT ( $, .RADIAN. ) );
#319 = LINE ( 'NONE', #316, #20 ) ;
#320 = CIRCLE ( 'NONE', #282, 0.4999999999999998335 ) ;
#321 = ORIENTED_EDGE ( 'NONE', *, *, #14, .F. ) ;
#322 = DIRECTION ( 'NONE',  ( 1.000000000000000000, 0.000000000000000000, 0.000000000000000000 ) ) ;
#323 = DIRECTION ( 'NONE',  ( -0.000000000000000000, -1.000000000000000000, -0.000000000000000000 ) ) ;
#324 = CLOSED_SHELL ( 'NONE', ( #49, #143, #279, #149 ) ) ;
#325 = PRODUCT_CONTEXT ( 'NONE', #151, 'mechanical' ) ;
#326 = FILL_AREA_STYLE_COLOUR ( '', #350 ) ;
#327 =( GEOMETRIC_REPRESENTATION_CONTEXT ( 3 ) GLOBAL_UNCERTAINTY_ASSIGNED_CONTEXT ( ( #73 ) ) GLOBAL_UNIT_ASSIGNED_CONTEXT ( ( #8, #318, #330 ) ) REPRESENTATION_CONTEXT ( 'NONE', 'WORKASPACE' ) );
#328 = DIRECTION ( 'NONE',  ( 0.000000000000000000, 0.000000000000000000, -1.000000000000000000 ) ) ;
#329 = LENGTH_MEASURE_WITH_UNIT ( LENGTH_MEASURE( 0.02539999999999999897 ), #198 );
#330 =( NAMED_UNIT ( * ) SI_UNIT ( $, .STERADIAN. ) SOLID_ANGLE_UNIT ( ) );
#331 =( NAMED_UNIT ( * ) SI_UNIT ( $, .STERADIAN. ) SOLID_ANGLE_UNIT ( ) );
#332 = DIRECTION ( 'NONE',  ( 0.000000000000000000, 0.000000000000000000, -1.000000000000000000 ) ) ;
#333 = PRODUCT ( '12542', '12542', '', ( #325 ) ) ;
#334 =( NAMED_UNIT ( * ) PLANE_ANGLE_UNIT ( ) SI_UNIT ( $, .RADIAN. ) );
#335 = EDGE_CURVE ( 'NONE', #239, #337, #191, .T. ) ;
#336 = CIRCLE ( 'NONE', #179, 0.4999999999999997780 ) ;
#337 = VERTEX_POINT ( 'NONE', #185 ) ;
#338 = ORIENTED_EDGE ( 'NONE', *, *, #200, .T. ) ;
#339 = AXIS2_PLACEMENT_3D ( 'NONE', #196, #102, #230 ) ;
#340 = DIRECTION ( 'NONE',  ( -1.000000000000000000, 0.000000000000000000, 0.000000000000000000 ) ) ;
#341 = LENGTH_MEASURE_WITH_UNIT ( LENGTH_MEASURE( 0.02539999999999999897 ), #293 );
#342 = DIRECTION ( 'NONE',  ( 1.224646799147353454E-16, -1.000000000000000000, 0.000000000000000000 ) ) ;
#343 = AXIS2_PLACEMENT_3D ( 'NONE', #362, #250, #270 ) ;
#344 = DIRECTION ( 'NONE',  ( -0.000000000000000000, -1.000000000000000000, -0.000000000000000000 ) ) ;
#345 = SURFACE_STYLE_USAGE ( .BOTH. , #2 ) ;
#346 = EDGE_LOOP ( 'NONE', ( #1, #142, #39, #186 ) ) ;
#347 = CARTESIAN_POINT ( 'NONE',  ( 6.123233995736764803E-17, 0.5000000000000000000, 0.4999999999999998335 ) ) ;
#348 = AXIS2_PLACEMENT_3D ( 'NONE', #181, #323, #153 ) ;
#349 = DIRECTION ( 'NONE',  ( -1.224646799147353454E-16, 1.000000000000000000, 0.000000000000000000 ) ) ;
#350 = COLOUR_RGB ( '',1.000000000000000000, 0.000000000000000000, 0.000000000000000000 ) ;
#351 = ORIENTED_EDGE ( 'NONE', *, *, #92, .T. ) ;
#352 = DIRECTION ( 'NONE',  ( -1.224646799147353454E-16, 1.000000000000000000, -0.000000000000000000 ) ) ;
#353 = DIRECTION ( 'NONE',  ( 1.000000000000000000, 1.224646799147353454E-16, 0.000000000000000000 ) ) ;
#354 = PRESENTATION_LAYER_ASSIGNMENT (  '', '', ( #311 ) ) ;
#355 =( LENGTH_UNIT ( ) NAMED_UNIT ( * ) SI_UNIT ( $, .METRE. ) );
#356 = FILL_AREA_STYLE ('',( #72 ) ) ;
#357 = CIRCLE ( 'NONE', #314, 0.4999999999999998335 ) ;
#358 = UNCERTAINTY_MEASURE_WITH_UNIT (LENGTH_MEASURE( 1.000000000000000082E-05 ), #113, 'distance_accuracy_value', 'NONE');
#359 = COLOUR_RGB ( '',1.000000000000000000, 0.000000000000000000, 0.000000000000000000 ) ;
#360 = CARTESIAN_POINT ( 'NONE',  ( -6.123233995736772199E-17, 4.500000000000000000, 0.000000000000000000 ) ) ;
#361 = EDGE_CURVE ( 'NONE', #117, #239, #238, .T. ) ;
#362 = CARTESIAN_POINT ( 'NONE',  ( 0.000000000000000000, 2.000000000000000000, 0.000000000000000000 ) ) ;
#363 = FILL_AREA_STYLE_COLOUR ( '', #111 ) ;
#364 = CARTESIAN_POINT ( 'NONE',  ( 0.000000000000000000, 0.5000000000000000000, 0.000000000000000000 ) ) ;
#365 = SPHERICAL_SURFACE ( 'NONE', #339, 0.5000000000000000000 ) ;
#366 = CIRCLE ( 'NONE', #348, 0.4999999999999998335 ) ;
#367 = PRESENTATION_STYLE_ASSIGNMENT (( #47 ) ) ;
#368 = LENGTH_MEASURE_WITH_UNIT ( LENGTH_MEASURE( 0.02539999999999999897 ), #175 );
#369 = EDGE_CURVE ( 'NONE', #266, #123, #226, .T. ) ;
#370 = CIRCLE ( 'NONE', #42, 0.5000000000000000000 ) ;
#371 = ORIENTED_EDGE ( 'NONE', *, *, #200, .F. ) ;
#372 = EDGE_LOOP ( 'NONE', ( #312, #290, #145, #207, #33 ) ) ;
#373 = UNCERTAINTY_MEASURE_WITH_UNIT (LENGTH_MEASURE( 1.000000000000000082E-05 ), #51, 'distance_accuracy_value', 'NONE');
ENDSEC;
END-ISO-10303-21;
