ISO-10303-21;
HEADER;
FILE_DESCRIPTION (( 'STEP AP214' ),
    '1' );
FILE_NAME ('44167W.STEP',
    '2023-06-22T19:33:00',
    ( '' ),
    ( '' ),
    'SwSTEP 2.0',
    'SolidWorks 2023',
    '' );
FILE_SCHEMA (( 'AUTOMOTIVE_DESIGN' ));
ENDSEC;

DATA;
#1 = FACE_OUTER_BOUND ( 'NONE', #295, .T. ) ;
#2 = DIRECTION ( 'NONE',  ( -1.000000000000000000, 0.000000000000000000, 0.000000000000000000 ) ) ;
#3 = CYLINDRICAL_SURFACE ( 'NONE', #164, 0.1562500000000000000 ) ;
#4 = SURFACE_STYLE_USAGE ( .BOTH. , #33 ) ;
#5 = UNCERTAINTY_MEASURE_WITH_UNIT (LENGTH_MEASURE( 1.000000000000000082E-05 ), #263, 'distance_accuracy_value', 'NONE');
#6 = PLANE ( 'NONE',  #193 ) ;
#7 = PRESENTATION_STYLE_ASSIGNMENT (( #173 ) ) ;
#8 =( NAMED_UNIT ( * ) PLANE_ANGLE_UNIT ( ) SI_UNIT ( $, .RADIAN. ) );
#9 = CIRCLE ( 'NONE', #285, 0.1562499999999999167 ) ;
#10 = CIRCLE ( 'NONE', #160, 0.1562500000000000000 ) ;
#11 =( CONVERSION_BASED_UNIT ( 'INCH', #223 ) LENGTH_UNIT ( ) NAMED_UNIT ( #156 ) );
#12 = EDGE_LOOP ( 'NONE', ( #16, #202, #271, #110 ) ) ;
#13 = ORIENTED_EDGE ( 'NONE', *, *, #298, .T. ) ;
#14 = ADVANCED_FACE ( 'NONE', ( #61 ), #274, .T. ) ;
#15 = ORIENTED_EDGE ( 'NONE', *, *, #298, .F. ) ;
#16 = ORIENTED_EDGE ( 'NONE', *, *, #147, .F. ) ;
#17 = LINE ( 'NONE', #95, #204 ) ;
#18 = AXIS2_PLACEMENT_3D ( 'NONE', #304, #189, #307 ) ;
#19 = MECHANICAL_DESIGN_GEOMETRIC_PRESENTATION_REPRESENTATION (  '', ( #297 ), #150 ) ;
#20 = FILL_AREA_STYLE_COLOUR ( '', #212 ) ;
#21 = SURFACE_STYLE_FILL_AREA ( #42 ) ;
#22 = UNCERTAINTY_MEASURE_WITH_UNIT (LENGTH_MEASURE( 1.000000000000000082E-05 ), #122, 'distance_accuracy_value', 'NONE');
#23 = VECTOR ( 'NONE', #267, 39.37007874015748143 ) ;
#24 = DIRECTION ( 'NONE',  ( 7.837739514543064125E-17, 1.000000000000000000, -0.000000000000000000 ) ) ;
#25 = PRODUCT_DEFINITION ( 'UNKNOWN', '', #86, #75 ) ;
#26 = CARTESIAN_POINT ( 'NONE',  ( 0.000000000000000000, 0.000000000000000000, 0.000000000000000000 ) ) ;
#27 = EDGE_CURVE ( 'NONE', #270, #155, #233, .T. ) ;
#28 =( NAMED_UNIT ( * ) PLANE_ANGLE_UNIT ( ) SI_UNIT ( $, .RADIAN. ) );
#29 = AXIS2_PLACEMENT_3D ( 'NONE', #87, #255, #43 ) ;
#30 = DIRECTION ( 'NONE',  ( 0.000000000000000000, -1.000000000000000000, -0.000000000000000000 ) ) ;
#31 = CIRCLE ( 'NONE', #29, 0.1562500000000000278 ) ;
#32 = DIRECTION ( 'NONE',  ( 0.000000000000000000, 0.000000000000000000, -1.000000000000000000 ) ) ;
#33 = SURFACE_SIDE_STYLE ('',( #247 ) ) ;
#34 = DIRECTION ( 'NONE',  ( 7.837739514543064125E-17, 1.000000000000000000, -0.000000000000000000 ) ) ;
#35 = ADVANCED_BREP_SHAPE_REPRESENTATION ( '44167W', ( #291, #292, #116 ), #92 ) ;
#36 = FILL_AREA_STYLE ('',( #239 ) ) ;
#37 = VERTEX_POINT ( 'NONE', #69 ) ;
#38 = ORIENTED_EDGE ( 'NONE', *, *, #276, .T. ) ;
#39 = ADVANCED_FACE ( 'NONE', ( #186 ), #232, .T. ) ;
#40 = MECHANICAL_DESIGN_GEOMETRIC_PRESENTATION_REPRESENTATION (  '', ( #142 ), #251 ) ;
#41 = ORIENTED_EDGE ( 'NONE', *, *, #253, .T. ) ;
#42 = FILL_AREA_STYLE ('',( #161 ) ) ;
#43 = DIRECTION ( 'NONE',  ( 0.000000000000000000, 0.000000000000000000, -1.000000000000000000 ) ) ;
#44 = DIRECTION ( 'NONE',  ( 0.000000000000000000, -0.000000000000000000, 1.000000000000000000 ) ) ;
#45 =( LENGTH_UNIT ( ) NAMED_UNIT ( * ) SI_UNIT ( $, .METRE. ) );
#46 = FACE_OUTER_BOUND ( 'NONE', #12, .T. ) ;
#47 = CIRCLE ( 'NONE', #18, 0.1562499999999999167 ) ;
#48 = AXIS2_PLACEMENT_3D ( 'NONE', #99, #198, #2 ) ;
#49 = SURFACE_SIDE_STYLE ('',( #284 ) ) ;
#50 =( CONVERSION_BASED_UNIT ( 'INCH', #125 ) LENGTH_UNIT ( ) NAMED_UNIT ( #153 ) );
#51 =( NAMED_UNIT ( * ) PLANE_ANGLE_UNIT ( ) SI_UNIT ( $, .RADIAN. ) );
#52 = DIRECTION ( 'NONE',  ( 1.000000000000000000, -7.837739514543064125E-17, 0.000000000000000000 ) ) ;
#53 =( GEOMETRIC_REPRESENTATION_CONTEXT ( 3 ) GLOBAL_UNCERTAINTY_ASSIGNED_CONTEXT ( ( #123 ) ) GLOBAL_UNIT_ASSIGNED_CONTEXT ( ( #139, #64, #190 ) ) REPRESENTATION_CONTEXT ( 'NONE', 'WORKASPACE' ) );
#54 =( CONVERSION_BASED_UNIT ( 'INCH', #177 ) LENGTH_UNIT ( ) NAMED_UNIT ( #181 ) );
#55 = DIRECTION ( 'NONE',  ( 0.000000000000000000, 0.000000000000000000, -1.000000000000000000 ) ) ;
#56 = APPLICATION_PROTOCOL_DEFINITION ( 'draft international standard', 'automotive_design', 1998, #308 ) ;
#57 = PRESENTATION_STYLE_ASSIGNMENT (( #79 ) ) ;
#58 = MECHANICAL_DESIGN_GEOMETRIC_PRESENTATION_REPRESENTATION (  '', ( #169 ), #257 ) ;
#59 = ORIENTED_EDGE ( 'NONE', *, *, #147, .T. ) ;
#60 = EDGE_CURVE ( 'NONE', #228, #37, #47, .T. ) ;
#61 = FACE_OUTER_BOUND ( 'NONE', #179, .T. ) ;
#62 = CIRCLE ( 'NONE', #296, 0.1562500000000000000 ) ;
#63 = ORIENTED_EDGE ( 'NONE', *, *, #256, .F. ) ;
#64 =( NAMED_UNIT ( * ) PLANE_ANGLE_UNIT ( ) SI_UNIT ( $, .RADIAN. ) );
#65 = CARTESIAN_POINT ( 'NONE',  ( 0.000000000000000000, 0.000000000000000000, 0.000000000000000000 ) ) ;
#66 = PRESENTATION_STYLE_ASSIGNMENT (( #259 ) ) ;
#67 = CIRCLE ( 'NONE', #245, 0.1562500000000000278 ) ;
#68 = DIRECTION ( 'NONE',  ( 7.837739514543064125E-17, 1.000000000000000000, -0.000000000000000000 ) ) ;
#69 = CARTESIAN_POINT ( 'NONE',  ( -0.1562499999999997780, 2.000000000000000000, 0.000000000000000000 ) ) ;
#70 = PRODUCT_DEFINITION_SHAPE ( 'NONE', 'NONE',  #25 ) ;
#71 = AXIS2_PLACEMENT_3D ( 'NONE', #65, #237, #137 ) ;
#72 = LENGTH_MEASURE_WITH_UNIT ( LENGTH_MEASURE( 0.02539999999999999897 ), #172 );
#73 = FACE_OUTER_BOUND ( 'NONE', #225, .T. ) ;
#74 = DIRECTION ( 'NONE',  ( 7.837739514543064125E-17, 1.000000000000000000, -0.000000000000000000 ) ) ;
#75 = PRODUCT_DEFINITION_CONTEXT ( 'detailed design', #262, 'design' ) ;
#76 = CARTESIAN_POINT ( 'NONE',  ( 1.224646799147353700E-16, 2.000000000000000000, 0.000000000000000000 ) ) ;
#77 = PRESENTATION_LAYER_ASSIGNMENT (  '', '', ( #282 ) ) ;
#78 = CARTESIAN_POINT ( 'NONE',  ( 0.1562500000000000278, 0.4374999999999998890, 1.913510623667739463E-17 ) ) ;
#79 = SURFACE_STYLE_USAGE ( .BOTH. , #288 ) ;
#80 = ADVANCED_FACE ( 'NONE', ( #197 ), #264, .T. ) ;
#81 = CIRCLE ( 'NONE', #221, 0.1562500000000000278 ) ;
#82 = ORIENTED_EDGE ( 'NONE', *, *, #253, .F. ) ;
#83 = MECHANICAL_DESIGN_GEOMETRIC_PRESENTATION_REPRESENTATION (  '', ( #282 ), #266 ) ;
#84 = VERTEX_POINT ( 'NONE', #124 ) ;
#85 = CLOSED_SHELL ( 'NONE', ( #211, #14, #269, #80 ) ) ;
#86 = PRODUCT_DEFINITION_FORMATION_WITH_SPECIFIED_SOURCE ( 'ANY', '', #303, .NOT_KNOWN. ) ;
#87 = CARTESIAN_POINT ( 'NONE',  ( 0.000000000000000000, 0.4374999999999998890, 0.000000000000000000 ) ) ;
#88 = SURFACE_STYLE_USAGE ( .BOTH. , #184 ) ;
#89 =( NAMED_UNIT ( * ) SI_UNIT ( $, .STERADIAN. ) SOLID_ANGLE_UNIT ( ) );
#90 = ADVANCED_FACE ( 'NONE', ( #1 ), #6, .F. ) ;
#91 = CARTESIAN_POINT ( 'NONE',  ( 0.1562500000000000278, 2.000000000000000000, 1.913510623667739463E-17 ) ) ;
#92 =( GEOMETRIC_REPRESENTATION_CONTEXT ( 3 ) GLOBAL_UNCERTAINTY_ASSIGNED_CONTEXT ( ( #196 ) ) GLOBAL_UNIT_ASSIGNED_CONTEXT ( ( #50, #171, #127 ) ) REPRESENTATION_CONTEXT ( 'NONE', 'WORKASPACE' ) );
#93 = DIRECTION ( 'NONE',  ( -1.000000000000000000, 0.000000000000000000, 0.000000000000000000 ) ) ;
#94 = SURFACE_STYLE_FILL_AREA ( #214 ) ;
#95 = CARTESIAN_POINT ( 'NONE',  ( 0.1562500000000001110, 2.000000000000000000, 1.913510623667738847E-17 ) ) ;
#96 = CARTESIAN_POINT ( 'NONE',  ( 0.000000000000000000, 0.000000000000000000, -0.1562500000000000000 ) ) ;
#97 = DIRECTION ( 'NONE',  ( -7.837739514543064125E-17, -1.000000000000000000, 0.000000000000000000 ) ) ;
#98 = LINE ( 'NONE', #246, #236 ) ;
#99 = CARTESIAN_POINT ( 'NONE',  ( 0.000000000000000000, 0.4374999999999998890, 0.000000000000000000 ) ) ;
#100 = CARTESIAN_POINT ( 'NONE',  ( 0.1562500000000000278, 2.000000000000000000, 0.000000000000000000 ) ) ;
#101 = FILL_AREA_STYLE_COLOUR ( '', #131 ) ;
#102 = COLOUR_RGB ( '',1.000000000000000000, 0.000000000000000000, 0.000000000000000000 ) ;
#103 =( LENGTH_UNIT ( ) NAMED_UNIT ( * ) SI_UNIT ( $, .METRE. ) );
#104 = ORIENTED_EDGE ( 'NONE', *, *, #60, .T. ) ;
#105 = EDGE_CURVE ( 'NONE', #37, #228, #9, .T. ) ;
#106 = DIMENSIONAL_EXPONENTS ( 1.000000000000000000, 0.000000000000000000, 0.000000000000000000, 0.000000000000000000, 0.000000000000000000, 0.000000000000000000, 0.000000000000000000 ) ;
#107 = COLOUR_RGB ( '',1.000000000000000000, 0.000000000000000000, 0.000000000000000000 ) ;
#108 = ORIENTED_EDGE ( 'NONE', *, *, #60, .F. ) ;
#109 = ORIENTED_EDGE ( 'NONE', *, *, #149, .T. ) ;
#110 = ORIENTED_EDGE ( 'NONE', *, *, #276, .F. ) ;
#111 = PRESENTATION_LAYER_ASSIGNMENT (  '', '', ( #169 ) ) ;
#112 = SURFACE_STYLE_FILL_AREA ( #260 ) ;
#113 =( GEOMETRIC_REPRESENTATION_CONTEXT ( 3 ) GLOBAL_UNCERTAINTY_ASSIGNED_CONTEXT ( ( #143 ) ) GLOBAL_UNIT_ASSIGNED_CONTEXT ( ( #140, #141, #89 ) ) REPRESENTATION_CONTEXT ( 'NONE', 'WORKASPACE' ) );
#114 = SURFACE_STYLE_USAGE ( .BOTH. , #165 ) ;
#115 = CYLINDRICAL_SURFACE ( 'NONE', #71, 0.1562500000000000000 ) ;
#116 = AXIS2_PLACEMENT_3D ( 'NONE', #287, #240, #261 ) ;
#117 = UNCERTAINTY_MEASURE_WITH_UNIT (LENGTH_MEASURE( 1.000000000000000082E-05 ), #11, 'distance_accuracy_value', 'NONE');
#118 = DIRECTION ( 'NONE',  ( -1.000000000000000000, 0.000000000000000000, 0.000000000000000000 ) ) ;
#119 = DIRECTION ( 'NONE',  ( -0.000000000000000000, -1.000000000000000000, -0.000000000000000000 ) ) ;
#120 = STYLED_ITEM ( 'NONE', ( #134 ), #14 ) ;
#121 = CARTESIAN_POINT ( 'NONE',  ( 4.799231304517950640E-34, 0.4374999999999998890, 0.000000000000000000 ) ) ;
#122 =( CONVERSION_BASED_UNIT ( 'INCH', #72 ) LENGTH_UNIT ( ) NAMED_UNIT ( #106 ) );
#123 = UNCERTAINTY_MEASURE_WITH_UNIT (LENGTH_MEASURE( 1.000000000000000082E-05 ), #139, 'distance_accuracy_value', 'NONE');
#124 = CARTESIAN_POINT ( 'NONE',  ( 1.913510623667739463E-17, 0.000000000000000000, 0.1562500000000000000 ) ) ;
#125 = LENGTH_MEASURE_WITH_UNIT ( LENGTH_MEASURE( 0.02539999999999999897 ), #174 );
#126 =( NAMED_UNIT ( * ) SI_UNIT ( $, .STERADIAN. ) SOLID_ANGLE_UNIT ( ) );
#127 =( NAMED_UNIT ( * ) SI_UNIT ( $, .STERADIAN. ) SOLID_ANGLE_UNIT ( ) );
#128 = AXIS2_PLACEMENT_3D ( 'NONE', #121, #219, #286 ) ;
#129 = VERTEX_POINT ( 'NONE', #176 ) ;
#130 = ORIENTED_EDGE ( 'NONE', *, *, #180, .F. ) ;
#131 = COLOUR_RGB ( '',0.7921568627450980005, 0.8196078431372548767, 0.9333333333333333481 ) ;
#132 = ORIENTED_EDGE ( 'NONE', *, *, #27, .F. ) ;
#133 = EDGE_LOOP ( 'NONE', ( #82, #13, #183, #108 ) ) ;
#134 = PRESENTATION_STYLE_ASSIGNMENT (( #88 ) ) ;
#135 = ADVANCED_FACE ( 'NONE', ( #216 ), #218, .T. ) ;
#136 = DIRECTION ( 'NONE',  ( 0.000000000000000000, 1.000000000000000000, 0.000000000000000000 ) ) ;
#137 = DIRECTION ( 'NONE',  ( 0.000000000000000000, 0.000000000000000000, -1.000000000000000000 ) ) ;
#138 = DIRECTION ( 'NONE',  ( -0.000000000000000000, -1.000000000000000000, -0.000000000000000000 ) ) ;
#139 =( CONVERSION_BASED_UNIT ( 'INCH', #275 ) LENGTH_UNIT ( ) NAMED_UNIT ( #289 ) );
#140 =( CONVERSION_BASED_UNIT ( 'INCH', #279 ) LENGTH_UNIT ( ) NAMED_UNIT ( #226 ) );
#141 =( NAMED_UNIT ( * ) PLANE_ANGLE_UNIT ( ) SI_UNIT ( $, .RADIAN. ) );
#142 = STYLED_ITEM ( 'NONE', ( #7 ), #80 ) ;
#143 = UNCERTAINTY_MEASURE_WITH_UNIT (LENGTH_MEASURE( 1.000000000000000082E-05 ), #140, 'distance_accuracy_value', 'NONE');
#144 = FACE_OUTER_BOUND ( 'NONE', #224, .T. ) ;
#145 = CARTESIAN_POINT ( 'NONE',  ( 1.913510623667739463E-17, 0.000000000000000000, 0.1562500000000000000 ) ) ;
#146 = APPLICATION_PROTOCOL_DEFINITION ( 'draft international standard', 'automotive_design', 1998, #262 ) ;
#147 = EDGE_CURVE ( 'NONE', #294, #84, #243, .T. ) ;
#148 = PLANE ( 'NONE',  #128 ) ;
#149 = EDGE_CURVE ( 'NONE', #129, #205, #81, .T. ) ;
#150 =( GEOMETRIC_REPRESENTATION_CONTEXT ( 3 ) GLOBAL_UNCERTAINTY_ASSIGNED_CONTEXT ( ( #22 ) ) GLOBAL_UNIT_ASSIGNED_CONTEXT ( ( #122, #28, #268 ) ) REPRESENTATION_CONTEXT ( 'NONE', 'WORKASPACE' ) );
#151 = FILL_AREA_STYLE ('',( #101 ) ) ;
#152 = DIRECTION ( 'NONE',  ( -1.000000000000000000, 0.000000000000000000, 0.000000000000000000 ) ) ;
#153 = DIMENSIONAL_EXPONENTS ( 1.000000000000000000, 0.000000000000000000, 0.000000000000000000, 0.000000000000000000, 0.000000000000000000, 0.000000000000000000, 0.000000000000000000 ) ;
#154 = MECHANICAL_DESIGN_GEOMETRIC_PRESENTATION_REPRESENTATION (  '', ( #120 ), #53 ) ;
#155 = VERTEX_POINT ( 'NONE', #96 ) ;
#156 = DIMENSIONAL_EXPONENTS ( 1.000000000000000000, 0.000000000000000000, 0.000000000000000000, 0.000000000000000000, 0.000000000000000000, 0.000000000000000000, 0.000000000000000000 ) ;
#157 = ORIENTED_EDGE ( 'NONE', *, *, #180, .T. ) ;
#158 = PRESENTATION_LAYER_ASSIGNMENT (  '', '', ( #142 ) ) ;
#159 = SHAPE_DEFINITION_REPRESENTATION ( #70, #35 ) ;
#160 = AXIS2_PLACEMENT_3D ( 'NONE', #305, #230, #231 ) ;
#161 = FILL_AREA_STYLE_COLOUR ( '', #281 ) ;
#162 = CARTESIAN_POINT ( 'NONE',  ( 0.000000000000000000, 0.4374999999999998890, -0.1562500000000000278 ) ) ;
#163 =( LENGTH_UNIT ( ) NAMED_UNIT ( * ) SI_UNIT ( $, .METRE. ) );
#164 = AXIS2_PLACEMENT_3D ( 'NONE', #188, #301, #278 ) ;
#165 = SURFACE_SIDE_STYLE ('',( #94 ) ) ;
#166 = DIRECTION ( 'NONE',  ( -0.000000000000000000, -1.000000000000000000, -0.000000000000000000 ) ) ;
#167 = PRODUCT_RELATED_PRODUCT_CATEGORY ( 'part', '', ( #303 ) ) ;
#168 = CARTESIAN_POINT ( 'NONE',  ( 0.000000000000000000, 0.000000000000000000, -0.1562500000000000000 ) ) ;
#169 = STYLED_ITEM ( 'NONE', ( #57 ), #211 ) ;
#170 = LENGTH_MEASURE_WITH_UNIT ( LENGTH_MEASURE( 0.02539999999999999897 ), #283 );
#171 =( NAMED_UNIT ( * ) PLANE_ANGLE_UNIT ( ) SI_UNIT ( $, .RADIAN. ) );
#172 =( LENGTH_UNIT ( ) NAMED_UNIT ( * ) SI_UNIT ( $, .METRE. ) );
#173 = SURFACE_STYLE_USAGE ( .BOTH. , #49 ) ;
#174 =( LENGTH_UNIT ( ) NAMED_UNIT ( * ) SI_UNIT ( $, .METRE. ) );
#175 = MECHANICAL_DESIGN_GEOMETRIC_PRESENTATION_REPRESENTATION (  '', ( #249 ), #113 ) ;
#176 = CARTESIAN_POINT ( 'NONE',  ( -0.1562500000000000278, 0.4374999999999998890, 0.000000000000000000 ) ) ;
#177 = LENGTH_MEASURE_WITH_UNIT ( LENGTH_MEASURE( 0.02539999999999999897 ), #258 );
#178 = DIRECTION ( 'NONE',  ( -1.000000000000000000, 0.000000000000000000, 0.000000000000000000 ) ) ;
#179 = EDGE_LOOP ( 'NONE', ( #63, #254 ) ) ;
#180 = EDGE_CURVE ( 'NONE', #155, #84, #62, .T. ) ;
#181 = DIMENSIONAL_EXPONENTS ( 1.000000000000000000, 0.000000000000000000, 0.000000000000000000, 0.000000000000000000, 0.000000000000000000, 0.000000000000000000, 0.000000000000000000 ) ;
#182 = ORIENTED_EDGE ( 'NONE', *, *, #105, .T. ) ;
#183 = ORIENTED_EDGE ( 'NONE', *, *, #194, .T. ) ;
#184 = SURFACE_SIDE_STYLE ('',( #21 ) ) ;
#185 =( NAMED_UNIT ( * ) PLANE_ANGLE_UNIT ( ) SI_UNIT ( $, .RADIAN. ) );
#186 = FACE_OUTER_BOUND ( 'NONE', #229, .T. ) ;
#187 = AXIS2_PLACEMENT_3D ( 'NONE', #215, #30, #32 ) ;
#188 = CARTESIAN_POINT ( 'NONE',  ( 0.000000000000000000, 0.000000000000000000, 0.000000000000000000 ) ) ;
#189 = DIRECTION ( 'NONE',  ( 7.837739514543064125E-17, 1.000000000000000000, -0.000000000000000000 ) ) ;
#190 =( NAMED_UNIT ( * ) SI_UNIT ( $, .STERADIAN. ) SOLID_ANGLE_UNIT ( ) );
#191 = FILL_AREA_STYLE_COLOUR ( '', #107 ) ;
#192 = FILL_AREA_STYLE_COLOUR ( '', #265 ) ;
#193 = AXIS2_PLACEMENT_3D ( 'NONE', #100, #97, #52 ) ;
#194 = EDGE_CURVE ( 'NONE', #129, #37, #98, .T. ) ;
#195 = CARTESIAN_POINT ( 'NONE',  ( 1.224646799147353700E-16, 2.000000000000000000, 0.000000000000000000 ) ) ;
#196 = UNCERTAINTY_MEASURE_WITH_UNIT (LENGTH_MEASURE( 1.000000000000000082E-05 ), #50, 'distance_accuracy_value', 'NONE');
#197 = FACE_OUTER_BOUND ( 'NONE', #272, .T. ) ;
#198 = DIRECTION ( 'NONE',  ( 7.837739514543064125E-17, 1.000000000000000000, -0.000000000000000000 ) ) ;
#199 = AXIS2_PLACEMENT_3D ( 'NONE', #195, #74, #152 ) ;
#200 = DIRECTION ( 'NONE',  ( 7.837739514543064125E-17, 1.000000000000000000, -0.000000000000000000 ) ) ;
#201 = SURFACE_STYLE_FILL_AREA ( #36 ) ;
#202 = ORIENTED_EDGE ( 'NONE', *, *, #238, .T. ) ;
#203 = ADVANCED_FACE ( 'NONE', ( #73 ), #148, .F. ) ;
#204 = VECTOR ( 'NONE', #277, 39.37007874015748143 ) ;
#205 = VERTEX_POINT ( 'NONE', #78 ) ;
#206 = ORIENTED_EDGE ( 'NONE', *, *, #149, .F. ) ;
#207 = ORIENTED_EDGE ( 'NONE', *, *, #105, .F. ) ;
#208 = PRESENTATION_LAYER_ASSIGNMENT (  '', '', ( #249 ) ) ;
#209 =( NAMED_UNIT ( * ) SI_UNIT ( $, .STERADIAN. ) SOLID_ANGLE_UNIT ( ) );
#210 = PRESENTATION_STYLE_ASSIGNMENT (( #114 ) ) ;
#211 = ADVANCED_FACE ( 'NONE', ( #144 ), #3, .T. ) ;
#212 = COLOUR_RGB ( '',0.7921568627450980005, 0.8196078431372548767, 0.9333333333333333481 ) ;
#213 = CARTESIAN_POINT ( 'NONE',  ( 0.000000000000000000, 0.4374999999999998890, 0.000000000000000000 ) ) ;
#214 = FILL_AREA_STYLE ('',( #20 ) ) ;
#215 = CARTESIAN_POINT ( 'NONE',  ( 0.000000000000000000, 0.000000000000000000, 0.000000000000000000 ) ) ;
#216 = FACE_OUTER_BOUND ( 'NONE', #133, .T. ) ;
#217 = AXIS2_PLACEMENT_3D ( 'NONE', #300, #68, #93 ) ;
#218 = CYLINDRICAL_SURFACE ( 'NONE', #199, 0.1562499999999999722 ) ;
#219 = DIRECTION ( 'NONE',  ( 7.837739514543064125E-17, 1.000000000000000000, -0.000000000000000000 ) ) ;
#220 = CARTESIAN_POINT ( 'NONE',  ( 1.913510623667739771E-17, 0.4374999999999998890, 0.1562500000000000278 ) ) ;
#221 = AXIS2_PLACEMENT_3D ( 'NONE', #241, #24, #178 ) ;
#222 = PRESENTATION_LAYER_ASSIGNMENT (  '', '', ( #297 ) ) ;
#223 = LENGTH_MEASURE_WITH_UNIT ( LENGTH_MEASURE( 0.02539999999999999897 ), #103 );
#224 = EDGE_LOOP ( 'NONE', ( #290, #59, #130, #132 ) ) ;
#225 = EDGE_LOOP ( 'NONE', ( #206, #15 ) ) ;
#226 = DIMENSIONAL_EXPONENTS ( 1.000000000000000000, 0.000000000000000000, 0.000000000000000000, 0.000000000000000000, 0.000000000000000000, 0.000000000000000000, 0.000000000000000000 ) ;
#227 = AXIS2_PLACEMENT_3D ( 'NONE', #235, #136, #44 ) ;
#228 = VERTEX_POINT ( 'NONE', #91 ) ;
#229 = EDGE_LOOP ( 'NONE', ( #109, #41, #207, #293 ) ) ;
#230 = DIRECTION ( 'NONE',  ( -0.000000000000000000, -1.000000000000000000, -0.000000000000000000 ) ) ;
#231 = DIRECTION ( 'NONE',  ( 0.000000000000000000, 0.000000000000000000, -1.000000000000000000 ) ) ;
#232 = CYLINDRICAL_SURFACE ( 'NONE', #217, 0.1562499999999999722 ) ;
#233 = LINE ( 'NONE', #168, #273 ) ;
#234 = SURFACE_SIDE_STYLE ('',( #112 ) ) ;
#235 = CARTESIAN_POINT ( 'NONE',  ( 0.000000000000000000, 0.4374999999999998890, 0.000000000000000000 ) ) ;
#236 = VECTOR ( 'NONE', #34, 39.37007874015748143 ) ;
#237 = DIRECTION ( 'NONE',  ( -0.000000000000000000, -1.000000000000000000, -0.000000000000000000 ) ) ;
#238 = EDGE_CURVE ( 'NONE', #294, #270, #31, .T. ) ;
#239 = FILL_AREA_STYLE_COLOUR ( '', #102 ) ;
#240 = DIRECTION ( 'NONE',  ( 0.000000000000000000, 0.000000000000000000, 1.000000000000000000 ) ) ;
#241 = CARTESIAN_POINT ( 'NONE',  ( 0.000000000000000000, 0.4374999999999998890, 0.000000000000000000 ) ) ;
#242 = PRESENTATION_STYLE_ASSIGNMENT (( #4 ) ) ;
#243 = LINE ( 'NONE', #145, #23 ) ;
#244 =( NAMED_UNIT ( * ) SI_UNIT ( $, .STERADIAN. ) SOLID_ANGLE_UNIT ( ) );
#245 = AXIS2_PLACEMENT_3D ( 'NONE', #213, #166, #299 ) ;
#246 = CARTESIAN_POINT ( 'NONE',  ( -0.1562499999999998335, 2.000000000000000000, 0.000000000000000000 ) ) ;
#247 = SURFACE_STYLE_FILL_AREA ( #151 ) ;
#248 = PRESENTATION_LAYER_ASSIGNMENT (  '', '', ( #120 ) ) ;
#249 = STYLED_ITEM ( 'NONE', ( #66 ), #269 ) ;
#250 = DIMENSIONAL_EXPONENTS ( 1.000000000000000000, 0.000000000000000000, 0.000000000000000000, 0.000000000000000000, 0.000000000000000000, 0.000000000000000000, 0.000000000000000000 ) ;
#251 =( GEOMETRIC_REPRESENTATION_CONTEXT ( 3 ) GLOBAL_UNCERTAINTY_ASSIGNED_CONTEXT ( ( #5 ) ) GLOBAL_UNIT_ASSIGNED_CONTEXT ( ( #263, #51, #126 ) ) REPRESENTATION_CONTEXT ( 'NONE', 'WORKASPACE' ) );
#252 = CIRCLE ( 'NONE', #48, 0.1562500000000000278 ) ;
#253 = EDGE_CURVE ( 'NONE', #205, #228, #17, .T. ) ;
#254 = ORIENTED_EDGE ( 'NONE', *, *, #238, .F. ) ;
#255 = DIRECTION ( 'NONE',  ( -0.000000000000000000, -1.000000000000000000, -0.000000000000000000 ) ) ;
#256 = EDGE_CURVE ( 'NONE', #270, #294, #67, .T. ) ;
#257 =( GEOMETRIC_REPRESENTATION_CONTEXT ( 3 ) GLOBAL_UNCERTAINTY_ASSIGNED_CONTEXT ( ( #117 ) ) GLOBAL_UNIT_ASSIGNED_CONTEXT ( ( #11, #185, #209 ) ) REPRESENTATION_CONTEXT ( 'NONE', 'WORKASPACE' ) );
#258 =( LENGTH_UNIT ( ) NAMED_UNIT ( * ) SI_UNIT ( $, .METRE. ) );
#259 = SURFACE_STYLE_USAGE ( .BOTH. , #234 ) ;
#260 = FILL_AREA_STYLE ('',( #191 ) ) ;
#261 = DIRECTION ( 'NONE',  ( 1.000000000000000000, 0.000000000000000000, 0.000000000000000000 ) ) ;
#262 = APPLICATION_CONTEXT ( 'automotive_design' ) ;
#263 =( CONVERSION_BASED_UNIT ( 'INCH', #170 ) LENGTH_UNIT ( ) NAMED_UNIT ( #250 ) );
#264 = PLANE ( 'NONE',  #187 ) ;
#265 = COLOUR_RGB ( '',1.000000000000000000, 0.000000000000000000, 0.000000000000000000 ) ;
#266 =( GEOMETRIC_REPRESENTATION_CONTEXT ( 3 ) GLOBAL_UNCERTAINTY_ASSIGNED_CONTEXT ( ( #306 ) ) GLOBAL_UNIT_ASSIGNED_CONTEXT ( ( #54, #8, #244 ) ) REPRESENTATION_CONTEXT ( 'NONE', 'WORKASPACE' ) );
#267 = DIRECTION ( 'NONE',  ( -0.000000000000000000, -1.000000000000000000, -0.000000000000000000 ) ) ;
#268 =( NAMED_UNIT ( * ) SI_UNIT ( $, .STERADIAN. ) SOLID_ANGLE_UNIT ( ) );
#269 = ADVANCED_FACE ( 'NONE', ( #46 ), #115, .T. ) ;
#270 = VERTEX_POINT ( 'NONE', #162 ) ;
#271 = ORIENTED_EDGE ( 'NONE', *, *, #27, .T. ) ;
#272 = EDGE_LOOP ( 'NONE', ( #157, #38 ) ) ;
#273 = VECTOR ( 'NONE', #138, 39.37007874015748143 ) ;
#274 = PLANE ( 'NONE',  #227 ) ;
#275 = LENGTH_MEASURE_WITH_UNIT ( LENGTH_MEASURE( 0.02539999999999999897 ), #163 );
#276 = EDGE_CURVE ( 'NONE', #84, #155, #10, .T. ) ;
#277 = DIRECTION ( 'NONE',  ( 7.837739514543064125E-17, 1.000000000000000000, -0.000000000000000000 ) ) ;
#278 = DIRECTION ( 'NONE',  ( 0.000000000000000000, 0.000000000000000000, -1.000000000000000000 ) ) ;
#279 = LENGTH_MEASURE_WITH_UNIT ( LENGTH_MEASURE( 0.02539999999999999897 ), #45 );
#280 = FILL_AREA_STYLE ('',( #192 ) ) ;
#281 = COLOUR_RGB ( '',1.000000000000000000, 0.000000000000000000, 0.000000000000000000 ) ;
#282 = STYLED_ITEM ( 'NONE', ( #210 ), #291 ) ;
#283 =( LENGTH_UNIT ( ) NAMED_UNIT ( * ) SI_UNIT ( $, .METRE. ) );
#284 = SURFACE_STYLE_FILL_AREA ( #280 ) ;
#285 = AXIS2_PLACEMENT_3D ( 'NONE', #76, #200, #118 ) ;
#286 = DIRECTION ( 'NONE',  ( -1.000000000000000000, 7.837739514543064125E-17, 0.000000000000000000 ) ) ;
#287 = CARTESIAN_POINT ( 'NONE',  ( 0.000000000000000000, 0.000000000000000000, 0.000000000000000000 ) ) ;
#288 = SURFACE_SIDE_STYLE ('',( #201 ) ) ;
#289 = DIMENSIONAL_EXPONENTS ( 1.000000000000000000, 0.000000000000000000, 0.000000000000000000, 0.000000000000000000, 0.000000000000000000, 0.000000000000000000, 0.000000000000000000 ) ;
#290 = ORIENTED_EDGE ( 'NONE', *, *, #256, .T. ) ;
#291 = MANIFOLD_SOLID_BREP ( 'Revolve - Cutting Edge', #85 ) ;
#292 = MANIFOLD_SOLID_BREP ( 'Revolve - Tool Body (Straight Shanked)', #302 ) ;
#293 = ORIENTED_EDGE ( 'NONE', *, *, #194, .F. ) ;
#294 = VERTEX_POINT ( 'NONE', #220 ) ;
#295 = EDGE_LOOP ( 'NONE', ( #182, #104 ) ) ;
#296 = AXIS2_PLACEMENT_3D ( 'NONE', #26, #119, #55 ) ;
#297 = STYLED_ITEM ( 'NONE', ( #242 ), #292 ) ;
#298 = EDGE_CURVE ( 'NONE', #205, #129, #252, .T. ) ;
#299 = DIRECTION ( 'NONE',  ( 0.000000000000000000, 0.000000000000000000, -1.000000000000000000 ) ) ;
#300 = CARTESIAN_POINT ( 'NONE',  ( 1.224646799147353700E-16, 2.000000000000000000, 0.000000000000000000 ) ) ;
#301 = DIRECTION ( 'NONE',  ( -0.000000000000000000, -1.000000000000000000, -0.000000000000000000 ) ) ;
#302 = CLOSED_SHELL ( 'NONE', ( #39, #203, #135, #90 ) ) ;
#303 = PRODUCT ( '44167W', '44167W', '', ( #309 ) ) ;
#304 = CARTESIAN_POINT ( 'NONE',  ( 1.224646799147353700E-16, 2.000000000000000000, 0.000000000000000000 ) ) ;
#305 = CARTESIAN_POINT ( 'NONE',  ( 0.000000000000000000, 0.000000000000000000, 0.000000000000000000 ) ) ;
#306 = UNCERTAINTY_MEASURE_WITH_UNIT (LENGTH_MEASURE( 1.000000000000000082E-05 ), #54, 'distance_accuracy_value', 'NONE');
#307 = DIRECTION ( 'NONE',  ( -1.000000000000000000, 0.000000000000000000, 0.000000000000000000 ) ) ;
#308 = APPLICATION_CONTEXT ( 'automotive_design' ) ;
#309 = PRODUCT_CONTEXT ( 'NONE', #308, 'mechanical' ) ;
ENDSEC;
END-ISO-10303-21;
