ISO-10303-21;
HEADER;
FILE_DESCRIPTION (( 'STEP AP214' ),
    '1' );
FILE_NAME ('01090.STEP',
    '2023-06-22T14:19:12',
    ( '' ),
    ( '' ),
    'SwSTEP 2.0',
    'SolidWorks 2023',
    '' );
FILE_SCHEMA (( 'AUTOMOTIVE_DESIGN' ));
ENDSEC;

DATA;
#1 = MECHANICAL_DESIGN_GEOMETRIC_PRESENTATION_REPRESENTATION (  '', ( #288 ), #36 ) ;
#2 = DIMENSIONAL_EXPONENTS ( 1.000000000000000000, 0.000000000000000000, 0.000000000000000000, 0.000000000000000000, 0.000000000000000000, 0.000000000000000000, 0.000000000000000000 ) ;
#3 = SURFACE_STYLE_USAGE ( .BOTH. , #257 ) ;
#4 = CIRCLE ( 'NONE', #298, 0.09374999999999998612 ) ;
#5 =( NAMED_UNIT ( * ) SI_UNIT ( $, .STERADIAN. ) SOLID_ANGLE_UNIT ( ) );
#6 = CARTESIAN_POINT ( 'NONE',  ( 0.09375000000000002776, 2.000000000000000000, 1.148106374200643092E-17 ) ) ;
#7 = DIRECTION ( 'NONE',  ( 3.628583108584750472E-17, 1.000000000000000000, -0.000000000000000000 ) ) ;
#8 = AXIS2_PLACEMENT_3D ( 'NONE', #199, #168, #297 ) ;
#9 = ORIENTED_EDGE ( 'NONE', *, *, #31, .F. ) ;
#10 = DIRECTION ( 'NONE',  ( 0.000000000000000000, -1.000000000000000000, -0.000000000000000000 ) ) ;
#11 = ORIENTED_EDGE ( 'NONE', *, *, #126, .T. ) ;
#12 = CARTESIAN_POINT ( 'NONE',  ( -0.09374999999999998612, 0.3125000000000000000, 0.000000000000000000 ) ) ;
#13 = CIRCLE ( 'NONE', #287, 0.09374999999999991673 ) ;
#14 = SURFACE_STYLE_USAGE ( .BOTH. , #86 ) ;
#15 = FILL_AREA_STYLE ('',( #308 ) ) ;
#16 = DIRECTION ( 'NONE',  ( -0.000000000000000000, -1.000000000000000000, -0.000000000000000000 ) ) ;
#17 =( CONVERSION_BASED_UNIT ( 'INCH', #236 ) LENGTH_UNIT ( ) NAMED_UNIT ( #2 ) );
#18 = CARTESIAN_POINT ( 'NONE',  ( 1.148106374200643555E-17, 0.000000000000000000, 0.09375000000000001388 ) ) ;
#19 = SURFACE_SIDE_STYLE ('',( #138 ) ) ;
#20 = MECHANICAL_DESIGN_GEOMETRIC_PRESENTATION_REPRESENTATION (  '', ( #280 ), #151 ) ;
#21 =( LENGTH_UNIT ( ) NAMED_UNIT ( * ) SI_UNIT ( $, .METRE. ) );
#22 = ORIENTED_EDGE ( 'NONE', *, *, #78, .F. ) ;
#23 = DIRECTION ( 'NONE',  ( 1.000000000000000000, 0.000000000000000000, 0.000000000000000000 ) ) ;
#24 =( LENGTH_UNIT ( ) NAMED_UNIT ( * ) SI_UNIT ( $, .METRE. ) );
#25 = ORIENTED_EDGE ( 'NONE', *, *, #221, .T. ) ;
#26 = ADVANCED_FACE ( 'NONE', ( #211 ), #89, .T. ) ;
#27 = DIRECTION ( 'NONE',  ( 0.000000000000000000, 0.000000000000000000, -1.000000000000000000 ) ) ;
#28 = DIMENSIONAL_EXPONENTS ( 1.000000000000000000, 0.000000000000000000, 0.000000000000000000, 0.000000000000000000, 0.000000000000000000, 0.000000000000000000, 0.000000000000000000 ) ;
#29 = DIRECTION ( 'NONE',  ( -1.000000000000000000, 3.628583108584750472E-17, 0.000000000000000000 ) ) ;
#30 = DIMENSIONAL_EXPONENTS ( 1.000000000000000000, 0.000000000000000000, 0.000000000000000000, 0.000000000000000000, 0.000000000000000000, 0.000000000000000000, 0.000000000000000000 ) ;
#31 = EDGE_CURVE ( 'NONE', #273, #307, #4, .T. ) ;
#32 = CLOSED_SHELL ( 'NONE', ( #192, #304, #228, #83 ) ) ;
#33 = FACE_OUTER_BOUND ( 'NONE', #197, .T. ) ;
#34 = LINE ( 'NONE', #296, #165 ) ;
#35 = LENGTH_MEASURE_WITH_UNIT ( LENGTH_MEASURE( 0.02539999999999999897 ), #267 );
#36 =( GEOMETRIC_REPRESENTATION_CONTEXT ( 3 ) GLOBAL_UNCERTAINTY_ASSIGNED_CONTEXT ( ( #142 ) ) GLOBAL_UNIT_ASSIGNED_CONTEXT ( ( #150, #268, #5 ) ) REPRESENTATION_CONTEXT ( 'NONE', 'WORKASPACE' ) );
#37 = CARTESIAN_POINT ( 'NONE',  ( 0.09374999999999998612, 2.000000000000000000, 1.148106374200643247E-17 ) ) ;
#38 = PRODUCT_DEFINITION ( 'UNKNOWN', '', #233, #116 ) ;
#39 = FACE_OUTER_BOUND ( 'NONE', #97, .T. ) ;
#40 = FACE_OUTER_BOUND ( 'NONE', #140, .T. ) ;
#41 =( GEOMETRIC_REPRESENTATION_CONTEXT ( 3 ) GLOBAL_UNCERTAINTY_ASSIGNED_CONTEXT ( ( #76 ) ) GLOBAL_UNIT_ASSIGNED_CONTEXT ( ( #272, #171, #175 ) ) REPRESENTATION_CONTEXT ( 'NONE', 'WORKASPACE' ) );
#42 = AXIS2_PLACEMENT_3D ( 'NONE', #262, #238, #23 ) ;
#43 = EDGE_LOOP ( 'NONE', ( #131, #201, #146, #22 ) ) ;
#44 = PRODUCT_DEFINITION_SHAPE ( 'NONE', 'NONE',  #38 ) ;
#45 = FILL_AREA_STYLE_COLOUR ( '', #275 ) ;
#46 = ORIENTED_EDGE ( 'NONE', *, *, #247, .F. ) ;
#47 = MECHANICAL_DESIGN_GEOMETRIC_PRESENTATION_REPRESENTATION (  '', ( #240 ), #119 ) ;
#48 = DIMENSIONAL_EXPONENTS ( 1.000000000000000000, 0.000000000000000000, 0.000000000000000000, 0.000000000000000000, 0.000000000000000000, 0.000000000000000000, 0.000000000000000000 ) ;
#49 = ORIENTED_EDGE ( 'NONE', *, *, #78, .T. ) ;
#50 = CARTESIAN_POINT ( 'NONE',  ( 0.000000000000000000, 0.000000000000000000, 0.000000000000000000 ) ) ;
#51 = COLOUR_RGB ( '',0.7921568627450980005, 0.8196078431372548767, 0.9333333333333333481 ) ;
#52 = MANIFOLD_SOLID_BREP ( 'Revolve - Cutting Edge', #32 ) ;
#53 = DIRECTION ( 'NONE',  ( -0.000000000000000000, -1.000000000000000000, -0.000000000000000000 ) ) ;
#54 = VERTEX_POINT ( 'NONE', #156 ) ;
#55 = ORIENTED_EDGE ( 'NONE', *, *, #242, .T. ) ;
#56 = SURFACE_STYLE_FILL_AREA ( #58 ) ;
#57 = AXIS2_PLACEMENT_3D ( 'NONE', #124, #7, #103 ) ;
#58 = FILL_AREA_STYLE ('',( #129 ) ) ;
#59 = LINE ( 'NONE', #6, #305 ) ;
#60 = PRESENTATION_LAYER_ASSIGNMENT (  '', '', ( #183 ) ) ;
#61 = LENGTH_MEASURE_WITH_UNIT ( LENGTH_MEASURE( 0.02539999999999999897 ), #24 );
#62 = ADVANCED_FACE ( 'NONE', ( #33 ), #181, .T. ) ;
#63 = DIRECTION ( 'NONE',  ( -1.000000000000000000, 0.000000000000000000, 0.000000000000000000 ) ) ;
#64 = DIRECTION ( 'NONE',  ( -3.628583108584750472E-17, -1.000000000000000000, 0.000000000000000000 ) ) ;
#65 = DIRECTION ( 'NONE',  ( 1.000000000000000000, -3.628583108584750472E-17, 0.000000000000000000 ) ) ;
#66 = ORIENTED_EDGE ( 'NONE', *, *, #221, .F. ) ;
#67 = PRODUCT_RELATED_PRODUCT_CATEGORY ( 'part', '', ( #216 ) ) ;
#68 = FILL_AREA_STYLE ('',( #194 ) ) ;
#69 = MECHANICAL_DESIGN_GEOMETRIC_PRESENTATION_REPRESENTATION (  '', ( #100 ), #118 ) ;
#70 = VERTEX_POINT ( 'NONE', #37 ) ;
#71 =( NAMED_UNIT ( * ) SI_UNIT ( $, .STERADIAN. ) SOLID_ANGLE_UNIT ( ) );
#72 = DIRECTION ( 'NONE',  ( 3.628583108584750472E-17, 1.000000000000000000, -0.000000000000000000 ) ) ;
#73 = EDGE_CURVE ( 'NONE', #70, #244, #13, .T. ) ;
#74 = CIRCLE ( 'NONE', #57, 0.09374999999999998612 ) ;
#75 = ORIENTED_EDGE ( 'NONE', *, *, #242, .F. ) ;
#76 = UNCERTAINTY_MEASURE_WITH_UNIT (LENGTH_MEASURE( 1.000000000000000082E-05 ), #272, 'distance_accuracy_value', 'NONE');
#77 = LENGTH_MEASURE_WITH_UNIT ( LENGTH_MEASURE( 0.02539999999999999897 ), #251 );
#78 = EDGE_CURVE ( 'NONE', #307, #256, #225, .T. ) ;
#79 = AXIS2_PLACEMENT_3D ( 'NONE', #153, #87, #63 ) ;
#80 = CIRCLE ( 'NONE', #160, 0.09375000000000001388 ) ;
#81 = PRESENTATION_STYLE_ASSIGNMENT (( #222 ) ) ;
#82 = FACE_OUTER_BOUND ( 'NONE', #186, .T. ) ;
#83 = ADVANCED_FACE ( 'NONE', ( #39 ), #130, .T. ) ;
#84 = DIRECTION ( 'NONE',  ( 3.628583108584750472E-17, 1.000000000000000000, -0.000000000000000000 ) ) ;
#85 =( NAMED_UNIT ( * ) SI_UNIT ( $, .STERADIAN. ) SOLID_ANGLE_UNIT ( ) );
#86 = SURFACE_SIDE_STYLE ('',( #154 ) ) ;
#87 = DIRECTION ( 'NONE',  ( 3.628583108584750472E-17, 1.000000000000000000, -0.000000000000000000 ) ) ;
#88 = SURFACE_STYLE_FILL_AREA ( #68 ) ;
#89 = CYLINDRICAL_SURFACE ( 'NONE', #79, 0.09374999999999995837 ) ;
#90 = VERTEX_POINT ( 'NONE', #18 ) ;
#91 = DIMENSIONAL_EXPONENTS ( 1.000000000000000000, 0.000000000000000000, 0.000000000000000000, 0.000000000000000000, 0.000000000000000000, 0.000000000000000000, 0.000000000000000000 ) ;
#92 = ORIENTED_EDGE ( 'NONE', *, *, #210, .F. ) ;
#93 =( CONVERSION_BASED_UNIT ( 'INCH', #112 ) LENGTH_UNIT ( ) NAMED_UNIT ( #48 ) );
#94 = UNCERTAINTY_MEASURE_WITH_UNIT (LENGTH_MEASURE( 1.000000000000000082E-05 ), #93, 'distance_accuracy_value', 'NONE');
#95 = COLOUR_RGB ( '',1.000000000000000000, 0.000000000000000000, 0.000000000000000000 ) ;
#96 = PRESENTATION_STYLE_ASSIGNMENT (( #3 ) ) ;
#97 = EDGE_LOOP ( 'NONE', ( #158, #25 ) ) ;
#98 = PRESENTATION_STYLE_ASSIGNMENT (( #301 ) ) ;
#99 = PRESENTATION_LAYER_ASSIGNMENT (  '', '', ( #240 ) ) ;
#100 = STYLED_ITEM ( 'NONE', ( #98 ), #228 ) ;
#101 = SURFACE_STYLE_FILL_AREA ( #291 ) ;
#102 = ORIENTED_EDGE ( 'NONE', *, *, #264, .T. ) ;
#103 = DIRECTION ( 'NONE',  ( -1.000000000000000000, 0.000000000000000000, 0.000000000000000000 ) ) ;
#104 = MECHANICAL_DESIGN_GEOMETRIC_PRESENTATION_REPRESENTATION (  '', ( #183 ), #241 ) ;
#105 = DIRECTION ( 'NONE',  ( -1.000000000000000000, 0.000000000000000000, 0.000000000000000000 ) ) ;
#106 = DIRECTION ( 'NONE',  ( -1.000000000000000000, 0.000000000000000000, 0.000000000000000000 ) ) ;
#107 = PRESENTATION_STYLE_ASSIGNMENT (( #14 ) ) ;
#108 =( NAMED_UNIT ( * ) SI_UNIT ( $, .STERADIAN. ) SOLID_ANGLE_UNIT ( ) );
#109 = SURFACE_SIDE_STYLE ('',( #157 ) ) ;
#110 = ORIENTED_EDGE ( 'NONE', *, *, #31, .T. ) ;
#111 = AXIS2_PLACEMENT_3D ( 'NONE', #208, #125, #106 ) ;
#112 = LENGTH_MEASURE_WITH_UNIT ( LENGTH_MEASURE( 0.02539999999999999897 ), #282 );
#113 =( NAMED_UNIT ( * ) SI_UNIT ( $, .STERADIAN. ) SOLID_ANGLE_UNIT ( ) );
#114 = DIRECTION ( 'NONE',  ( 0.000000000000000000, 0.000000000000000000, -1.000000000000000000 ) ) ;
#115 = ORIENTED_EDGE ( 'NONE', *, *, #180, .F. ) ;
#116 = PRODUCT_DEFINITION_CONTEXT ( 'detailed design', #278, 'design' ) ;
#117 = LINE ( 'NONE', #207, #224 ) ;
#118 =( GEOMETRIC_REPRESENTATION_CONTEXT ( 3 ) GLOBAL_UNCERTAINTY_ASSIGNED_CONTEXT ( ( #195 ) ) GLOBAL_UNIT_ASSIGNED_CONTEXT ( ( #17, #189, #163 ) ) REPRESENTATION_CONTEXT ( 'NONE', 'WORKASPACE' ) );
#119 =( GEOMETRIC_REPRESENTATION_CONTEXT ( 3 ) GLOBAL_UNCERTAINTY_ASSIGNED_CONTEXT ( ( #122 ) ) GLOBAL_UNIT_ASSIGNED_CONTEXT ( ( #300, #285, #71 ) ) REPRESENTATION_CONTEXT ( 'NONE', 'WORKASPACE' ) );
#120 = AXIS2_PLACEMENT_3D ( 'NONE', #169, #204, #270 ) ;
#121 = PRESENTATION_STYLE_ASSIGNMENT (( #289 ) ) ;
#122 = UNCERTAINTY_MEASURE_WITH_UNIT (LENGTH_MEASURE( 1.000000000000000082E-05 ), #300, 'distance_accuracy_value', 'NONE');
#123 = DIRECTION ( 'NONE',  ( 0.000000000000000000, 0.000000000000000000, -1.000000000000000000 ) ) ;
#124 = CARTESIAN_POINT ( 'NONE',  ( 0.000000000000000000, 0.3125000000000000000, 0.000000000000000000 ) ) ;
#125 = DIRECTION ( 'NONE',  ( 3.628583108584750472E-17, 1.000000000000000000, -0.000000000000000000 ) ) ;
#126 = EDGE_CURVE ( 'NONE', #54, #132, #164, .T. ) ;
#127 = AXIS2_PLACEMENT_3D ( 'NONE', #258, #64, #65 ) ;
#128 = DIRECTION ( 'NONE',  ( 3.628583108584750472E-17, 1.000000000000000000, -0.000000000000000000 ) ) ;
#129 = FILL_AREA_STYLE_COLOUR ( '', #269 ) ;
#130 = PLANE ( 'NONE',  #214 ) ;
#131 = ORIENTED_EDGE ( 'NONE', *, *, #210, .T. ) ;
#132 = VERTEX_POINT ( 'NONE', #12 ) ;
#133 = EDGE_CURVE ( 'NONE', #132, #54, #74, .T. ) ;
#134 = STYLED_ITEM ( 'NONE', ( #107 ), #83 ) ;
#135 = AXIS2_PLACEMENT_3D ( 'NONE', #155, #193, #114 ) ;
#136 = EDGE_LOOP ( 'NONE', ( #295, #172 ) ) ;
#137 = CARTESIAN_POINT ( 'NONE',  ( 0.000000000000000000, 0.3125000000000000000, -0.09374999999999998612 ) ) ;
#138 = SURFACE_STYLE_FILL_AREA ( #283 ) ;
#139 =( NAMED_UNIT ( * ) PLANE_ANGLE_UNIT ( ) SI_UNIT ( $, .RADIAN. ) );
#140 = EDGE_LOOP ( 'NONE', ( #115, #110, #49, #66 ) ) ;
#141 =( GEOMETRIC_REPRESENTATION_CONTEXT ( 3 ) GLOBAL_UNCERTAINTY_ASSIGNED_CONTEXT ( ( #94 ) ) GLOBAL_UNIT_ASSIGNED_CONTEXT ( ( #93, #139, #113 ) ) REPRESENTATION_CONTEXT ( 'NONE', 'WORKASPACE' ) );
#142 = UNCERTAINTY_MEASURE_WITH_UNIT (LENGTH_MEASURE( 1.000000000000000082E-05 ), #150, 'distance_accuracy_value', 'NONE');
#143 =( CONVERSION_BASED_UNIT ( 'INCH', #162 ) LENGTH_UNIT ( ) NAMED_UNIT ( #219 ) );
#144 = CARTESIAN_POINT ( 'NONE',  ( 0.000000000000000000, 0.3125000000000000000, 0.000000000000000000 ) ) ;
#145 = MECHANICAL_DESIGN_GEOMETRIC_PRESENTATION_REPRESENTATION (  '', ( #134 ), #41 ) ;
#146 = ORIENTED_EDGE ( 'NONE', *, *, #177, .F. ) ;
#147 = DIRECTION ( 'NONE',  ( 0.000000000000000000, -0.000000000000000000, 1.000000000000000000 ) ) ;
#148 = DIMENSIONAL_EXPONENTS ( 1.000000000000000000, 0.000000000000000000, 0.000000000000000000, 0.000000000000000000, 0.000000000000000000, 0.000000000000000000, 0.000000000000000000 ) ;
#149 = ADVANCED_FACE ( 'NONE', ( #82 ), #174, .F. ) ;
#150 =( CONVERSION_BASED_UNIT ( 'INCH', #35 ) LENGTH_UNIT ( ) NAMED_UNIT ( #28 ) );
#151 =( GEOMETRIC_REPRESENTATION_CONTEXT ( 3 ) GLOBAL_UNCERTAINTY_ASSIGNED_CONTEXT ( ( #198 ) ) GLOBAL_UNIT_ASSIGNED_CONTEXT ( ( #143, #299, #85 ) ) REPRESENTATION_CONTEXT ( 'NONE', 'WORKASPACE' ) );
#152 = AXIS2_PLACEMENT_3D ( 'NONE', #179, #72, #29 ) ;
#153 = CARTESIAN_POINT ( 'NONE',  ( 6.123233995736766036E-17, 2.000000000000000000, 0.000000000000000000 ) ) ;
#154 = SURFACE_STYLE_FILL_AREA ( #205 ) ;
#155 = CARTESIAN_POINT ( 'NONE',  ( 0.000000000000000000, 0.000000000000000000, 0.000000000000000000 ) ) ;
#156 = CARTESIAN_POINT ( 'NONE',  ( 0.09374999999999998612, 0.3125000000000000000, 1.148106374200643247E-17 ) ) ;
#157 = SURFACE_STYLE_FILL_AREA ( #15 ) ;
#158 = ORIENTED_EDGE ( 'NONE', *, *, #177, .T. ) ;
#159 = PRESENTATION_LAYER_ASSIGNMENT (  '', '', ( #280 ) ) ;
#160 = AXIS2_PLACEMENT_3D ( 'NONE', #50, #245, #27 ) ;
#161 = DIRECTION ( 'NONE',  ( -0.000000000000000000, -1.000000000000000000, -0.000000000000000000 ) ) ;
#162 = LENGTH_MEASURE_WITH_UNIT ( LENGTH_MEASURE( 0.02539999999999999897 ), #21 );
#163 =( NAMED_UNIT ( * ) SI_UNIT ( $, .STERADIAN. ) SOLID_ANGLE_UNIT ( ) );
#164 = CIRCLE ( 'NONE', #8, 0.09374999999999998612 ) ;
#165 = VECTOR ( 'NONE', #203, 39.37007874015748143 ) ;
#166 = FILL_AREA_STYLE_COLOUR ( '', #51 ) ;
#167 = CARTESIAN_POINT ( 'NONE',  ( 0.000000000000000000, 0.000000000000000000, -0.09375000000000001388 ) ) ;
#168 = DIRECTION ( 'NONE',  ( 3.628583108584750472E-17, 1.000000000000000000, -0.000000000000000000 ) ) ;
#169 = CARTESIAN_POINT ( 'NONE',  ( 6.123233995736766036E-17, 2.000000000000000000, 0.000000000000000000 ) ) ;
#170 = SURFACE_SIDE_STYLE ('',( #101 ) ) ;
#171 =( NAMED_UNIT ( * ) PLANE_ANGLE_UNIT ( ) SI_UNIT ( $, .RADIAN. ) );
#172 = ORIENTED_EDGE ( 'NONE', *, *, #73, .T. ) ;
#173 =( CONVERSION_BASED_UNIT ( 'INCH', #77 ) LENGTH_UNIT ( ) NAMED_UNIT ( #148 ) );
#174 = PLANE ( 'NONE',  #152 ) ;
#175 =( NAMED_UNIT ( * ) SI_UNIT ( $, .STERADIAN. ) SOLID_ANGLE_UNIT ( ) );
#176 = SURFACE_SIDE_STYLE ('',( #56 ) ) ;
#177 = EDGE_CURVE ( 'NONE', #256, #90, #182, .T. ) ;
#178 = FACE_OUTER_BOUND ( 'NONE', #136, .T. ) ;
#179 = CARTESIAN_POINT ( 'NONE',  ( 6.171850957456204517E-35, 0.3125000000000000000, 0.000000000000000000 ) ) ;
#180 = EDGE_CURVE ( 'NONE', #273, #90, #117, .T. ) ;
#181 = CYLINDRICAL_SURFACE ( 'NONE', #111, 0.09374999999999995837 ) ;
#182 = CIRCLE ( 'NONE', #231, 0.09375000000000001388 ) ;
#183 = STYLED_ITEM ( 'NONE', ( #121 ), #266 ) ;
#184 = SHAPE_DEFINITION_REPRESENTATION ( #44, #232 ) ;
#185 = FACE_OUTER_BOUND ( 'NONE', #217, .T. ) ;
#186 = EDGE_LOOP ( 'NONE', ( #250, #259 ) ) ;
#187 = APPLICATION_PROTOCOL_DEFINITION ( 'draft international standard', 'automotive_design', 1998, #278 ) ;
#188 = ORIENTED_EDGE ( 'NONE', *, *, #133, .T. ) ;
#189 =( NAMED_UNIT ( * ) PLANE_ANGLE_UNIT ( ) SI_UNIT ( $, .RADIAN. ) );
#190 = COLOUR_RGB ( '',1.000000000000000000, 0.000000000000000000, 0.000000000000000000 ) ;
#191 = PRESENTATION_LAYER_ASSIGNMENT (  '', '', ( #288 ) ) ;
#192 = ADVANCED_FACE ( 'NONE', ( #265 ), #277, .T. ) ;
#193 = DIRECTION ( 'NONE',  ( -0.000000000000000000, -1.000000000000000000, -0.000000000000000000 ) ) ;
#194 = FILL_AREA_STYLE_COLOUR ( '', #95 ) ;
#195 = UNCERTAINTY_MEASURE_WITH_UNIT (LENGTH_MEASURE( 1.000000000000000082E-05 ), #17, 'distance_accuracy_value', 'NONE');
#196 = COLOUR_RGB ( '',1.000000000000000000, 0.000000000000000000, 0.000000000000000000 ) ;
#197 = EDGE_LOOP ( 'NONE', ( #206, #11, #55, #284 ) ) ;
#198 = UNCERTAINTY_MEASURE_WITH_UNIT (LENGTH_MEASURE( 1.000000000000000082E-05 ), #143, 'distance_accuracy_value', 'NONE');
#199 = CARTESIAN_POINT ( 'NONE',  ( 0.000000000000000000, 0.3125000000000000000, 0.000000000000000000 ) ) ;
#200 = CARTESIAN_POINT ( 'NONE',  ( 6.123233995736766036E-17, 2.000000000000000000, 0.000000000000000000 ) ) ;
#201 = ORIENTED_EDGE ( 'NONE', *, *, #180, .T. ) ;
#202 = APPLICATION_CONTEXT ( 'automotive_design' ) ;
#203 = DIRECTION ( 'NONE',  ( 3.628583108584750472E-17, 1.000000000000000000, -0.000000000000000000 ) ) ;
#204 = DIRECTION ( 'NONE',  ( 3.628583108584750472E-17, 1.000000000000000000, -0.000000000000000000 ) ) ;
#205 = FILL_AREA_STYLE ('',( #223 ) ) ;
#206 = ORIENTED_EDGE ( 'NONE', *, *, #264, .F. ) ;
#207 = CARTESIAN_POINT ( 'NONE',  ( 1.148106374200643401E-17, 0.000000000000000000, 0.09374999999999998612 ) ) ;
#208 = CARTESIAN_POINT ( 'NONE',  ( 6.123233995736766036E-17, 2.000000000000000000, 0.000000000000000000 ) ) ;
#209 = DIRECTION ( 'NONE',  ( -0.000000000000000000, -1.000000000000000000, -0.000000000000000000 ) ) ;
#210 = EDGE_CURVE ( 'NONE', #307, #273, #248, .T. ) ;
#211 = FACE_OUTER_BOUND ( 'NONE', #309, .T. ) ;
#212 = PLANE ( 'NONE',  #215 ) ;
#213 = DIRECTION ( 'NONE',  ( -0.000000000000000000, -1.000000000000000000, -0.000000000000000000 ) ) ;
#214 = AXIS2_PLACEMENT_3D ( 'NONE', #229, #10, #230 ) ;
#215 = AXIS2_PLACEMENT_3D ( 'NONE', #290, #237, #147 ) ;
#216 = PRODUCT ( '01090', '01090', '', ( #239 ) ) ;
#217 = EDGE_LOOP ( 'NONE', ( #92, #9 ) ) ;
#218 = CARTESIAN_POINT ( 'NONE',  ( 0.000000000000000000, 0.000000000000000000, 0.000000000000000000 ) ) ;
#219 = DIMENSIONAL_EXPONENTS ( 1.000000000000000000, 0.000000000000000000, 0.000000000000000000, 0.000000000000000000, 0.000000000000000000, 0.000000000000000000, 0.000000000000000000 ) ;
#220 = CARTESIAN_POINT ( 'NONE',  ( -0.09374999999999984734, 2.000000000000000000, 0.000000000000000000 ) ) ;
#221 = EDGE_CURVE ( 'NONE', #90, #256, #80, .T. ) ;
#222 = SURFACE_STYLE_USAGE ( .BOTH. , #170 ) ;
#223 = FILL_AREA_STYLE_COLOUR ( '', #190 ) ;
#224 = VECTOR ( 'NONE', #213, 39.37007874015748143 ) ;
#225 = LINE ( 'NONE', #294, #249 ) ;
#226 =( NAMED_UNIT ( * ) PLANE_ANGLE_UNIT ( ) SI_UNIT ( $, .RADIAN. ) );
#227 =( LENGTH_UNIT ( ) NAMED_UNIT ( * ) SI_UNIT ( $, .METRE. ) );
#228 = ADVANCED_FACE ( 'NONE', ( #40 ), #234, .T. ) ;
#229 = CARTESIAN_POINT ( 'NONE',  ( 0.000000000000000000, 0.000000000000000000, 0.000000000000000000 ) ) ;
#230 = DIRECTION ( 'NONE',  ( 0.000000000000000000, 0.000000000000000000, -1.000000000000000000 ) ) ;
#231 = AXIS2_PLACEMENT_3D ( 'NONE', #218, #209, #243 ) ;
#232 = ADVANCED_BREP_SHAPE_REPRESENTATION ( '01090', ( #52, #266, #42 ), #141 ) ;
#233 = PRODUCT_DEFINITION_FORMATION_WITH_SPECIFIED_SOURCE ( 'ANY', '', #216, .NOT_KNOWN. ) ;
#234 = CYLINDRICAL_SURFACE ( 'NONE', #292, 0.09374999999999998612 ) ;
#235 = CARTESIAN_POINT ( 'NONE',  ( 0.000000000000000000, 0.3125000000000000000, 0.000000000000000000 ) ) ;
#236 = LENGTH_MEASURE_WITH_UNIT ( LENGTH_MEASURE( 0.02539999999999999897 ), #286 );
#237 = DIRECTION ( 'NONE',  ( 0.000000000000000000, 1.000000000000000000, 0.000000000000000000 ) ) ;
#238 = DIRECTION ( 'NONE',  ( 0.000000000000000000, 0.000000000000000000, 1.000000000000000000 ) ) ;
#239 = PRODUCT_CONTEXT ( 'NONE', #202, 'mechanical' ) ;
#240 = STYLED_ITEM ( 'NONE', ( #96 ), #192 ) ;
#241 =( GEOMETRIC_REPRESENTATION_CONTEXT ( 3 ) GLOBAL_UNCERTAINTY_ASSIGNED_CONTEXT ( ( #261 ) ) GLOBAL_UNIT_ASSIGNED_CONTEXT ( ( #173, #226, #108 ) ) REPRESENTATION_CONTEXT ( 'NONE', 'WORKASPACE' ) );
#242 = EDGE_CURVE ( 'NONE', #132, #244, #34, .T. ) ;
#243 = DIRECTION ( 'NONE',  ( 0.000000000000000000, 0.000000000000000000, -1.000000000000000000 ) ) ;
#244 = VERTEX_POINT ( 'NONE', #220 ) ;
#245 = DIRECTION ( 'NONE',  ( -0.000000000000000000, -1.000000000000000000, -0.000000000000000000 ) ) ;
#246 = SURFACE_STYLE_USAGE ( .BOTH. , #19 ) ;
#247 = EDGE_CURVE ( 'NONE', #244, #70, #260, .T. ) ;
#248 = CIRCLE ( 'NONE', #252, 0.09374999999999998612 ) ;
#249 = VECTOR ( 'NONE', #254, 39.37007874015748143 ) ;
#250 = ORIENTED_EDGE ( 'NONE', *, *, #133, .F. ) ;
#251 =( LENGTH_UNIT ( ) NAMED_UNIT ( * ) SI_UNIT ( $, .METRE. ) );
#252 = AXIS2_PLACEMENT_3D ( 'NONE', #144, #161, #255 ) ;
#253 = PLANE ( 'NONE',  #127 ) ;
#254 = DIRECTION ( 'NONE',  ( -0.000000000000000000, -1.000000000000000000, -0.000000000000000000 ) ) ;
#255 = DIRECTION ( 'NONE',  ( 0.000000000000000000, 0.000000000000000000, -1.000000000000000000 ) ) ;
#256 = VERTEX_POINT ( 'NONE', #167 ) ;
#257 = SURFACE_SIDE_STYLE ('',( #88 ) ) ;
#258 = CARTESIAN_POINT ( 'NONE',  ( 0.09374999999999998612, 2.000000000000000000, 0.000000000000000000 ) ) ;
#259 = ORIENTED_EDGE ( 'NONE', *, *, #126, .F. ) ;
#260 = CIRCLE ( 'NONE', #120, 0.09374999999999991673 ) ;
#261 = UNCERTAINTY_MEASURE_WITH_UNIT (LENGTH_MEASURE( 1.000000000000000082E-05 ), #173, 'distance_accuracy_value', 'NONE');
#262 = CARTESIAN_POINT ( 'NONE',  ( 0.000000000000000000, 0.000000000000000000, 0.000000000000000000 ) ) ;
#263 = PRESENTATION_STYLE_ASSIGNMENT (( #246 ) ) ;
#264 = EDGE_CURVE ( 'NONE', #54, #70, #59, .T. ) ;
#265 = FACE_OUTER_BOUND ( 'NONE', #43, .T. ) ;
#266 = MANIFOLD_SOLID_BREP ( 'Revolve - Tool Body (Straight Shanked)', #274 ) ;
#267 =( LENGTH_UNIT ( ) NAMED_UNIT ( * ) SI_UNIT ( $, .METRE. ) );
#268 =( NAMED_UNIT ( * ) PLANE_ANGLE_UNIT ( ) SI_UNIT ( $, .RADIAN. ) );
#269 = COLOUR_RGB ( '',0.7921568627450980005, 0.8196078431372548767, 0.9333333333333333481 ) ;
#270 = DIRECTION ( 'NONE',  ( -1.000000000000000000, 0.000000000000000000, 0.000000000000000000 ) ) ;
#271 = CARTESIAN_POINT ( 'NONE',  ( 0.000000000000000000, 0.000000000000000000, 0.000000000000000000 ) ) ;
#272 =( CONVERSION_BASED_UNIT ( 'INCH', #276 ) LENGTH_UNIT ( ) NAMED_UNIT ( #91 ) );
#273 = VERTEX_POINT ( 'NONE', #279 ) ;
#274 = CLOSED_SHELL ( 'NONE', ( #26, #149, #62, #293 ) ) ;
#275 = COLOUR_RGB ( '',1.000000000000000000, 0.000000000000000000, 0.000000000000000000 ) ;
#276 = LENGTH_MEASURE_WITH_UNIT ( LENGTH_MEASURE( 0.02539999999999999897 ), #227 );
#277 = CYLINDRICAL_SURFACE ( 'NONE', #135, 0.09374999999999998612 ) ;
#278 = APPLICATION_CONTEXT ( 'automotive_design' ) ;
#279 = CARTESIAN_POINT ( 'NONE',  ( 1.148106374200643401E-17, 0.3125000000000000000, 0.09374999999999998612 ) ) ;
#280 = STYLED_ITEM ( 'NONE', ( #81 ), #52 ) ;
#281 = PRESENTATION_LAYER_ASSIGNMENT (  '', '', ( #100 ) ) ;
#282 =( LENGTH_UNIT ( ) NAMED_UNIT ( * ) SI_UNIT ( $, .METRE. ) );
#283 = FILL_AREA_STYLE ('',( #45 ) ) ;
#284 = ORIENTED_EDGE ( 'NONE', *, *, #73, .F. ) ;
#285 =( NAMED_UNIT ( * ) PLANE_ANGLE_UNIT ( ) SI_UNIT ( $, .RADIAN. ) );
#286 =( LENGTH_UNIT ( ) NAMED_UNIT ( * ) SI_UNIT ( $, .METRE. ) );
#287 = AXIS2_PLACEMENT_3D ( 'NONE', #200, #128, #105 ) ;
#288 = STYLED_ITEM ( 'NONE', ( #263 ), #304 ) ;
#289 = SURFACE_STYLE_USAGE ( .BOTH. , #176 ) ;
#290 = CARTESIAN_POINT ( 'NONE',  ( 0.000000000000000000, 0.3125000000000000000, 0.000000000000000000 ) ) ;
#291 = FILL_AREA_STYLE ('',( #166 ) ) ;
#292 = AXIS2_PLACEMENT_3D ( 'NONE', #271, #53, #123 ) ;
#293 = ADVANCED_FACE ( 'NONE', ( #178 ), #253, .F. ) ;
#294 = CARTESIAN_POINT ( 'NONE',  ( 0.000000000000000000, 0.000000000000000000, -0.09374999999999998612 ) ) ;
#295 = ORIENTED_EDGE ( 'NONE', *, *, #247, .T. ) ;
#296 = CARTESIAN_POINT ( 'NONE',  ( -0.09374999999999988898, 2.000000000000000000, 0.000000000000000000 ) ) ;
#297 = DIRECTION ( 'NONE',  ( -1.000000000000000000, 0.000000000000000000, 0.000000000000000000 ) ) ;
#298 = AXIS2_PLACEMENT_3D ( 'NONE', #235, #16, #302 ) ;
#299 =( NAMED_UNIT ( * ) PLANE_ANGLE_UNIT ( ) SI_UNIT ( $, .RADIAN. ) );
#300 =( CONVERSION_BASED_UNIT ( 'INCH', #61 ) LENGTH_UNIT ( ) NAMED_UNIT ( #30 ) );
#301 = SURFACE_STYLE_USAGE ( .BOTH. , #109 ) ;
#302 = DIRECTION ( 'NONE',  ( 0.000000000000000000, 0.000000000000000000, -1.000000000000000000 ) ) ;
#303 = PRESENTATION_LAYER_ASSIGNMENT (  '', '', ( #134 ) ) ;
#304 = ADVANCED_FACE ( 'NONE', ( #185 ), #212, .T. ) ;
#305 = VECTOR ( 'NONE', #84, 39.37007874015748143 ) ;
#306 = APPLICATION_PROTOCOL_DEFINITION ( 'draft international standard', 'automotive_design', 1998, #202 ) ;
#307 = VERTEX_POINT ( 'NONE', #137 ) ;
#308 = FILL_AREA_STYLE_COLOUR ( '', #196 ) ;
#309 = EDGE_LOOP ( 'NONE', ( #188, #102, #46, #75 ) ) ;
ENDSEC;
END-ISO-10303-21;
