ISO-10303-21;
HEADER;
FILE_DESCRIPTION (( 'STEP AP214' ),
    '1' );
FILE_NAME ('07030.STEP',
    '2023-07-12T13:05:20',
    ( '' ),
    ( '' ),
    'SwSTEP 2.0',
    'SolidWorks 2023',
    '' );
FILE_SCHEMA (( 'AUTOMOTIVE_DESIGN' ));
ENDSEC;

DATA;
#1 = FACE_OUTER_BOUND ( 'NONE', #263, .T. ) ;
#2 = ADVANCED_BREP_SHAPE_REPRESENTATION ( '07030', ( #11, #7, #38 ), #275 ) ;
#3 = CIRCLE ( 'NONE', #288, 0.3125000000000000000 ) ;
#4 = FACE_OUTER_BOUND ( 'NONE', #62, .T. ) ;
#5 =( NAMED_UNIT ( * ) PLANE_ANGLE_UNIT ( ) SI_UNIT ( $, .RADIAN. ) );
#6 = CARTESIAN_POINT ( 'NONE',  ( -6.123233995736772199E-17, 3.000000000000000444, 0.000000000000000000 ) ) ;
#7 = MANIFOLD_SOLID_BREP ( 'Revolve - Tool Body (Tipped Off)', #41 ) ;
#8 = DIRECTION ( 'NONE',  ( 1.084095800774008598E-17, 1.000000000000000000, 0.000000000000000000 ) ) ;
#9 = APPLICATION_CONTEXT ( 'automotive_design' ) ;
#10 = VERTEX_POINT ( 'NONE', #180 ) ;
#11 = MANIFOLD_SOLID_BREP ( 'Revolve - Cutting Edge', #188 ) ;
#12 = COLOUR_RGB ( '',1.000000000000000000, 0.000000000000000000, 0.000000000000000000 ) ;
#13 = ORIENTED_EDGE ( 'NONE', *, *, #122, .F. ) ;
#14 = EDGE_LOOP ( 'NONE', ( #13, #69, #173, #222 ) ) ;
#15 =( NAMED_UNIT ( * ) SI_UNIT ( $, .STERADIAN. ) SOLID_ANGLE_UNIT ( ) );
#16 = PLANE ( 'NONE',  #196 ) ;
#17 = UNCERTAINTY_MEASURE_WITH_UNIT (LENGTH_MEASURE( 1.000000000000000082E-05 ), #164, 'distance_accuracy_value', 'NONE');
#18 = AXIS2_PLACEMENT_3D ( 'NONE', #309, #98, #281 ) ;
#19 = PRODUCT ( '07030', '07030', '', ( #141 ) ) ;
#20 =( NAMED_UNIT ( * ) SI_UNIT ( $, .STERADIAN. ) SOLID_ANGLE_UNIT ( ) );
#21 = LINE ( 'NONE', #47, #167 ) ;
#22 =( NAMED_UNIT ( * ) SI_UNIT ( $, .STERADIAN. ) SOLID_ANGLE_UNIT ( ) );
#23 = CARTESIAN_POINT ( 'NONE',  ( 5.288686673651274870E-36, 4.878431103483037846E-19, 0.000000000000000000 ) ) ;
#24 = FILL_AREA_STYLE_COLOUR ( '', #194 ) ;
#25 = PRESENTATION_LAYER_ASSIGNMENT (  '', '', ( #159 ) ) ;
#26 =( NAMED_UNIT ( * ) PLANE_ANGLE_UNIT ( ) SI_UNIT ( $, .RADIAN. ) );
#27 = FILL_AREA_STYLE ('',( #24 ) ) ;
#28 = DIRECTION ( 'NONE',  ( -1.084095800774008598E-17, -1.000000000000000000, -0.000000000000000000 ) ) ;
#29 = SHAPE_DEFINITION_REPRESENTATION ( #227, #2 ) ;
#30 = DIMENSIONAL_EXPONENTS ( 1.000000000000000000, 0.000000000000000000, 0.000000000000000000, 0.000000000000000000, 0.000000000000000000, 0.000000000000000000, 0.000000000000000000 ) ;
#31 = AXIS2_PLACEMENT_3D ( 'NONE', #6, #99, #102 ) ;
#32 = CARTESIAN_POINT ( 'NONE',  ( 0.04499999999999999833, 0.000000000000000000, 5.510910596163089556E-18 ) ) ;
#33 =( CONVERSION_BASED_UNIT ( 'INCH', #116 ) LENGTH_UNIT ( ) NAMED_UNIT ( #182 ) );
#34 =( NAMED_UNIT ( * ) SI_UNIT ( $, .STERADIAN. ) SOLID_ANGLE_UNIT ( ) );
#35 = DIRECTION ( 'NONE',  ( 1.000000000000000000, -1.084095800774008444E-17, 0.000000000000000000 ) ) ;
#36 = AXIS2_PLACEMENT_3D ( 'NONE', #160, #28, #58 ) ;
#37 = FACE_OUTER_BOUND ( 'NONE', #172, .T. ) ;
#38 = AXIS2_PLACEMENT_3D ( 'NONE', #259, #216, #212 ) ;
#39 = EDGE_LOOP ( 'NONE', ( #223, #294, #125, #175 ) ) ;
#40 = ORIENTED_EDGE ( 'NONE', *, *, #272, .F. ) ;
#41 = CLOSED_SHELL ( 'NONE', ( #59, #199, #112, #132 ) ) ;
#42 =( CONVERSION_BASED_UNIT ( 'INCH', #134 ) LENGTH_UNIT ( ) NAMED_UNIT ( #278 ) );
#43 = SURFACE_STYLE_FILL_AREA ( #279 ) ;
#44 = ADVANCED_FACE ( 'NONE', ( #219 ), #274, .T. ) ;
#45 = CARTESIAN_POINT ( 'NONE',  ( 2.644343336825637435E-36, 2.439215551741518923E-19, 0.000000000000000000 ) ) ;
#46 = SURFACE_SIDE_STYLE ('',( #124 ) ) ;
#47 = CARTESIAN_POINT ( 'NONE',  ( -0.04499999999999999833, 9.756862206966075691E-19, 0.000000000000000000 ) ) ;
#48 = UNCERTAINTY_MEASURE_WITH_UNIT (LENGTH_MEASURE( 1.000000000000000082E-05 ), #185, 'distance_accuracy_value', 'NONE');
#49 =( LENGTH_UNIT ( ) NAMED_UNIT ( * ) SI_UNIT ( $, .METRE. ) );
#50 = CIRCLE ( 'NONE', #243, 0.3125000000000000555 ) ;
#51 = DIRECTION ( 'NONE',  ( -1.442548267832386599E-16, 1.000000000000000000, -0.000000000000000000 ) ) ;
#52 = FACE_OUTER_BOUND ( 'NONE', #65, .T. ) ;
#53 = DIMENSIONAL_EXPONENTS ( 1.000000000000000000, 0.000000000000000000, 0.000000000000000000, 0.000000000000000000, 0.000000000000000000, 0.000000000000000000, 0.000000000000000000 ) ;
#54 = EDGE_CURVE ( 'NONE', #174, #220, #88, .T. ) ;
#55 = FILL_AREA_STYLE_COLOUR ( '', #296 ) ;
#56 =( NAMED_UNIT ( * ) SI_UNIT ( $, .STERADIAN. ) SOLID_ANGLE_UNIT ( ) );
#57 = DIRECTION ( 'NONE',  ( -1.000000000000000000, 1.084095800774008444E-17, 0.000000000000000000 ) ) ;
#58 = DIRECTION ( 'NONE',  ( 1.000000000000000000, 0.000000000000000000, 0.000000000000000000 ) ) ;
#59 = ADVANCED_FACE ( 'NONE', ( #1 ), #119, .T. ) ;
#60 =( NAMED_UNIT ( * ) PLANE_ANGLE_UNIT ( ) SI_UNIT ( $, .RADIAN. ) );
#61 = DIRECTION ( 'NONE',  ( -1.442548267832386599E-16, 1.000000000000000000, -0.000000000000000000 ) ) ;
#62 = EDGE_LOOP ( 'NONE', ( #128, #106, #67, #40 ) ) ;
#63 = PRESENTATION_LAYER_ASSIGNMENT (  '', '', ( #232 ) ) ;
#64 = MECHANICAL_DESIGN_GEOMETRIC_PRESENTATION_REPRESENTATION (  '', ( #121 ), #206 ) ;
#65 = EDGE_LOOP ( 'NONE', ( #149, #198 ) ) ;
#66 = ORIENTED_EDGE ( 'NONE', *, *, #86, .T. ) ;
#67 = ORIENTED_EDGE ( 'NONE', *, *, #300, .T. ) ;
#68 = COLOUR_RGB ( '',0.7921568627450980005, 0.8196078431372548767, 0.9333333333333333481 ) ;
#69 = ORIENTED_EDGE ( 'NONE', *, *, #86, .F. ) ;
#70 = PRODUCT_RELATED_PRODUCT_CATEGORY ( 'part', '', ( #19 ) ) ;
#71 = PRESENTATION_STYLE_ASSIGNMENT (( #269 ) ) ;
#72 = CARTESIAN_POINT ( 'NONE',  ( 5.288686673651274870E-36, 4.878431103483037846E-19, 0.000000000000000000 ) ) ;
#73 = AXIS2_PLACEMENT_3D ( 'NONE', #193, #113, #145 ) ;
#74 = AXIS2_PLACEMENT_3D ( 'NONE', #253, #184, #277 ) ;
#75 =( NAMED_UNIT ( * ) PLANE_ANGLE_UNIT ( ) SI_UNIT ( $, .RADIAN. ) );
#76 = CARTESIAN_POINT ( 'NONE',  ( -0.3124999999999993339, 0.2674999999999992384, 0.000000000000000000 ) ) ;
#77 = CARTESIAN_POINT ( 'NONE',  ( 0.3124999999999998335, 3.000000000000000444, 3.827021247335477078E-17 ) ) ;
#78 = MECHANICAL_DESIGN_GEOMETRIC_PRESENTATION_REPRESENTATION (  '', ( #79 ), #290 ) ;
#79 = STYLED_ITEM ( 'NONE', ( #71 ), #211 ) ;
#80 = DIRECTION ( 'NONE',  ( 0.7071067811865486830, 0.7071067811865462405, 8.659560562354947649E-17 ) ) ;
#81 = PLANE ( 'NONE',  #127 ) ;
#82 = EDGE_CURVE ( 'NONE', #293, #105, #245, .T. ) ;
#83 = DIRECTION ( 'NONE',  ( -1.084095800774008598E-17, -1.000000000000000000, -0.000000000000000000 ) ) ;
#84 = CARTESIAN_POINT ( 'NONE',  ( 3.329439742278320982E-16, 0.2674999999999990163, 0.000000000000000000 ) ) ;
#85 = ORIENTED_EDGE ( 'NONE', *, *, #54, .T. ) ;
#86 = EDGE_CURVE ( 'NONE', #220, #174, #110, .T. ) ;
#87 = CONICAL_SURFACE ( 'NONE', #161, 0.04499999999999999833, 0.7853981633974500554 ) ;
#88 = CIRCLE ( 'NONE', #120, 0.04499999999999999833 ) ;
#89 = AXIS2_PLACEMENT_3D ( 'NONE', #241, #61, #291 ) ;
#90 = LENGTH_MEASURE_WITH_UNIT ( LENGTH_MEASURE( 0.02539999999999999897 ), #308 );
#91 =( CONVERSION_BASED_UNIT ( 'INCH', #138 ) LENGTH_UNIT ( ) NAMED_UNIT ( #208 ) );
#92 = CARTESIAN_POINT ( 'NONE',  ( 0.3125000000000000000, 0.2674999999999992939, 3.827021247335478926E-17 ) ) ;
#93 =( NAMED_UNIT ( * ) PLANE_ANGLE_UNIT ( ) SI_UNIT ( $, .RADIAN. ) );
#94 = PRESENTATION_STYLE_ASSIGNMENT (( #153 ) ) ;
#95 = UNCERTAINTY_MEASURE_WITH_UNIT (LENGTH_MEASURE( 1.000000000000000082E-05 ), #42, 'distance_accuracy_value', 'NONE');
#96 =( CONVERSION_BASED_UNIT ( 'INCH', #276 ) LENGTH_UNIT ( ) NAMED_UNIT ( #165 ) );
#97 = LINE ( 'NONE', #270, #283 ) ;
#98 = DIRECTION ( 'NONE',  ( -1.442548267832386599E-16, 1.000000000000000000, -0.000000000000000000 ) ) ;
#99 = DIRECTION ( 'NONE',  ( -1.442548267832386599E-16, 1.000000000000000000, -0.000000000000000000 ) ) ;
#100 = EDGE_CURVE ( 'NONE', #105, #293, #3, .T. ) ;
#101 = SURFACE_SIDE_STYLE ('',( #289 ) ) ;
#102 = DIRECTION ( 'NONE',  ( -1.000000000000000000, 0.000000000000000000, 0.000000000000000000 ) ) ;
#103 = APPLICATION_PROTOCOL_DEFINITION ( 'draft international standard', 'automotive_design', 1998, #168 ) ;
#104 = MECHANICAL_DESIGN_GEOMETRIC_PRESENTATION_REPRESENTATION (  '', ( #213 ), #218 ) ;
#105 = VERTEX_POINT ( 'NONE', #240 ) ;
#106 = ORIENTED_EDGE ( 'NONE', *, *, #246, .T. ) ;
#107 = ORIENTED_EDGE ( 'NONE', *, *, #170, .T. ) ;
#108 = COLOUR_RGB ( '',0.7921568627450980005, 0.8196078431372548767, 0.9333333333333333481 ) ;
#109 = CARTESIAN_POINT ( 'NONE',  ( -0.04499999999999999833, 9.756862206966075691E-19, 0.000000000000000000 ) ) ;
#110 = CIRCLE ( 'NONE', #73, 0.04499999999999999833 ) ;
#111 = SURFACE_STYLE_FILL_AREA ( #27 ) ;
#112 = ADVANCED_FACE ( 'NONE', ( #4 ), #260, .T. ) ;
#113 = DIRECTION ( 'NONE',  ( -1.084095800774008598E-17, -1.000000000000000000, -0.000000000000000000 ) ) ;
#114 =( LENGTH_UNIT ( ) NAMED_UNIT ( * ) SI_UNIT ( $, .METRE. ) );
#115 = PRESENTATION_LAYER_ASSIGNMENT (  '', '', ( #282 ) ) ;
#116 = LENGTH_MEASURE_WITH_UNIT ( LENGTH_MEASURE( 0.02539999999999999897 ), #114 );
#117 = DIRECTION ( 'NONE',  ( -1.084095800774008598E-17, -1.000000000000000000, -0.000000000000000000 ) ) ;
#118 = LENGTH_MEASURE_WITH_UNIT ( LENGTH_MEASURE( 0.02539999999999999897 ), #209 );
#119 = CYLINDRICAL_SURFACE ( 'NONE', #31, 0.3124999999999998890 ) ;
#120 = AXIS2_PLACEMENT_3D ( 'NONE', #215, #117, #35 ) ;
#121 = STYLED_ITEM ( 'NONE', ( #207 ), #306 ) ;
#122 = EDGE_CURVE ( 'NONE', #174, #293, #189, .T. ) ;
#123 = ORIENTED_EDGE ( 'NONE', *, *, #126, .F. ) ;
#124 = SURFACE_STYLE_FILL_AREA ( #264 ) ;
#125 = ORIENTED_EDGE ( 'NONE', *, *, #82, .T. ) ;
#126 = EDGE_CURVE ( 'NONE', #247, #295, #265, .T. ) ;
#127 = AXIS2_PLACEMENT_3D ( 'NONE', #195, #8, #148 ) ;
#128 = ORIENTED_EDGE ( 'NONE', *, *, #147, .F. ) ;
#129 = SURFACE_SIDE_STYLE ('',( #252 ) ) ;
#130 = UNCERTAINTY_MEASURE_WITH_UNIT (LENGTH_MEASURE( 1.000000000000000082E-05 ), #91, 'distance_accuracy_value', 'NONE');
#131 =( GEOMETRIC_REPRESENTATION_CONTEXT ( 3 ) GLOBAL_UNCERTAINTY_ASSIGNED_CONTEXT ( ( #48 ) ) GLOBAL_UNIT_ASSIGNED_CONTEXT ( ( #185, #203, #20 ) ) REPRESENTATION_CONTEXT ( 'NONE', 'WORKASPACE' ) );
#132 = ADVANCED_FACE ( 'NONE', ( #286 ), #146, .F. ) ;
#133 = FACE_OUTER_BOUND ( 'NONE', #152, .T. ) ;
#134 = LENGTH_MEASURE_WITH_UNIT ( LENGTH_MEASURE( 0.02539999999999999897 ), #251 );
#135 = SURFACE_STYLE_USAGE ( .BOTH. , #181 ) ;
#136 = DIRECTION ( 'NONE',  ( -1.442548267832386599E-16, 1.000000000000000000, -0.000000000000000000 ) ) ;
#137 = AXIS2_PLACEMENT_3D ( 'NONE', #163, #187, #214 ) ;
#138 = LENGTH_MEASURE_WITH_UNIT ( LENGTH_MEASURE( 0.02539999999999999897 ), #49 );
#139 = PRODUCT_DEFINITION_FORMATION_WITH_SPECIFIED_SOURCE ( 'ANY', '', #19, .NOT_KNOWN. ) ;
#140 = DIRECTION ( 'NONE',  ( -1.000000000000000000, 1.084095800774008444E-17, 0.000000000000000000 ) ) ;
#141 = PRODUCT_CONTEXT ( 'NONE', #168, 'mechanical' ) ;
#142 = SURFACE_STYLE_USAGE ( .BOTH. , #101 ) ;
#143 = CARTESIAN_POINT ( 'NONE',  ( 2.899956267070462878E-18, 0.2674999999999990719, 0.000000000000000000 ) ) ;
#144 = COLOUR_RGB ( '',1.000000000000000000, 0.000000000000000000, 0.000000000000000000 ) ;
#145 = DIRECTION ( 'NONE',  ( 1.000000000000000000, -1.084095800774008444E-17, 0.000000000000000000 ) ) ;
#146 = PLANE ( 'NONE',  #137 ) ;
#147 = EDGE_CURVE ( 'NONE', #295, #200, #257, .T. ) ;
#148 = DIRECTION ( 'NONE',  ( -1.000000000000000000, 1.084095800774008598E-17, 0.000000000000000000 ) ) ;
#149 = ORIENTED_EDGE ( 'NONE', *, *, #100, .F. ) ;
#150 = AXIS2_PLACEMENT_3D ( 'NONE', #255, #238, #285 ) ;
#151 = ORIENTED_EDGE ( 'NONE', *, *, #246, .F. ) ;
#152 = EDGE_LOOP ( 'NONE', ( #66, #85 ) ) ;
#153 = SURFACE_STYLE_USAGE ( .BOTH. , #129 ) ;
#154 = ADVANCED_FACE ( 'NONE', ( #52 ), #81, .T. ) ;
#155 = SURFACE_STYLE_USAGE ( .BOTH. , #298 ) ;
#156 = SURFACE_STYLE_USAGE ( .BOTH. , #46 ) ;
#157 = UNCERTAINTY_MEASURE_WITH_UNIT (LENGTH_MEASURE( 1.000000000000000082E-05 ), #183, 'distance_accuracy_value', 'NONE');
#158 = DIRECTION ( 'NONE',  ( -1.000000000000000000, -1.442548267832386599E-16, 0.000000000000000000 ) ) ;
#159 = STYLED_ITEM ( 'NONE', ( #237 ), #154 ) ;
#160 = CARTESIAN_POINT ( 'NONE',  ( 2.899956267070462878E-18, 0.2674999999999990719, 0.000000000000000000 ) ) ;
#161 = AXIS2_PLACEMENT_3D ( 'NONE', #72, #256, #57 ) ;
#162 = DIMENSIONAL_EXPONENTS ( 1.000000000000000000, 0.000000000000000000, 0.000000000000000000, 0.000000000000000000, 0.000000000000000000, 0.000000000000000000, 0.000000000000000000 ) ;
#163 = CARTESIAN_POINT ( 'NONE',  ( 0.3125000000000000000, 3.000000000000000444, 0.000000000000000000 ) ) ;
#164 =( CONVERSION_BASED_UNIT ( 'INCH', #118 ) LENGTH_UNIT ( ) NAMED_UNIT ( #162 ) );
#165 = DIMENSIONAL_EXPONENTS ( 1.000000000000000000, 0.000000000000000000, 0.000000000000000000, 0.000000000000000000, 0.000000000000000000, 0.000000000000000000, 0.000000000000000000 ) ;
#166 = DIRECTION ( 'NONE',  ( -1.442548267832386599E-16, 1.000000000000000000, -0.000000000000000000 ) ) ;
#167 = VECTOR ( 'NONE', #280, 39.37007874015748854 ) ;
#168 = APPLICATION_CONTEXT ( 'automotive_design' ) ;
#169 = UNCERTAINTY_MEASURE_WITH_UNIT (LENGTH_MEASURE( 1.000000000000000082E-05 ), #96, 'distance_accuracy_value', 'NONE');
#170 = EDGE_CURVE ( 'NONE', #10, #200, #178, .T. ) ;
#171 = DIRECTION ( 'NONE',  ( -1.442548267832386599E-16, 1.000000000000000000, 0.000000000000000000 ) ) ;
#172 = EDGE_LOOP ( 'NONE', ( #123, #151 ) ) ;
#173 = ORIENTED_EDGE ( 'NONE', *, *, #292, .T. ) ;
#174 = VERTEX_POINT ( 'NONE', #261 ) ;
#175 = ORIENTED_EDGE ( 'NONE', *, *, #292, .F. ) ;
#176 = ORIENTED_EDGE ( 'NONE', *, *, #272, .T. ) ;
#177 = PRESENTATION_LAYER_ASSIGNMENT (  '', '', ( #121 ) ) ;
#178 = CIRCLE ( 'NONE', #89, 0.3125000000000000555 ) ;
#179 =( NAMED_UNIT ( * ) SI_UNIT ( $, .STERADIAN. ) SOLID_ANGLE_UNIT ( ) );
#180 = CARTESIAN_POINT ( 'NONE',  ( -0.3125000000000001665, 3.000000000000000444, 0.000000000000000000 ) ) ;
#181 = SURFACE_SIDE_STYLE ('',( #43 ) ) ;
#182 = DIMENSIONAL_EXPONENTS ( 1.000000000000000000, 0.000000000000000000, 0.000000000000000000, 0.000000000000000000, 0.000000000000000000, 0.000000000000000000, 0.000000000000000000 ) ;
#183 =( CONVERSION_BASED_UNIT ( 'INCH', #90 ) LENGTH_UNIT ( ) NAMED_UNIT ( #53 ) );
#184 = DIRECTION ( 'NONE',  ( -1.442548267832386599E-16, 1.000000000000000000, -0.000000000000000000 ) ) ;
#185 =( CONVERSION_BASED_UNIT ( 'INCH', #234 ) LENGTH_UNIT ( ) NAMED_UNIT ( #30 ) );
#186 = CARTESIAN_POINT ( 'NONE',  ( 0.3125000000000000000, 3.000000000000000444, 3.827021247335478926E-17 ) ) ;
#187 = DIRECTION ( 'NONE',  ( 1.442548267832386599E-16, -1.000000000000000000, 0.000000000000000000 ) ) ;
#188 = CLOSED_SHELL ( 'NONE', ( #44, #154, #306, #211 ) ) ;
#189 = LINE ( 'NONE', #32, #254 ) ;
#190 = CIRCLE ( 'NONE', #74, 0.3124999999999996669 ) ;
#191 = UNCERTAINTY_MEASURE_WITH_UNIT (LENGTH_MEASURE( 1.000000000000000082E-05 ), #33, 'distance_accuracy_value', 'NONE');
#192 = FILL_AREA_STYLE ('',( #55 ) ) ;
#193 = CARTESIAN_POINT ( 'NONE',  ( 5.288686673651274870E-36, 4.878431103483037846E-19, 0.000000000000000000 ) ) ;
#194 = COLOUR_RGB ( '',1.000000000000000000, 0.000000000000000000, 0.000000000000000000 ) ;
#195 = CARTESIAN_POINT ( 'NONE',  ( 2.899956267070462108E-18, 0.2674999999999990719, 0.000000000000000000 ) ) ;
#196 = AXIS2_PLACEMENT_3D ( 'NONE', #45, #248, #303 ) ;
#197 = ORIENTED_EDGE ( 'NONE', *, *, #300, .F. ) ;
#198 = ORIENTED_EDGE ( 'NONE', *, *, #82, .F. ) ;
#199 = ADVANCED_FACE ( 'NONE', ( #37 ), #217, .F. ) ;
#200 = VERTEX_POINT ( 'NONE', #186 ) ;
#201 = CARTESIAN_POINT ( 'NONE',  ( -6.123233995736770966E-17, 3.000000000000000444, 0.000000000000000000 ) ) ;
#202 = PRESENTATION_LAYER_ASSIGNMENT (  '', '', ( #79 ) ) ;
#203 =( NAMED_UNIT ( * ) PLANE_ANGLE_UNIT ( ) SI_UNIT ( $, .RADIAN. ) );
#204 = DIRECTION ( 'NONE',  ( -1.000000000000000000, 0.000000000000000000, 0.000000000000000000 ) ) ;
#205 =( GEOMETRIC_REPRESENTATION_CONTEXT ( 3 ) GLOBAL_UNCERTAINTY_ASSIGNED_CONTEXT ( ( #169 ) ) GLOBAL_UNIT_ASSIGNED_CONTEXT ( ( #96, #93, #15 ) ) REPRESENTATION_CONTEXT ( 'NONE', 'WORKASPACE' ) );
#206 =( GEOMETRIC_REPRESENTATION_CONTEXT ( 3 ) GLOBAL_UNCERTAINTY_ASSIGNED_CONTEXT ( ( #157 ) ) GLOBAL_UNIT_ASSIGNED_CONTEXT ( ( #183, #75, #287 ) ) REPRESENTATION_CONTEXT ( 'NONE', 'WORKASPACE' ) );
#207 = PRESENTATION_STYLE_ASSIGNMENT (( #155 ) ) ;
#208 = DIMENSIONAL_EXPONENTS ( 1.000000000000000000, 0.000000000000000000, 0.000000000000000000, 0.000000000000000000, 0.000000000000000000, 0.000000000000000000, 0.000000000000000000 ) ;
#209 =( LENGTH_UNIT ( ) NAMED_UNIT ( * ) SI_UNIT ( $, .METRE. ) );
#210 = DIRECTION ( 'NONE',  ( 1.000000000000000000, 0.000000000000000000, 0.000000000000000000 ) ) ;
#211 = ADVANCED_FACE ( 'NONE', ( #133 ), #16, .T. ) ;
#212 = DIRECTION ( 'NONE',  ( 1.000000000000000000, 0.000000000000000000, 0.000000000000000000 ) ) ;
#213 = STYLED_ITEM ( 'NONE', ( #94 ), #44 ) ;
#214 = DIRECTION ( 'NONE',  ( 1.000000000000000000, 1.442548267832386599E-16, 0.000000000000000000 ) ) ;
#215 = CARTESIAN_POINT ( 'NONE',  ( 5.288686673651274870E-36, 4.878431103483037846E-19, 0.000000000000000000 ) ) ;
#216 = DIRECTION ( 'NONE',  ( 0.000000000000000000, 0.000000000000000000, 1.000000000000000000 ) ) ;
#217 = PLANE ( 'NONE',  #268 ) ;
#218 =( GEOMETRIC_REPRESENTATION_CONTEXT ( 3 ) GLOBAL_UNCERTAINTY_ASSIGNED_CONTEXT ( ( #130 ) ) GLOBAL_UNIT_ASSIGNED_CONTEXT ( ( #91, #26, #179 ) ) REPRESENTATION_CONTEXT ( 'NONE', 'WORKASPACE' ) );
#219 = FACE_OUTER_BOUND ( 'NONE', #39, .T. ) ;
#220 = VERTEX_POINT ( 'NONE', #109 ) ;
#221 = PRODUCT_DEFINITION ( 'UNKNOWN', '', #139, #271 ) ;
#222 = ORIENTED_EDGE ( 'NONE', *, *, #100, .T. ) ;
#223 = ORIENTED_EDGE ( 'NONE', *, *, #54, .F. ) ;
#224 = FILL_AREA_STYLE ('',( #229 ) ) ;
#225 = FILL_AREA_STYLE_COLOUR ( '', #144 ) ;
#226 = MECHANICAL_DESIGN_GEOMETRIC_PRESENTATION_REPRESENTATION (  '', ( #282 ), #131 ) ;
#227 = PRODUCT_DEFINITION_SHAPE ( 'NONE', 'NONE',  #221 ) ;
#228 =( NAMED_UNIT ( * ) PLANE_ANGLE_UNIT ( ) SI_UNIT ( $, .RADIAN. ) );
#229 = FILL_AREA_STYLE_COLOUR ( '', #12 ) ;
#230 = PRESENTATION_STYLE_ASSIGNMENT (( #156 ) ) ;
#231 = FACE_OUTER_BOUND ( 'NONE', #14, .T. ) ;
#232 = STYLED_ITEM ( 'NONE', ( #230 ), #7 ) ;
#233 = VECTOR ( 'NONE', #166, 39.37007874015748143 ) ;
#234 = LENGTH_MEASURE_WITH_UNIT ( LENGTH_MEASURE( 0.02539999999999999897 ), #249 );
#235 = FILL_AREA_STYLE ('',( #225 ) ) ;
#236 = APPLICATION_PROTOCOL_DEFINITION ( 'draft international standard', 'automotive_design', 1998, #9 ) ;
#237 = PRESENTATION_STYLE_ASSIGNMENT (( #142 ) ) ;
#238 = DIRECTION ( 'NONE',  ( -1.442548267832386599E-16, 1.000000000000000000, -0.000000000000000000 ) ) ;
#239 = MECHANICAL_DESIGN_GEOMETRIC_PRESENTATION_REPRESENTATION (  '', ( #159 ), #305 ) ;
#240 = CARTESIAN_POINT ( 'NONE',  ( -0.3125000000000000000, 0.2674999999999990719, 0.000000000000000000 ) ) ;
#241 = CARTESIAN_POINT ( 'NONE',  ( -6.123233995736770966E-17, 3.000000000000000444, 0.000000000000000000 ) ) ;
#242 = EDGE_LOOP ( 'NONE', ( #107, #176 ) ) ;
#243 = AXIS2_PLACEMENT_3D ( 'NONE', #201, #51, #204 ) ;
#244 = FILL_AREA_STYLE_COLOUR ( '', #68 ) ;
#245 = CIRCLE ( 'NONE', #36, 0.3125000000000000000 ) ;
#246 = EDGE_CURVE ( 'NONE', #295, #247, #190, .T. ) ;
#247 = VERTEX_POINT ( 'NONE', #76 ) ;
#248 = DIRECTION ( 'NONE',  ( -1.084095800774008598E-17, -1.000000000000000000, 0.000000000000000000 ) ) ;
#249 =( LENGTH_UNIT ( ) NAMED_UNIT ( * ) SI_UNIT ( $, .METRE. ) );
#250 = SURFACE_STYLE_FILL_AREA ( #235 ) ;
#251 =( LENGTH_UNIT ( ) NAMED_UNIT ( * ) SI_UNIT ( $, .METRE. ) );
#252 = SURFACE_STYLE_FILL_AREA ( #224 ) ;
#253 = CARTESIAN_POINT ( 'NONE',  ( 3.329439742278320982E-16, 0.2674999999999992384, 0.000000000000000000 ) ) ;
#254 = VECTOR ( 'NONE', #80, 39.37007874015748854 ) ;
#255 = CARTESIAN_POINT ( 'NONE',  ( -6.123233995736772199E-17, 3.000000000000000444, 0.000000000000000000 ) ) ;
#256 = DIRECTION ( 'NONE',  ( 1.084095800774008598E-17, 1.000000000000000000, 0.000000000000000000 ) ) ;
#257 = LINE ( 'NONE', #77, #233 ) ;
#258 = PRESENTATION_LAYER_ASSIGNMENT (  '', '', ( #213 ) ) ;
#259 = CARTESIAN_POINT ( 'NONE',  ( 0.000000000000000000, 0.000000000000000000, 0.000000000000000000 ) ) ;
#260 = CYLINDRICAL_SURFACE ( 'NONE', #150, 0.3124999999999998890 ) ;
#261 = CARTESIAN_POINT ( 'NONE',  ( 0.04499999999999999833, 0.000000000000000000, 2.189056153475893941E-17 ) ) ;
#262 = ORIENTED_EDGE ( 'NONE', *, *, #126, .T. ) ;
#263 = EDGE_LOOP ( 'NONE', ( #262, #297, #266, #197 ) ) ;
#264 = FILL_AREA_STYLE ('',( #244 ) ) ;
#265 = CIRCLE ( 'NONE', #18, 0.3124999999999996669 ) ;
#266 = ORIENTED_EDGE ( 'NONE', *, *, #170, .F. ) ;
#267 = MECHANICAL_DESIGN_GEOMETRIC_PRESENTATION_REPRESENTATION (  '', ( #232 ), #205 ) ;
#268 = AXIS2_PLACEMENT_3D ( 'NONE', #84, #171, #158 ) ;
#269 = SURFACE_STYLE_USAGE ( .BOTH. , #301 ) ;
#270 = CARTESIAN_POINT ( 'NONE',  ( -0.3124999999999999445, 3.000000000000000444, 0.000000000000000000 ) ) ;
#271 = PRODUCT_DEFINITION_CONTEXT ( 'detailed design', #9, 'design' ) ;
#272 = EDGE_CURVE ( 'NONE', #200, #10, #50, .T. ) ;
#273 = PRESENTATION_STYLE_ASSIGNMENT (( #135 ) ) ;
#274 = CONICAL_SURFACE ( 'NONE', #304, 0.04499999999999999833, 0.7853981633974500554 ) ;
#275 =( GEOMETRIC_REPRESENTATION_CONTEXT ( 3 ) GLOBAL_UNCERTAINTY_ASSIGNED_CONTEXT ( ( #17 ) ) GLOBAL_UNIT_ASSIGNED_CONTEXT ( ( #164, #5, #34 ) ) REPRESENTATION_CONTEXT ( 'NONE', 'WORKASPACE' ) );
#276 = LENGTH_MEASURE_WITH_UNIT ( LENGTH_MEASURE( 0.02539999999999999897 ), #307 );
#277 = DIRECTION ( 'NONE',  ( -1.000000000000000000, -1.092739197465706397E-16, 0.000000000000000000 ) ) ;
#278 = DIMENSIONAL_EXPONENTS ( 1.000000000000000000, 0.000000000000000000, 0.000000000000000000, 0.000000000000000000, 0.000000000000000000, 0.000000000000000000, 0.000000000000000000 ) ;
#279 = FILL_AREA_STYLE ('',( #302 ) ) ;
#280 = DIRECTION ( 'NONE',  ( -0.7071067811865486830, 0.7071067811865462405, 0.000000000000000000 ) ) ;
#281 = DIRECTION ( 'NONE',  ( -1.000000000000000000, -1.092739197465706397E-16, 0.000000000000000000 ) ) ;
#282 = STYLED_ITEM ( 'NONE', ( #273 ), #11 ) ;
#283 = VECTOR ( 'NONE', #136, 39.37007874015748143 ) ;
#284 = DIRECTION ( 'NONE',  ( 1.084095800774008598E-17, 1.000000000000000000, 0.000000000000000000 ) ) ;
#285 = DIRECTION ( 'NONE',  ( -1.000000000000000000, 0.000000000000000000, 0.000000000000000000 ) ) ;
#286 = FACE_OUTER_BOUND ( 'NONE', #242, .T. ) ;
#287 =( NAMED_UNIT ( * ) SI_UNIT ( $, .STERADIAN. ) SOLID_ANGLE_UNIT ( ) );
#288 = AXIS2_PLACEMENT_3D ( 'NONE', #143, #83, #210 ) ;
#289 = SURFACE_STYLE_FILL_AREA ( #192 ) ;
#290 =( GEOMETRIC_REPRESENTATION_CONTEXT ( 3 ) GLOBAL_UNCERTAINTY_ASSIGNED_CONTEXT ( ( #95 ) ) GLOBAL_UNIT_ASSIGNED_CONTEXT ( ( #42, #228, #22 ) ) REPRESENTATION_CONTEXT ( 'NONE', 'WORKASPACE' ) );
#291 = DIRECTION ( 'NONE',  ( -1.000000000000000000, 0.000000000000000000, 0.000000000000000000 ) ) ;
#292 = EDGE_CURVE ( 'NONE', #220, #105, #21, .T. ) ;
#293 = VERTEX_POINT ( 'NONE', #299 ) ;
#294 = ORIENTED_EDGE ( 'NONE', *, *, #122, .T. ) ;
#295 = VERTEX_POINT ( 'NONE', #92 ) ;
#296 = COLOUR_RGB ( '',1.000000000000000000, 0.000000000000000000, 0.000000000000000000 ) ;
#297 = ORIENTED_EDGE ( 'NONE', *, *, #147, .T. ) ;
#298 = SURFACE_SIDE_STYLE ('',( #111 ) ) ;
#299 = CARTESIAN_POINT ( 'NONE',  ( 0.3125000000000000000, 0.2674999999999990719, 3.827021247335478926E-17 ) ) ;
#300 = EDGE_CURVE ( 'NONE', #247, #10, #97, .T. ) ;
#301 = SURFACE_SIDE_STYLE ('',( #250 ) ) ;
#302 = FILL_AREA_STYLE_COLOUR ( '', #108 ) ;
#303 = DIRECTION ( 'NONE',  ( 1.000000000000000000, -1.084095800774008598E-17, 0.000000000000000000 ) ) ;
#304 = AXIS2_PLACEMENT_3D ( 'NONE', #23, #284, #140 ) ;
#305 =( GEOMETRIC_REPRESENTATION_CONTEXT ( 3 ) GLOBAL_UNCERTAINTY_ASSIGNED_CONTEXT ( ( #191 ) ) GLOBAL_UNIT_ASSIGNED_CONTEXT ( ( #33, #60, #56 ) ) REPRESENTATION_CONTEXT ( 'NONE', 'WORKASPACE' ) );
#306 = ADVANCED_FACE ( 'NONE', ( #231 ), #87, .T. ) ;
#307 =( LENGTH_UNIT ( ) NAMED_UNIT ( * ) SI_UNIT ( $, .METRE. ) );
#308 =( LENGTH_UNIT ( ) NAMED_UNIT ( * ) SI_UNIT ( $, .METRE. ) );
#309 = CARTESIAN_POINT ( 'NONE',  ( 3.329439742278320982E-16, 0.2674999999999992384, 0.000000000000000000 ) ) ;
ENDSEC;
END-ISO-10303-21;
