ISO-10303-21;
HEADER;
FILE_DESCRIPTION (( 'STEP AP214' ),
    '1' );
FILE_NAME ('03155.STEP',
    '2023-06-22T14:58:51',
    ( '' ),
    ( '' ),
    'SwSTEP 2.0',
    'SolidWorks 2023',
    '' );
FILE_SCHEMA (( 'AUTOMOTIVE_DESIGN' ));
ENDSEC;

DATA;
#1 = ADVANCED_FACE ( 'NONE', ( #43 ), #8, .T. ) ;
#2 = VERTEX_POINT ( 'NONE', #270 ) ;
#3 = ORIENTED_EDGE ( 'NONE', *, *, #304, .F. ) ;
#4 = DIRECTION ( 'NONE',  ( -0.000000000000000000, -1.000000000000000000, -0.000000000000000000 ) ) ;
#5 = MECHANICAL_DESIGN_GEOMETRIC_PRESENTATION_REPRESENTATION (  '', ( #208 ), #124 ) ;
#6 =( GEOMETRIC_REPRESENTATION_CONTEXT ( 3 ) GLOBAL_UNCERTAINTY_ASSIGNED_CONTEXT ( ( #177 ) ) GLOBAL_UNIT_ASSIGNED_CONTEXT ( ( #14, #83, #280 ) ) REPRESENTATION_CONTEXT ( 'NONE', 'WORKASPACE' ) );
#7 = DIRECTION ( 'NONE',  ( -0.000000000000000000, -1.000000000000000000, -0.000000000000000000 ) ) ;
#8 = CYLINDRICAL_SURFACE ( 'NONE', #110, 0.1250000000000000000 ) ;
#9 = EDGE_CURVE ( 'NONE', #247, #242, #66, .T. ) ;
#10 = LENGTH_MEASURE_WITH_UNIT ( LENGTH_MEASURE( 0.02539999999999999897 ), #77 );
#11 = CARTESIAN_POINT ( 'NONE',  ( -6.123233995736766036E-17, 2.500000000000000000, 0.000000000000000000 ) ) ;
#12 =( LENGTH_UNIT ( ) NAMED_UNIT ( * ) SI_UNIT ( $, .METRE. ) );
#13 = FACE_OUTER_BOUND ( 'NONE', #178, .T. ) ;
#14 =( CONVERSION_BASED_UNIT ( 'INCH', #76 ) LENGTH_UNIT ( ) NAMED_UNIT ( #87 ) );
#15 = MECHANICAL_DESIGN_GEOMETRIC_PRESENTATION_REPRESENTATION (  '', ( #213 ), #194 ) ;
#16 = CARTESIAN_POINT ( 'NONE',  ( 1.530808498934191201E-17, 0.5000000000000000000, 0.1249999999999999861 ) ) ;
#17 = DIRECTION ( 'NONE',  ( 0.000000000000000000, -0.000000000000000000, 1.000000000000000000 ) ) ;
#18 = PRESENTATION_STYLE_ASSIGNMENT (( #139 ) ) ;
#19 = SHAPE_DEFINITION_REPRESENTATION ( #184, #196 ) ;
#20 = AXIS2_PLACEMENT_3D ( 'NONE', #295, #278, #155 ) ;
#21 = CIRCLE ( 'NONE', #97, 0.1250000000000000555 ) ;
#22 = VECTOR ( 'NONE', #192, 39.37007874015748143 ) ;
#23 = EDGE_LOOP ( 'NONE', ( #238, #117, #67, #171 ) ) ;
#24 = CLOSED_SHELL ( 'NONE', ( #1, #80, #265, #148 ) ) ;
#25 = AXIS2_PLACEMENT_3D ( 'NONE', #271, #4, #302 ) ;
#26 = VERTEX_POINT ( 'NONE', #290 ) ;
#27 = CARTESIAN_POINT ( 'NONE',  ( 0.000000000000000000, 0.5000000000000001110, 0.000000000000000000 ) ) ;
#28 = DIRECTION ( 'NONE',  ( -0.000000000000000000, -1.000000000000000000, -0.000000000000000000 ) ) ;
#29 = ORIENTED_EDGE ( 'NONE', *, *, #221, .F. ) ;
#30 = LINE ( 'NONE', #163, #154 ) ;
#31 = FACE_OUTER_BOUND ( 'NONE', #197, .T. ) ;
#32 = DIRECTION ( 'NONE',  ( -1.000000000000000000, 0.000000000000000000, 0.000000000000000000 ) ) ;
#33 = PRODUCT_RELATED_PRODUCT_CATEGORY ( 'part', '', ( #190 ) ) ;
#34 = FILL_AREA_STYLE ('',( #79 ) ) ;
#35 = PRESENTATION_LAYER_ASSIGNMENT (  '', '', ( #140 ) ) ;
#36 =( NAMED_UNIT ( * ) SI_UNIT ( $, .STERADIAN. ) SOLID_ANGLE_UNIT ( ) );
#37 = DIRECTION ( 'NONE',  ( -3.061616997868383018E-17, 1.000000000000000000, 0.000000000000000000 ) ) ;
#38 = PLANE ( 'NONE',  #248 ) ;
#39 = AXIS2_PLACEMENT_3D ( 'NONE', #130, #229, #303 ) ;
#40 = MECHANICAL_DESIGN_GEOMETRIC_PRESENTATION_REPRESENTATION (  '', ( #78 ), #72 ) ;
#41 = CIRCLE ( 'NONE', #169, 0.1250000000000000000 ) ;
#42 = VERTEX_POINT ( 'NONE', #308 ) ;
#43 = FACE_OUTER_BOUND ( 'NONE', #128, .T. ) ;
#44 = ORIENTED_EDGE ( 'NONE', *, *, #251, .T. ) ;
#45 = UNCERTAINTY_MEASURE_WITH_UNIT (LENGTH_MEASURE( 1.000000000000000082E-05 ), #165, 'distance_accuracy_value', 'NONE');
#46 = DIRECTION ( 'NONE',  ( -1.000000000000000000, 0.000000000000000000, 0.000000000000000000 ) ) ;
#47 = VERTEX_POINT ( 'NONE', #92 ) ;
#48 = PRESENTATION_STYLE_ASSIGNMENT (( #103 ) ) ;
#49 = AXIS2_PLACEMENT_3D ( 'NONE', #52, #253, #32 ) ;
#50 = DIRECTION ( 'NONE',  ( -3.061616997868383018E-17, 1.000000000000000000, -0.000000000000000000 ) ) ;
#51 = DIRECTION ( 'NONE',  ( -3.061616997868383018E-17, 1.000000000000000000, -0.000000000000000000 ) ) ;
#52 = CARTESIAN_POINT ( 'NONE',  ( -6.123233995736766036E-17, 2.500000000000000000, 0.000000000000000000 ) ) ;
#53 = EDGE_CURVE ( 'NONE', #242, #247, #64, .T. ) ;
#54 = PLANE ( 'NONE',  #56 ) ;
#55 = CARTESIAN_POINT ( 'NONE',  ( -0.1250000000000001110, 2.500000000000000000, 0.000000000000000000 ) ) ;
#56 = AXIS2_PLACEMENT_3D ( 'NONE', #160, #255, #17 ) ;
#57 = LENGTH_MEASURE_WITH_UNIT ( LENGTH_MEASURE( 0.02539999999999999897 ), #61 );
#58 = FILL_AREA_STYLE_COLOUR ( '', #222 ) ;
#59 = EDGE_CURVE ( 'NONE', #309, #47, #297, .T. ) ;
#60 = DIRECTION ( 'NONE',  ( 0.000000000000000000, 0.000000000000000000, 1.000000000000000000 ) ) ;
#61 =( LENGTH_UNIT ( ) NAMED_UNIT ( * ) SI_UNIT ( $, .METRE. ) );
#62 = FILL_AREA_STYLE_COLOUR ( '', #256 ) ;
#63 = CLOSED_SHELL ( 'NONE', ( #118, #234, #262, #259 ) ) ;
#64 = CIRCLE ( 'NONE', #104, 0.1249999999999999861 ) ;
#65 = ORIENTED_EDGE ( 'NONE', *, *, #304, .T. ) ;
#66 = CIRCLE ( 'NONE', #286, 0.1249999999999999861 ) ;
#67 = ORIENTED_EDGE ( 'NONE', *, *, #115, .T. ) ;
#68 = ORIENTED_EDGE ( 'NONE', *, *, #138, .T. ) ;
#69 = DIMENSIONAL_EXPONENTS ( 1.000000000000000000, 0.000000000000000000, 0.000000000000000000, 0.000000000000000000, 0.000000000000000000, 0.000000000000000000, 0.000000000000000000 ) ;
#70 = VERTEX_POINT ( 'NONE', #55 ) ;
#71 = VECTOR ( 'NONE', #50, 39.37007874015748143 ) ;
#72 =( GEOMETRIC_REPRESENTATION_CONTEXT ( 3 ) GLOBAL_UNCERTAINTY_ASSIGNED_CONTEXT ( ( #200 ) ) GLOBAL_UNIT_ASSIGNED_CONTEXT ( ( #100, #74, #150 ) ) REPRESENTATION_CONTEXT ( 'NONE', 'WORKASPACE' ) );
#73 = ORIENTED_EDGE ( 'NONE', *, *, #285, .T. ) ;
#74 =( NAMED_UNIT ( * ) PLANE_ANGLE_UNIT ( ) SI_UNIT ( $, .RADIAN. ) );
#75 = CARTESIAN_POINT ( 'NONE',  ( -6.123233995736766036E-17, 2.500000000000000000, 0.000000000000000000 ) ) ;
#76 = LENGTH_MEASURE_WITH_UNIT ( LENGTH_MEASURE( 0.02539999999999999897 ), #207 );
#77 =( LENGTH_UNIT ( ) NAMED_UNIT ( * ) SI_UNIT ( $, .METRE. ) );
#78 = STYLED_ITEM ( 'NONE', ( #226 ), #305 ) ;
#79 = FILL_AREA_STYLE_COLOUR ( '', #240 ) ;
#80 = ADVANCED_FACE ( 'NONE', ( #230 ), #54, .T. ) ;
#81 = UNCERTAINTY_MEASURE_WITH_UNIT (LENGTH_MEASURE( 1.000000000000000082E-05 ), #107, 'distance_accuracy_value', 'NONE');
#82 = LENGTH_MEASURE_WITH_UNIT ( LENGTH_MEASURE( 0.02539999999999999897 ), #185 );
#83 =( NAMED_UNIT ( * ) PLANE_ANGLE_UNIT ( ) SI_UNIT ( $, .RADIAN. ) );
#84 = APPLICATION_PROTOCOL_DEFINITION ( 'draft international standard', 'automotive_design', 1998, #287 ) ;
#85 = STYLED_ITEM ( 'NONE', ( #48 ), #265 ) ;
#86 = PRODUCT_DEFINITION ( 'UNKNOWN', '', #214, #157 ) ;
#87 = DIMENSIONAL_EXPONENTS ( 1.000000000000000000, 0.000000000000000000, 0.000000000000000000, 0.000000000000000000, 0.000000000000000000, 0.000000000000000000, 0.000000000000000000 ) ;
#88 = PRESENTATION_STYLE_ASSIGNMENT (( #195 ) ) ;
#89 = SURFACE_SIDE_STYLE ('',( #219 ) ) ;
#90 = ORIENTED_EDGE ( 'NONE', *, *, #115, .F. ) ;
#91 = AXIS2_PLACEMENT_3D ( 'NONE', #11, #51, #252 ) ;
#92 = CARTESIAN_POINT ( 'NONE',  ( 0.000000000000000000, 0.5000000000000000000, -0.1249999999999999861 ) ) ;
#93 = DIMENSIONAL_EXPONENTS ( 1.000000000000000000, 0.000000000000000000, 0.000000000000000000, 0.000000000000000000, 0.000000000000000000, 0.000000000000000000, 0.000000000000000000 ) ;
#94 = ORIENTED_EDGE ( 'NONE', *, *, #180, .F. ) ;
#95 = MANIFOLD_SOLID_BREP ( 'Revolve - Tool Body (Straight Shanked)', #63 ) ;
#96 = COLOUR_RGB ( '',1.000000000000000000, 0.000000000000000000, 0.000000000000000000 ) ;
#97 = AXIS2_PLACEMENT_3D ( 'NONE', #75, #179, #46 ) ;
#98 = CARTESIAN_POINT ( 'NONE',  ( 0.000000000000000000, 0.000000000000000000, 0.000000000000000000 ) ) ;
#99 = ORIENTED_EDGE ( 'NONE', *, *, #282, .F. ) ;
#100 =( CONVERSION_BASED_UNIT ( 'INCH', #10 ) LENGTH_UNIT ( ) NAMED_UNIT ( #69 ) );
#101 = DIRECTION ( 'NONE',  ( -1.000000000000000000, 0.000000000000000000, 0.000000000000000000 ) ) ;
#102 = DIRECTION ( 'NONE',  ( 0.000000000000000000, 0.000000000000000000, -1.000000000000000000 ) ) ;
#103 = SURFACE_STYLE_USAGE ( .BOTH. , #281 ) ;
#104 = AXIS2_PLACEMENT_3D ( 'NONE', #27, #215, #216 ) ;
#105 = CARTESIAN_POINT ( 'NONE',  ( 0.000000000000000000, 0.5000000000000000000, 0.000000000000000000 ) ) ;
#106 = DIRECTION ( 'NONE',  ( 1.000000000000000000, 0.000000000000000000, 0.000000000000000000 ) ) ;
#107 =( CONVERSION_BASED_UNIT ( 'INCH', #188 ) LENGTH_UNIT ( ) NAMED_UNIT ( #93 ) );
#108 = CYLINDRICAL_SURFACE ( 'NONE', #142, 0.1250000000000000278 ) ;
#109 = CARTESIAN_POINT ( 'NONE',  ( 0.000000000000000000, 0.000000000000000000, 0.000000000000000000 ) ) ;
#110 = AXIS2_PLACEMENT_3D ( 'NONE', #145, #236, #239 ) ;
#111 =( GEOMETRIC_REPRESENTATION_CONTEXT ( 3 ) GLOBAL_UNCERTAINTY_ASSIGNED_CONTEXT ( ( #122 ) ) GLOBAL_UNIT_ASSIGNED_CONTEXT ( ( #186, #126, #249 ) ) REPRESENTATION_CONTEXT ( 'NONE', 'WORKASPACE' ) );
#112 = DIRECTION ( 'NONE',  ( -1.000000000000000000, -3.061616997868383018E-17, 0.000000000000000000 ) ) ;
#113 = EDGE_CURVE ( 'NONE', #47, #2, #181, .T. ) ;
#114 = MECHANICAL_DESIGN_GEOMETRIC_PRESENTATION_REPRESENTATION (  '', ( #164 ), #6 ) ;
#115 = EDGE_CURVE ( 'NONE', #242, #70, #127, .T. ) ;
#116 = COLOUR_RGB ( '',1.000000000000000000, 0.000000000000000000, 0.000000000000000000 ) ;
#117 = ORIENTED_EDGE ( 'NONE', *, *, #9, .T. ) ;
#118 = ADVANCED_FACE ( 'NONE', ( #31 ), #279, .T. ) ;
#119 = EDGE_LOOP ( 'NONE', ( #269, #182 ) ) ;
#120 = DIRECTION ( 'NONE',  ( 0.000000000000000000, -1.000000000000000000, -0.000000000000000000 ) ) ;
#121 =( NAMED_UNIT ( * ) PLANE_ANGLE_UNIT ( ) SI_UNIT ( $, .RADIAN. ) );
#122 = UNCERTAINTY_MEASURE_WITH_UNIT (LENGTH_MEASURE( 1.000000000000000082E-05 ), #186, 'distance_accuracy_value', 'NONE');
#123 = ORIENTED_EDGE ( 'NONE', *, *, #9, .F. ) ;
#124 =( GEOMETRIC_REPRESENTATION_CONTEXT ( 3 ) GLOBAL_UNCERTAINTY_ASSIGNED_CONTEXT ( ( #243 ) ) GLOBAL_UNIT_ASSIGNED_CONTEXT ( ( #266, #237, #199 ) ) REPRESENTATION_CONTEXT ( 'NONE', 'WORKASPACE' ) );
#125 = MECHANICAL_DESIGN_GEOMETRIC_PRESENTATION_REPRESENTATION (  '', ( #85 ), #111 ) ;
#126 =( NAMED_UNIT ( * ) PLANE_ANGLE_UNIT ( ) SI_UNIT ( $, .RADIAN. ) );
#127 = LINE ( 'NONE', #225, #71 ) ;
#128 = EDGE_LOOP ( 'NONE', ( #65, #306, #94, #273 ) ) ;
#129 = DIRECTION ( 'NONE',  ( -0.000000000000000000, -1.000000000000000000, -0.000000000000000000 ) ) ;
#130 = CARTESIAN_POINT ( 'NONE',  ( 0.000000000000000000, 0.5000000000000000000, 0.000000000000000000 ) ) ;
#131 = SURFACE_STYLE_USAGE ( .BOTH. , #250 ) ;
#132 = FACE_OUTER_BOUND ( 'NONE', #23, .T. ) ;
#133 = PRESENTATION_LAYER_ASSIGNMENT (  '', '', ( #208 ) ) ;
#134 = AXIS2_PLACEMENT_3D ( 'NONE', #224, #156, #158 ) ;
#135 = SURFACE_SIDE_STYLE ('',( #228 ) ) ;
#136 = UNCERTAINTY_MEASURE_WITH_UNIT (LENGTH_MEASURE( 1.000000000000000082E-05 ), #301, 'distance_accuracy_value', 'NONE');
#137 = LINE ( 'NONE', #212, #22 ) ;
#138 = EDGE_CURVE ( 'NONE', #247, #42, #137, .T. ) ;
#139 = SURFACE_STYLE_USAGE ( .BOTH. , #288 ) ;
#140 = STYLED_ITEM ( 'NONE', ( #18 ), #148 ) ;
#141 = AXIS2_PLACEMENT_3D ( 'NONE', #161, #60, #106 ) ;
#142 = AXIS2_PLACEMENT_3D ( 'NONE', #300, #227, #101 ) ;
#143 = FILL_AREA_STYLE_COLOUR ( '', #218 ) ;
#144 = ORIENTED_EDGE ( 'NONE', *, *, #59, .T. ) ;
#145 = CARTESIAN_POINT ( 'NONE',  ( 0.000000000000000000, 0.000000000000000000, 0.000000000000000000 ) ) ;
#146 = FILL_AREA_STYLE_COLOUR ( '', #96 ) ;
#147 = PRESENTATION_LAYER_ASSIGNMENT (  '', '', ( #213 ) ) ;
#148 = ADVANCED_FACE ( 'NONE', ( #263 ), #38, .T. ) ;
#149 = ORIENTED_EDGE ( 'NONE', *, *, #113, .T. ) ;
#150 =( NAMED_UNIT ( * ) SI_UNIT ( $, .STERADIAN. ) SOLID_ANGLE_UNIT ( ) );
#151 = FACE_OUTER_BOUND ( 'NONE', #173, .T. ) ;
#152 = ORIENTED_EDGE ( 'NONE', *, *, #59, .F. ) ;
#153 = SURFACE_STYLE_FILL_AREA ( #274 ) ;
#154 = VECTOR ( 'NONE', #129, 39.37007874015748143 ) ;
#155 = DIRECTION ( 'NONE',  ( 0.000000000000000000, 0.000000000000000000, -1.000000000000000000 ) ) ;
#156 = DIRECTION ( 'NONE',  ( 3.061616997868383018E-17, -1.000000000000000000, 0.000000000000000000 ) ) ;
#157 = PRODUCT_DEFINITION_CONTEXT ( 'detailed design', #204, 'design' ) ;
#158 = DIRECTION ( 'NONE',  ( 1.000000000000000000, 3.061616997868383018E-17, 0.000000000000000000 ) ) ;
#159 = DIMENSIONAL_EXPONENTS ( 1.000000000000000000, 0.000000000000000000, 0.000000000000000000, 0.000000000000000000, 0.000000000000000000, 0.000000000000000000, 0.000000000000000000 ) ;
#160 = CARTESIAN_POINT ( 'NONE',  ( 0.000000000000000000, 0.5000000000000000000, 0.000000000000000000 ) ) ;
#161 = CARTESIAN_POINT ( 'NONE',  ( 0.000000000000000000, 0.000000000000000000, 0.000000000000000000 ) ) ;
#162 = DIMENSIONAL_EXPONENTS ( 1.000000000000000000, 0.000000000000000000, 0.000000000000000000, 0.000000000000000000, 0.000000000000000000, 0.000000000000000000, 0.000000000000000000 ) ;
#163 = CARTESIAN_POINT ( 'NONE',  ( 1.530808498934191509E-17, 0.000000000000000000, 0.1250000000000000000 ) ) ;
#164 = STYLED_ITEM ( 'NONE', ( #298 ), #80 ) ;
#165 =( CONVERSION_BASED_UNIT ( 'INCH', #57 ) LENGTH_UNIT ( ) NAMED_UNIT ( #275 ) );
#166 = FACE_OUTER_BOUND ( 'NONE', #244, .T. ) ;
#167 = SURFACE_STYLE_FILL_AREA ( #193 ) ;
#168 =( NAMED_UNIT ( * ) PLANE_ANGLE_UNIT ( ) SI_UNIT ( $, .RADIAN. ) );
#169 = AXIS2_PLACEMENT_3D ( 'NONE', #98, #191, #284 ) ;
#170 = MECHANICAL_DESIGN_GEOMETRIC_PRESENTATION_REPRESENTATION (  '', ( #140 ), #175 ) ;
#171 = ORIENTED_EDGE ( 'NONE', *, *, #285, .F. ) ;
#172 = ORIENTED_EDGE ( 'NONE', *, *, #53, .F. ) ;
#173 = EDGE_LOOP ( 'NONE', ( #44, #73 ) ) ;
#174 = DIRECTION ( 'NONE',  ( -3.061616997868383018E-17, 1.000000000000000000, -0.000000000000000000 ) ) ;
#175 =( GEOMETRIC_REPRESENTATION_CONTEXT ( 3 ) GLOBAL_UNCERTAINTY_ASSIGNED_CONTEXT ( ( #45 ) ) GLOBAL_UNIT_ASSIGNED_CONTEXT ( ( #165, #203, #36 ) ) REPRESENTATION_CONTEXT ( 'NONE', 'WORKASPACE' ) );
#176 =( LENGTH_UNIT ( ) NAMED_UNIT ( * ) SI_UNIT ( $, .METRE. ) );
#177 = UNCERTAINTY_MEASURE_WITH_UNIT (LENGTH_MEASURE( 1.000000000000000082E-05 ), #14, 'distance_accuracy_value', 'NONE');
#178 = EDGE_LOOP ( 'NONE', ( #99, #144, #149, #29 ) ) ;
#179 = DIRECTION ( 'NONE',  ( -3.061616997868383018E-17, 1.000000000000000000, -0.000000000000000000 ) ) ;
#180 = EDGE_CURVE ( 'NONE', #2, #26, #291, .T. ) ;
#181 = LINE ( 'NONE', #246, #202 ) ;
#182 = ORIENTED_EDGE ( 'NONE', *, *, #221, .T. ) ;
#183 = SURFACE_SIDE_STYLE ('',( #153 ) ) ;
#184 = PRODUCT_DEFINITION_SHAPE ( 'NONE', 'NONE',  #86 ) ;
#185 =( LENGTH_UNIT ( ) NAMED_UNIT ( * ) SI_UNIT ( $, .METRE. ) );
#186 =( CONVERSION_BASED_UNIT ( 'INCH', #82 ) LENGTH_UNIT ( ) NAMED_UNIT ( #231 ) );
#187 = FILL_AREA_STYLE_COLOUR ( '', #116 ) ;
#188 = LENGTH_MEASURE_WITH_UNIT ( LENGTH_MEASURE( 0.02539999999999999897 ), #299 );
#189 =( NAMED_UNIT ( * ) SI_UNIT ( $, .STERADIAN. ) SOLID_ANGLE_UNIT ( ) );
#190 = PRODUCT ( '03155', '03155', '', ( #283 ) ) ;
#191 = DIRECTION ( 'NONE',  ( -0.000000000000000000, -1.000000000000000000, -0.000000000000000000 ) ) ;
#192 = DIRECTION ( 'NONE',  ( -3.061616997868383018E-17, 1.000000000000000000, -0.000000000000000000 ) ) ;
#193 = FILL_AREA_STYLE ('',( #62 ) ) ;
#194 =( GEOMETRIC_REPRESENTATION_CONTEXT ( 3 ) GLOBAL_UNCERTAINTY_ASSIGNED_CONTEXT ( ( #136 ) ) GLOBAL_UNIT_ASSIGNED_CONTEXT ( ( #301, #121, #257 ) ) REPRESENTATION_CONTEXT ( 'NONE', 'WORKASPACE' ) );
#195 = SURFACE_STYLE_USAGE ( .BOTH. , #89 ) ;
#196 = ADVANCED_BREP_SHAPE_REPRESENTATION ( '03155', ( #305, #95, #141 ), #223 ) ;
#197 = EDGE_LOOP ( 'NONE', ( #289, #68, #267, #90 ) ) ;
#198 = CARTESIAN_POINT ( 'NONE',  ( 0.000000000000000000, 0.5000000000000001110, 0.000000000000000000 ) ) ;
#199 =( NAMED_UNIT ( * ) SI_UNIT ( $, .STERADIAN. ) SOLID_ANGLE_UNIT ( ) );
#200 = UNCERTAINTY_MEASURE_WITH_UNIT (LENGTH_MEASURE( 1.000000000000000082E-05 ), #100, 'distance_accuracy_value', 'NONE');
#201 = DIRECTION ( 'NONE',  ( -1.000000000000000000, 0.000000000000000000, 0.000000000000000000 ) ) ;
#202 = VECTOR ( 'NONE', #28, 39.37007874015748143 ) ;
#203 =( NAMED_UNIT ( * ) PLANE_ANGLE_UNIT ( ) SI_UNIT ( $, .RADIAN. ) );
#204 = APPLICATION_CONTEXT ( 'automotive_design' ) ;
#205 = FILL_AREA_STYLE ('',( #187 ) ) ;
#206 = FILL_AREA_STYLE ('',( #58 ) ) ;
#207 =( LENGTH_UNIT ( ) NAMED_UNIT ( * ) SI_UNIT ( $, .METRE. ) );
#208 = STYLED_ITEM ( 'NONE', ( #88 ), #1 ) ;
#209 = LENGTH_MEASURE_WITH_UNIT ( LENGTH_MEASURE( 0.02539999999999999897 ), #12 );
#210 = SURFACE_STYLE_FILL_AREA ( #206 ) ;
#211 = CARTESIAN_POINT ( 'NONE',  ( 0.1250000000000000000, 0.5000000000000001110, 1.530808498934192125E-17 ) ) ;
#212 = CARTESIAN_POINT ( 'NONE',  ( 0.1249999999999999445, 2.500000000000000000, 1.530808498934191817E-17 ) ) ;
#213 = STYLED_ITEM ( 'NONE', ( #276 ), #95 ) ;
#214 = PRODUCT_DEFINITION_FORMATION_WITH_SPECIFIED_SOURCE ( 'ANY', '', #190, .NOT_KNOWN. ) ;
#215 = DIRECTION ( 'NONE',  ( -3.061616997868383018E-17, 1.000000000000000000, -0.000000000000000000 ) ) ;
#216 = DIRECTION ( 'NONE',  ( -1.000000000000000000, 0.000000000000000000, 0.000000000000000000 ) ) ;
#217 = LENGTH_MEASURE_WITH_UNIT ( LENGTH_MEASURE( 0.02539999999999999897 ), #176 );
#218 = COLOUR_RGB ( '',0.7921568627450980005, 0.8196078431372548767, 0.9333333333333333481 ) ;
#219 = SURFACE_STYLE_FILL_AREA ( #241 ) ;
#220 = DIRECTION ( 'NONE',  ( 0.000000000000000000, 0.000000000000000000, -1.000000000000000000 ) ) ;
#221 = EDGE_CURVE ( 'NONE', #26, #2, #41, .T. ) ;
#222 = COLOUR_RGB ( '',1.000000000000000000, 0.000000000000000000, 0.000000000000000000 ) ;
#223 =( GEOMETRIC_REPRESENTATION_CONTEXT ( 3 ) GLOBAL_UNCERTAINTY_ASSIGNED_CONTEXT ( ( #81 ) ) GLOBAL_UNIT_ASSIGNED_CONTEXT ( ( #107, #168, #189 ) ) REPRESENTATION_CONTEXT ( 'NONE', 'WORKASPACE' ) );
#224 = CARTESIAN_POINT ( 'NONE',  ( 0.1249999999999999861, 2.500000000000000000, 0.000000000000000000 ) ) ;
#225 = CARTESIAN_POINT ( 'NONE',  ( -0.1250000000000000833, 2.500000000000000000, 0.000000000000000000 ) ) ;
#226 = PRESENTATION_STYLE_ASSIGNMENT (( #294 ) ) ;
#227 = DIRECTION ( 'NONE',  ( -3.061616997868383018E-17, 1.000000000000000000, -0.000000000000000000 ) ) ;
#228 = SURFACE_STYLE_FILL_AREA ( #34 ) ;
#229 = DIRECTION ( 'NONE',  ( -0.000000000000000000, -1.000000000000000000, -0.000000000000000000 ) ) ;
#230 = FACE_OUTER_BOUND ( 'NONE', #292, .T. ) ;
#231 = DIMENSIONAL_EXPONENTS ( 1.000000000000000000, 0.000000000000000000, 0.000000000000000000, 0.000000000000000000, 0.000000000000000000, 0.000000000000000000, 0.000000000000000000 ) ;
#232 = PLANE ( 'NONE',  #277 ) ;
#233 = CIRCLE ( 'NONE', #91, 0.1250000000000000555 ) ;
#234 = ADVANCED_FACE ( 'NONE', ( #166 ), #232, .F. ) ;
#235 = AXIS2_PLACEMENT_3D ( 'NONE', #105, #7, #102 ) ;
#236 = DIRECTION ( 'NONE',  ( -0.000000000000000000, -1.000000000000000000, -0.000000000000000000 ) ) ;
#237 =( NAMED_UNIT ( * ) PLANE_ANGLE_UNIT ( ) SI_UNIT ( $, .RADIAN. ) );
#238 = ORIENTED_EDGE ( 'NONE', *, *, #138, .F. ) ;
#239 = DIRECTION ( 'NONE',  ( 0.000000000000000000, 0.000000000000000000, -1.000000000000000000 ) ) ;
#240 = COLOUR_RGB ( '',0.7921568627450980005, 0.8196078431372548767, 0.9333333333333333481 ) ;
#241 = FILL_AREA_STYLE ('',( #146 ) ) ;
#242 = VERTEX_POINT ( 'NONE', #293 ) ;
#243 = UNCERTAINTY_MEASURE_WITH_UNIT (LENGTH_MEASURE( 1.000000000000000082E-05 ), #266, 'distance_accuracy_value', 'NONE');
#244 = EDGE_LOOP ( 'NONE', ( #172, #123 ) ) ;
#245 = PLANE ( 'NONE',  #134 ) ;
#246 = CARTESIAN_POINT ( 'NONE',  ( 0.000000000000000000, 0.000000000000000000, -0.1250000000000000000 ) ) ;
#247 = VERTEX_POINT ( 'NONE', #211 ) ;
#248 = AXIS2_PLACEMENT_3D ( 'NONE', #109, #120, #220 ) ;
#249 =( NAMED_UNIT ( * ) SI_UNIT ( $, .STERADIAN. ) SOLID_ANGLE_UNIT ( ) );
#250 = SURFACE_SIDE_STYLE ('',( #296 ) ) ;
#251 = EDGE_CURVE ( 'NONE', #70, #42, #21, .T. ) ;
#252 = DIRECTION ( 'NONE',  ( -1.000000000000000000, 0.000000000000000000, 0.000000000000000000 ) ) ;
#253 = DIRECTION ( 'NONE',  ( -3.061616997868383018E-17, 1.000000000000000000, -0.000000000000000000 ) ) ;
#254 = CYLINDRICAL_SURFACE ( 'NONE', #20, 0.1250000000000000000 ) ;
#255 = DIRECTION ( 'NONE',  ( 0.000000000000000000, 1.000000000000000000, 0.000000000000000000 ) ) ;
#256 = COLOUR_RGB ( '',1.000000000000000000, 0.000000000000000000, 0.000000000000000000 ) ;
#257 =( NAMED_UNIT ( * ) SI_UNIT ( $, .STERADIAN. ) SOLID_ANGLE_UNIT ( ) );
#258 = APPLICATION_PROTOCOL_DEFINITION ( 'draft international standard', 'automotive_design', 1998, #204 ) ;
#259 = ADVANCED_FACE ( 'NONE', ( #151 ), #245, .F. ) ;
#260 = CARTESIAN_POINT ( 'NONE',  ( 5.858436651022881281E-35, 0.5000000000000000000, 0.000000000000000000 ) ) ;
#261 = PRESENTATION_LAYER_ASSIGNMENT (  '', '', ( #78 ) ) ;
#262 = ADVANCED_FACE ( 'NONE', ( #132 ), #108, .T. ) ;
#263 = FACE_OUTER_BOUND ( 'NONE', #119, .T. ) ;
#264 = PRESENTATION_LAYER_ASSIGNMENT (  '', '', ( #85 ) ) ;
#265 = ADVANCED_FACE ( 'NONE', ( #13 ), #254, .T. ) ;
#266 =( CONVERSION_BASED_UNIT ( 'INCH', #217 ) LENGTH_UNIT ( ) NAMED_UNIT ( #162 ) );
#267 = ORIENTED_EDGE ( 'NONE', *, *, #251, .F. ) ;
#268 = PRESENTATION_LAYER_ASSIGNMENT (  '', '', ( #164 ) ) ;
#269 = ORIENTED_EDGE ( 'NONE', *, *, #180, .T. ) ;
#270 = CARTESIAN_POINT ( 'NONE',  ( 0.000000000000000000, 0.000000000000000000, -0.1250000000000000000 ) ) ;
#271 = CARTESIAN_POINT ( 'NONE',  ( 0.000000000000000000, 0.000000000000000000, 0.000000000000000000 ) ) ;
#272 = SURFACE_STYLE_USAGE ( .BOTH. , #135 ) ;
#273 = ORIENTED_EDGE ( 'NONE', *, *, #113, .F. ) ;
#274 = FILL_AREA_STYLE ('',( #143 ) ) ;
#275 = DIMENSIONAL_EXPONENTS ( 1.000000000000000000, 0.000000000000000000, 0.000000000000000000, 0.000000000000000000, 0.000000000000000000, 0.000000000000000000, 0.000000000000000000 ) ;
#276 = PRESENTATION_STYLE_ASSIGNMENT (( #272 ) ) ;
#277 = AXIS2_PLACEMENT_3D ( 'NONE', #260, #37, #112 ) ;
#278 = DIRECTION ( 'NONE',  ( -0.000000000000000000, -1.000000000000000000, -0.000000000000000000 ) ) ;
#279 = CYLINDRICAL_SURFACE ( 'NONE', #49, 0.1250000000000000278 ) ;
#280 =( NAMED_UNIT ( * ) SI_UNIT ( $, .STERADIAN. ) SOLID_ANGLE_UNIT ( ) );
#281 = SURFACE_SIDE_STYLE ('',( #210 ) ) ;
#282 = EDGE_CURVE ( 'NONE', #309, #26, #30, .T. ) ;
#283 = PRODUCT_CONTEXT ( 'NONE', #287, 'mechanical' ) ;
#284 = DIRECTION ( 'NONE',  ( 0.000000000000000000, 0.000000000000000000, -1.000000000000000000 ) ) ;
#285 = EDGE_CURVE ( 'NONE', #42, #70, #233, .T. ) ;
#286 = AXIS2_PLACEMENT_3D ( 'NONE', #198, #174, #201 ) ;
#287 = APPLICATION_CONTEXT ( 'automotive_design' ) ;
#288 = SURFACE_SIDE_STYLE ('',( #167 ) ) ;
#289 = ORIENTED_EDGE ( 'NONE', *, *, #53, .T. ) ;
#290 = CARTESIAN_POINT ( 'NONE',  ( 1.530808498934191509E-17, 0.000000000000000000, 0.1250000000000000000 ) ) ;
#291 = CIRCLE ( 'NONE', #25, 0.1250000000000000000 ) ;
#292 = EDGE_LOOP ( 'NONE', ( #3, #152 ) ) ;
#293 = CARTESIAN_POINT ( 'NONE',  ( -0.1249999999999999861, 0.5000000000000001110, 0.000000000000000000 ) ) ;
#294 = SURFACE_STYLE_USAGE ( .BOTH. , #183 ) ;
#295 = CARTESIAN_POINT ( 'NONE',  ( 0.000000000000000000, 0.000000000000000000, 0.000000000000000000 ) ) ;
#296 = SURFACE_STYLE_FILL_AREA ( #205 ) ;
#297 = CIRCLE ( 'NONE', #235, 0.1249999999999999861 ) ;
#298 = PRESENTATION_STYLE_ASSIGNMENT (( #131 ) ) ;
#299 =( LENGTH_UNIT ( ) NAMED_UNIT ( * ) SI_UNIT ( $, .METRE. ) );
#300 = CARTESIAN_POINT ( 'NONE',  ( -6.123233995736766036E-17, 2.500000000000000000, 0.000000000000000000 ) ) ;
#301 =( CONVERSION_BASED_UNIT ( 'INCH', #209 ) LENGTH_UNIT ( ) NAMED_UNIT ( #159 ) );
#302 = DIRECTION ( 'NONE',  ( 0.000000000000000000, 0.000000000000000000, -1.000000000000000000 ) ) ;
#303 = DIRECTION ( 'NONE',  ( 0.000000000000000000, 0.000000000000000000, -1.000000000000000000 ) ) ;
#304 = EDGE_CURVE ( 'NONE', #47, #309, #307, .T. ) ;
#305 = MANIFOLD_SOLID_BREP ( 'Revolve - Cutting Edge', #24 ) ;
#306 = ORIENTED_EDGE ( 'NONE', *, *, #282, .T. ) ;
#307 = CIRCLE ( 'NONE', #39, 0.1249999999999999861 ) ;
#308 = CARTESIAN_POINT ( 'NONE',  ( 0.1250000000000000000, 2.500000000000000000, 1.530808498934192125E-17 ) ) ;
#309 = VERTEX_POINT ( 'NONE', #16 ) ;
ENDSEC;
END-ISO-10303-21;
