ISO-10303-21;
HEADER;
FILE_DESCRIPTION (( 'STEP AP214' ),
    '1' );
FILE_NAME ('Micro_BMR-050-2.STEP',
    '2021-09-03T14:12:44',
    ( '' ),
    ( '' ),
    'SwSTEP 2.0',
    'SolidWorks 2020',
    '' );
FILE_SCHEMA (( 'AUTOMOTIVE_DESIGN' ));
ENDSEC;

DATA;
#1 =( LENGTH_UNIT ( ) NAMED_UNIT ( * ) SI_UNIT ( $, .METRE. ) );
#2 = CARTESIAN_POINT ( 'NONE',  ( 0.02497500000000000067, 3.058555380870514950E-18, -3.058555380870515335E-18 ) ) ;
#3 = FACE_OUTER_BOUND ( 'NONE', #95, .T. ) ;
#4 = STYLED_ITEM ( 'NONE', ( #148 ), #59 ) ;
#5 = DIRECTION ( 'NONE',  ( 1.000000000000000000, 0.0000000000000000000, 0.0000000000000000000 ) ) ;
#6 = DIRECTION ( 'NONE',  ( 0.0000000000000000000, 0.0000000000000000000, -1.000000000000000000 ) ) ;
#7 = PRESENTATION_LAYER_ASSIGNMENT (  '', '', ( #4 ) ) ;
#8 = APPLICATION_PROTOCOL_DEFINITION ( 'draft international standard', 'automotive_design', 1998, #108 ) ;
#9 = AXIS2_PLACEMENT_3D ( 'NONE', #230, #107, #249 ) ;
#10 = EDGE_CURVE ( 'NONE', #269, #219, #285, .T. ) ;
#11 = ORIENTED_EDGE ( 'NONE', *, *, #187, .F. ) ;
#12 = DIRECTION ( 'NONE',  ( -1.224646799147353454E-16, -0.0000000000000000000, -1.000000000000000000 ) ) ;
#13 = ORIENTED_EDGE ( 'NONE', *, *, #256, .T. ) ;
#14 = DIRECTION ( 'NONE',  ( 1.000000000000000000, 0.0000000000000000000, -0.0000000000000000000 ) ) ;
#15 = ORIENTED_EDGE ( 'NONE', *, *, #325, .T. ) ;
#16 = FACE_OUTER_BOUND ( 'NONE', #316, .T. ) ;
#17 = ORIENTED_EDGE ( 'NONE', *, *, #106, .T. ) ;
#18 = DIRECTION ( 'NONE',  ( 1.224646799147353454E-16, 0.0000000000000000000, 1.000000000000000000 ) ) ;
#19 = CARTESIAN_POINT ( 'NONE',  ( 0.0000000000000000000, 0.0000000000000000000, 1.485000000000000764 ) ) ;
#20 = AXIS2_PLACEMENT_3D ( 'NONE', #243, #18, #220 ) ;
#21 = CARTESIAN_POINT ( 'NONE',  ( 1.836970198721029749E-17, 0.0000000000000000000, 0.1499999999999999944 ) ) ;
#22 = CYLINDRICAL_SURFACE ( 'NONE', #38, 0.02497500000000000067 ) ;
#23 = DIMENSIONAL_EXPONENTS ( 1.000000000000000000, 0.0000000000000000000, 0.0000000000000000000, 0.0000000000000000000, 0.0000000000000000000, 0.0000000000000000000, 0.0000000000000000000 ) ;
#24 = CARTESIAN_POINT ( 'NONE',  ( 0.06250000000000002776, 7.654042494670959086E-18, 1.485000000000000764 ) ) ;
#25 = UNCERTAINTY_MEASURE_WITH_UNIT (LENGTH_MEASURE( 1.000000000000000082E-05 ), #26, 'distance_accuracy_value', 'NONE');
#26 =( CONVERSION_BASED_UNIT ( 'INCH', #82 ) LENGTH_UNIT ( ) NAMED_UNIT ( #102 ) );
#27 = FACE_OUTER_BOUND ( 'NONE', #321, .T. ) ;
#28 = FILL_AREA_STYLE_COLOUR ( '', #246 ) ;
#29 = ADVANCED_FACE ( 'NONE', ( #203 ), #22, .T. ) ;
#30 = FACE_OUTER_BOUND ( 'NONE', #162, .T. ) ;
#31 = AXIS2_PLACEMENT_3D ( 'NONE', #153, #62, #34 ) ;
#32 = FILL_AREA_STYLE_COLOUR ( '', #198 ) ;
#33 = EDGE_CURVE ( 'NONE', #309, #190, #127, .T. ) ;
#34 = DIRECTION ( 'NONE',  ( -1.000000000000000000, 0.0000000000000000000, 1.709114110150314860E-16 ) ) ;
#35 = AXIS2_PLACEMENT_3D ( 'NONE', #43, #89, #322 ) ;
#36 =( GEOMETRIC_REPRESENTATION_CONTEXT ( 3 ) GLOBAL_UNCERTAINTY_ASSIGNED_CONTEXT ( ( #252 ) ) GLOBAL_UNIT_ASSIGNED_CONTEXT ( ( #66, #64, #63 ) ) REPRESENTATION_CONTEXT ( 'NONE', 'WORKASPACE' ) );
#37 = APPLICATION_CONTEXT ( 'automotive_design' ) ;
#38 = AXIS2_PLACEMENT_3D ( 'NONE', #56, #152, #178 ) ;
#39 = CONICAL_SURFACE ( 'NONE', #9, 0.02497500000000000067, 0.1745329251994338360 ) ;
#40 = EDGE_CURVE ( 'NONE', #309, #237, #301, .T. ) ;
#41 = EDGE_LOOP ( 'NONE', ( #291, #197, #123, #15 ) ) ;
#42 = ORIENTED_EDGE ( 'NONE', *, *, #325, .F. ) ;
#43 = CARTESIAN_POINT ( 'NONE',  ( 4.443200450799409520E-17, 0.0000000000000000000, 0.3628148502811535114 ) ) ;
#44 = DIRECTION ( 'NONE',  ( 0.0000000000000000000, 1.000000000000000000, 0.0000000000000000000 ) ) ;
#45 = PRODUCT_RELATED_PRODUCT_CATEGORY ( 'part', '', ( #164 ) ) ;
#46 = ORIENTED_EDGE ( 'NONE', *, *, #320, .F. ) ;
#47 = AXIS2_PLACEMENT_3D ( 'NONE', #71, #166, #14 ) ;
#48 = CARTESIAN_POINT ( 'NONE',  ( 0.0000000000000000000, 0.0000000000000000000, 1.500000000000000222 ) ) ;
#49 = ORIENTED_EDGE ( 'NONE', *, *, #121, .F. ) ;
#50 = DIRECTION ( 'NONE',  ( -1.000000000000000000, 0.0000000000000000000, 0.0000000000000000000 ) ) ;
#51 = ORIENTED_EDGE ( 'NONE', *, *, #236, .T. ) ;
#52 = DIRECTION ( 'NONE',  ( -1.000000000000000000, 0.0000000000000000000, 1.224646799147353454E-16 ) ) ;
#53 = CARTESIAN_POINT ( 'NONE',  ( 1.836970198721029749E-17, 0.0000000000000000000, 0.1499999999999999944 ) ) ;
#54 = AXIS2_PLACEMENT_3D ( 'NONE', #319, #199, #296 ) ;
#55 = DIRECTION ( 'NONE',  ( -0.0000000000000000000, -0.0000000000000000000, -1.000000000000000000 ) ) ;
#56 = CARTESIAN_POINT ( 'NONE',  ( 0.0000000000000000000, 0.0000000000000000000, 0.0000000000000000000 ) ) ;
#57 = CARTESIAN_POINT ( 'NONE',  ( 0.06250000000000002776, 7.654042494670959086E-18, 1.500000000000000222 ) ) ;
#58 =( NAMED_UNIT ( * ) PLANE_ANGLE_UNIT ( ) SI_UNIT ( $, .RADIAN. ) );
#59 = MANIFOLD_SOLID_BREP ( 'Fillet1', #279 ) ;
#60 = DIRECTION ( 'NONE',  ( 0.0000000000000000000, -1.000000000000000000, 0.0000000000000000000 ) ) ;
#61 = DIRECTION ( 'NONE',  ( -0.0000000000000000000, -0.0000000000000000000, -1.000000000000000000 ) ) ;
#62 = DIRECTION ( 'NONE',  ( 1.224646799147353454E-16, 0.0000000000000000000, 1.000000000000000000 ) ) ;
#63 =( NAMED_UNIT ( * ) SI_UNIT ( $, .STERADIAN. ) SOLID_ANGLE_UNIT ( ) );
#64 =( NAMED_UNIT ( * ) PLANE_ANGLE_UNIT ( ) SI_UNIT ( $, .RADIAN. ) );
#65 = AXIS2_PLACEMENT_3D ( 'NONE', #172, #274, #50 ) ;
#66 =( CONVERSION_BASED_UNIT ( 'INCH', #263 ) LENGTH_UNIT ( ) NAMED_UNIT ( #23 ) );
#67 = EDGE_CURVE ( 'NONE', #309, #118, #134, .T. ) ;
#68 = EDGE_LOOP ( 'NONE', ( #295, #140 ) ) ;
#69 = CIRCLE ( 'NONE', #116, 0.06250000000000002776 ) ;
#70 = ORIENTED_EDGE ( 'NONE', *, *, #305, .T. ) ;
#71 = CARTESIAN_POINT ( 'NONE',  ( 0.0000000000000000000, 0.0000000000000000000, 1.500000000000000222 ) ) ;
#72 = DIRECTION ( 'NONE',  ( 1.000000000000000000, 0.0000000000000000000, 0.0000000000000000000 ) ) ;
#73 = CARTESIAN_POINT ( 'NONE',  ( -0.02497499999999998332, 5.356298937770737018E-18, 0.1499999999999999944 ) ) ;
#74 = ORIENTED_EDGE ( 'NONE', *, *, #156, .F. ) ;
#75 =( GEOMETRIC_REPRESENTATION_CONTEXT ( 3 ) GLOBAL_UNCERTAINTY_ASSIGNED_CONTEXT ( ( #25 ) ) GLOBAL_UNIT_ASSIGNED_CONTEXT ( ( #26, #58, #250 ) ) REPRESENTATION_CONTEXT ( 'NONE', 'WORKASPACE' ) );
#76 = AXIS2_PLACEMENT_3D ( 'NONE', #151, #205, #154 ) ;
#77 = FACE_OUTER_BOUND ( 'NONE', #273, .T. ) ;
#78 = EDGE_LOOP ( 'NONE', ( #184, #267, #42 ) ) ;
#79 = DIRECTION ( 'NONE',  ( -0.7071067811865462405, 0.0000000000000000000, -0.7071067811865486830 ) ) ;
#80 = DIRECTION ( 'NONE',  ( 0.1736481776669313304, 0.0000000000000000000, 0.9848077530122077983 ) ) ;
#81 = DIRECTION ( 'NONE',  ( 1.000000000000000000, 0.0000000000000000000, 0.0000000000000000000 ) ) ;
#82 = LENGTH_MEASURE_WITH_UNIT ( LENGTH_MEASURE( 0.02539999999999999897 ), #324 );
#83 = CARTESIAN_POINT ( 'NONE',  ( 0.0000000000000000000, 0.0000000000000000000, 1.500000000000000222 ) ) ;
#84 = DIRECTION ( 'NONE',  ( 0.0000000000000000000, 0.0000000000000000000, -1.000000000000000000 ) ) ;
#85 = EDGE_CURVE ( 'NONE', #137, #190, #221, .T. ) ;
#86 = SURFACE_STYLE_FILL_AREA ( #280 ) ;
#87 = EDGE_CURVE ( 'NONE', #290, #219, #138, .T. ) ;
#88 = AXIS2_PLACEMENT_3D ( 'NONE', #168, #278, #240 ) ;
#89 = DIRECTION ( 'NONE',  ( -1.224646799147353454E-16, -0.0000000000000000000, -1.000000000000000000 ) ) ;
#90 = PRODUCT_CONTEXT ( 'NONE', #37, 'mechanical' ) ;
#91 = PRESENTATION_STYLE_ASSIGNMENT (( #233 ) ) ;
#92 = ORIENTED_EDGE ( 'NONE', *, *, #229, .F. ) ;
#93 = CIRCLE ( 'NONE', #186, 0.02497500000000000067 ) ;
#94 = CARTESIAN_POINT ( 'NONE',  ( 3.058555380870515335E-18, 0.0000000000000000000, 0.02497500000000000067 ) ) ;
#95 = EDGE_LOOP ( 'NONE', ( #217, #145, #266, #200 ) ) ;
#96 = CARTESIAN_POINT ( 'NONE',  ( 0.0000000000000000000, 0.0000000000000000000, 0.0000000000000000000 ) ) ;
#97 = ORIENTED_EDGE ( 'NONE', *, *, #314, .F. ) ;
#98 = LINE ( 'NONE', #196, #135 ) ;
#99 = ORIENTED_EDGE ( 'NONE', *, *, #256, .F. ) ;
#100 = CARTESIAN_POINT ( 'NONE',  ( -0.02497499999999998332, 3.058555380870514950E-18, 0.1499999999999999944 ) ) ;
#101 = EDGE_CURVE ( 'NONE', #290, #136, #270, .T. ) ;
#102 = DIMENSIONAL_EXPONENTS ( 1.000000000000000000, 0.0000000000000000000, 0.0000000000000000000, 0.0000000000000000000, 0.0000000000000000000, 0.0000000000000000000, 0.0000000000000000000 ) ;
#103 = ORIENTED_EDGE ( 'NONE', *, *, #165, .T. ) ;
#104 = DIRECTION ( 'NONE',  ( 1.000000000000000000, 0.0000000000000000000, 0.0000000000000000000 ) ) ;
#105 = DIRECTION ( 'NONE',  ( 1.224646799147353207E-16, 1.000000000000000000, -0.0000000000000000000 ) ) ;
#106 = EDGE_CURVE ( 'NONE', #237, #287, #161, .T. ) ;
#107 = DIRECTION ( 'NONE',  ( 1.224646799147353454E-16, 0.0000000000000000000, 1.000000000000000000 ) ) ;
#108 = APPLICATION_CONTEXT ( 'automotive_design' ) ;
#109 = CARTESIAN_POINT ( 'NONE',  ( 4.587833071305773195E-18, 0.0000000000000000000, 0.0000000000000000000 ) ) ;
#110 = CARTESIAN_POINT ( 'NONE',  ( 3.058555380870515335E-18, 0.0000000000000000000, 0.02497500000000000067 ) ) ;
#111 = LENGTH_MEASURE_WITH_UNIT ( LENGTH_MEASURE( 0.02539999999999999897 ), #1 );
#112 = DIRECTION ( 'NONE',  ( 1.000000000000000000, 0.0000000000000000000, 0.0000000000000000000 ) ) ;
#113 = AXIS2_PLACEMENT_3D ( 'NONE', #19, #195, #72 ) ;
#114 = ORIENTED_EDGE ( 'NONE', *, *, #307, .T. ) ;
#115 = EDGE_LOOP ( 'NONE', ( #46, #114, #244 ) ) ;
#116 = AXIS2_PLACEMENT_3D ( 'NONE', #183, #281, #5 ) ;
#117 = CARTESIAN_POINT ( 'NONE',  ( 0.0000000000000000000, 0.0000000000000000000, 1.500000000000000222 ) ) ;
#118 = VERTEX_POINT ( 'NONE', #73 ) ;
#119 = DIRECTION ( 'NONE',  ( 1.000000000000000000, 0.0000000000000000000, 0.0000000000000000000 ) ) ;
#120 = ORIENTED_EDGE ( 'NONE', *, *, #314, .T. ) ;
#121 = EDGE_CURVE ( 'NONE', #118, #137, #315, .T. ) ;
#122 = DIRECTION ( 'NONE',  ( -0.1736481776669311639, 2.126576849575782392E-17, 0.9848077530122080203 ) ) ;
#123 = ORIENTED_EDGE ( 'NONE', *, *, #229, .T. ) ;
#124 = DIMENSIONAL_EXPONENTS ( 1.000000000000000000, 0.0000000000000000000, 0.0000000000000000000, 0.0000000000000000000, 0.0000000000000000000, 0.0000000000000000000, 0.0000000000000000000 ) ;
#125 = STYLED_ITEM ( 'NONE', ( #91 ), #157 ) ;
#126 = DIRECTION ( 'NONE',  ( 1.224646799147353454E-16, 0.0000000000000000000, 1.000000000000000000 ) ) ;
#127 = LINE ( 'NONE', #247, #317 ) ;
#128 = CARTESIAN_POINT ( 'NONE',  ( 0.04750000000000064587, 5.817072295950006528E-18, 1.500000000000000222 ) ) ;
#129 = DIRECTION ( 'NONE',  ( -1.000000000000000000, 0.0000000000000000000, 0.0000000000000000000 ) ) ;
#130 = VECTOR ( 'NONE', #253, 39.37007874015748143 ) ;
#131 = CYLINDRICAL_SURFACE ( 'NONE', #76, 0.06250000000000002776 ) ;
#132 = ADVANCED_FACE ( 'NONE', ( #312 ), #188, .T. ) ;
#133 = LINE ( 'NONE', #225, #318 ) ;
#134 = CIRCLE ( 'NONE', #141, 0.02497500000000000067 ) ;
#135 = VECTOR ( 'NONE', #293, 39.37007874015748143 ) ;
#136 = VERTEX_POINT ( 'NONE', #238 ) ;
#137 = VERTEX_POINT ( 'NONE', #147 ) ;
#138 = LINE ( 'NONE', #218, #265 ) ;
#139 = PRODUCT_DEFINITION_CONTEXT ( 'detailed design', #108, 'design' ) ;
#140 = ORIENTED_EDGE ( 'NONE', *, *, #187, .T. ) ;
#141 = AXIS2_PLACEMENT_3D ( 'NONE', #53, #146, #251 ) ;
#142 = CARTESIAN_POINT ( 'NONE',  ( -0.06250000000000002776, 0.0000000000000000000, 1.485000000000000764 ) ) ;
#143 = ORIENTED_EDGE ( 'NONE', *, *, #67, .F. ) ;
#144 = DIRECTION ( 'NONE',  ( -1.000000000000000000, 0.0000000000000000000, 0.0000000000000000000 ) ) ;
#145 = ORIENTED_EDGE ( 'NONE', *, *, #121, .T. ) ;
#146 = DIRECTION ( 'NONE',  ( -1.224646799147353454E-16, -0.0000000000000000000, -1.000000000000000000 ) ) ;
#147 = CARTESIAN_POINT ( 'NONE',  ( -0.06249999999999997918, 0.0000000000000000000, 0.3628148502811535114 ) ) ;
#148 = PRESENTATION_STYLE_ASSIGNMENT (( #298 ) ) ;
#149 = LINE ( 'NONE', #57, #260 ) ;
#150 = SURFACE_STYLE_FILL_AREA ( #176 ) ;
#151 = CARTESIAN_POINT ( 'NONE',  ( 0.0000000000000000000, 0.0000000000000000000, 1.500000000000000222 ) ) ;
#152 = DIRECTION ( 'NONE',  ( -1.224646799147353454E-16, -0.0000000000000000000, -1.000000000000000000 ) ) ;
#153 = CARTESIAN_POINT ( 'NONE',  ( 3.058555380870515335E-18, 0.0000000000000000000, 0.02497500000000000067 ) ) ;
#154 = DIRECTION ( 'NONE',  ( -1.000000000000000000, 0.0000000000000000000, 0.0000000000000000000 ) ) ;
#155 = CIRCLE ( 'NONE', #179, 0.02497500000000000067 ) ;
#156 = EDGE_CURVE ( 'NONE', #219, #269, #208, .T. ) ;
#157 = ADVANCED_BREP_SHAPE_REPRESENTATION ( 'Micro_BMR-050-2', ( #59, #248 ), #292 ) ;
#158 = SURFACE_SIDE_STYLE ('',( #86 ) ) ;
#159 = CARTESIAN_POINT ( 'NONE',  ( 0.0000000000000000000, 0.0000000000000000000, 0.0000000000000000000 ) ) ;
#160 = PRODUCT_DEFINITION ( 'UNKNOWN', '', #223, #139 ) ;
#161 = CIRCLE ( 'NONE', #20, 0.02497500000000000067 ) ;
#162 = EDGE_LOOP ( 'NONE', ( #99, #167, #51, #97 ) ) ;
#163 = ORIENTED_EDGE ( 'NONE', *, *, #85, .F. ) ;
#164 = PRODUCT ( 'Micro_BMR-050-2', 'Micro_BMR-050-2', '', ( #90 ) ) ;
#165 = EDGE_CURVE ( 'NONE', #118, #309, #155, .T. ) ;
#166 = DIRECTION ( 'NONE',  ( 0.0000000000000000000, 0.0000000000000000000, 1.000000000000000000 ) ) ;
#167 = ORIENTED_EDGE ( 'NONE', *, *, #10, .T. ) ;
#168 = CARTESIAN_POINT ( 'NONE',  ( 3.058555380870515335E-18, 0.0000000000000000000, 0.02497500000000000067 ) ) ;
#169 = ORIENTED_EDGE ( 'NONE', *, *, #156, .T. ) ;
#170 = AXIS2_PLACEMENT_3D ( 'NONE', #94, #44, #119 ) ;
#171 = CIRCLE ( 'NONE', #31, 0.02497500000000000067 ) ;
#172 = CARTESIAN_POINT ( 'NONE',  ( 0.0000000000000000000, 0.0000000000000000000, 1.500000000000000222 ) ) ;
#173 = EDGE_LOOP ( 'NONE', ( #103, #242, #17, #92 ) ) ;
#174 = ADVANCED_FACE ( 'NONE', ( #323 ), #276, .T. ) ;
#175 = DIRECTION ( 'NONE',  ( -1.224646799147353454E-16, -0.0000000000000000000, -1.000000000000000000 ) ) ;
#176 = FILL_AREA_STYLE ('',( #28 ) ) ;
#177 = CARTESIAN_POINT ( 'NONE',  ( 0.0000000000000000000, 0.0000000000000000000, 1.500000000000000222 ) ) ;
#178 = DIRECTION ( 'NONE',  ( -1.000000000000000000, 0.0000000000000000000, 1.224646799147353454E-16 ) ) ;
#179 = AXIS2_PLACEMENT_3D ( 'NONE', #235, #175, #144 ) ;
#180 = CONICAL_SURFACE ( 'NONE', #272, 0.04750000000000064587, 0.7853981633974466137 ) ;
#181 = CARTESIAN_POINT ( 'NONE',  ( 0.02497500000000000414, 3.058555380870514950E-18, 0.02497499999999999720 ) ) ;
#182 = MECHANICAL_DESIGN_GEOMETRIC_PRESENTATION_REPRESENTATION (  '', ( #4 ), #75 ) ;
#183 = CARTESIAN_POINT ( 'NONE',  ( 4.443200450799409520E-17, 0.0000000000000000000, 0.3628148502811535114 ) ) ;
#184 = ORIENTED_EDGE ( 'NONE', *, *, #307, .F. ) ;
#185 = AXIS2_PLACEMENT_3D ( 'NONE', #117, #216, #81 ) ;
#186 = AXIS2_PLACEMENT_3D ( 'NONE', #110, #60, #84 ) ;
#187 = EDGE_CURVE ( 'NONE', #136, #290, #204, .T. ) ;
#188 = CONICAL_SURFACE ( 'NONE', #306, 0.02497500000000000067, 0.1745329251994338360 ) ;
#189 = VECTOR ( 'NONE', #299, 39.37007874015748854 ) ;
#190 = VERTEX_POINT ( 'NONE', #194 ) ;
#191 = FACE_OUTER_BOUND ( 'NONE', #68, .T. ) ;
#192 = ORIENTED_EDGE ( 'NONE', *, *, #101, .F. ) ;
#193 = ADVANCED_FACE ( 'NONE', ( #202 ), #297, .T. ) ;
#194 = CARTESIAN_POINT ( 'NONE',  ( 0.06250000000000006939, 7.654042494670963708E-18, 0.3628148502811535114 ) ) ;
#195 = DIRECTION ( 'NONE',  ( 0.0000000000000000000, 0.0000000000000000000, -1.000000000000000000 ) ) ;
#196 = CARTESIAN_POINT ( 'NONE',  ( -0.02497500000000000067, 0.0000000000000000000, 3.058555380870515335E-18 ) ) ;
#197 = ORIENTED_EDGE ( 'NONE', *, *, #67, .T. ) ;
#198 = COLOUR_RGB ( '',0.7921568627450980005, 0.8196078431372548767, 0.9333333333333333481 ) ;
#199 = DIRECTION ( 'NONE',  ( 0.0000000000000000000, 0.0000000000000000000, -1.000000000000000000 ) ) ;
#200 = ORIENTED_EDGE ( 'NONE', *, *, #33, .F. ) ;
#201 = ADVANCED_FACE ( 'NONE', ( #16 ), #271, .T. ) ;
#202 = FACE_OUTER_BOUND ( 'NONE', #115, .T. ) ;
#203 = FACE_OUTER_BOUND ( 'NONE', #173, .T. ) ;
#204 = CIRCLE ( 'NONE', #213, 0.04750000000000064587 ) ;
#205 = DIRECTION ( 'NONE',  ( -0.0000000000000000000, -0.0000000000000000000, -1.000000000000000000 ) ) ;
#206 = ADVANCED_FACE ( 'NONE', ( #214 ), #310, .T. ) ;
#207 =( NAMED_UNIT ( * ) SI_UNIT ( $, .STERADIAN. ) SOLID_ANGLE_UNIT ( ) );
#208 = CIRCLE ( 'NONE', #54, 0.06250000000000002776 ) ;
#209 =( CONVERSION_BASED_UNIT ( 'INCH', #111 ) LENGTH_UNIT ( ) NAMED_UNIT ( #124 ) );
#210 = VECTOR ( 'NONE', #122, 39.37007874015747433 ) ;
#211 = ADVANCED_FACE ( 'NONE', ( #191 ), #289, .T. ) ;
#212 = ORIENTED_EDGE ( 'NONE', *, *, #33, .T. ) ;
#213 = AXIS2_PLACEMENT_3D ( 'NONE', #177, #245, #104 ) ;
#214 = FACE_OUTER_BOUND ( 'NONE', #78, .T. ) ;
#215 = ORIENTED_EDGE ( 'NONE', *, *, #236, .F. ) ;
#216 = DIRECTION ( 'NONE',  ( 0.0000000000000000000, 0.0000000000000000000, 1.000000000000000000 ) ) ;
#217 = ORIENTED_EDGE ( 'NONE', *, *, #165, .F. ) ;
#218 = CARTESIAN_POINT ( 'NONE',  ( -0.04750000000000064587, 0.0000000000000000000, 1.500000000000000222 ) ) ;
#219 = VERTEX_POINT ( 'NONE', #142 ) ;
#220 = DIRECTION ( 'NONE',  ( -1.000000000000000000, 0.0000000000000000000, 1.709114110150314860E-16 ) ) ;
#221 = CIRCLE ( 'NONE', #35, 0.06250000000000002776 ) ;
#222 = EDGE_LOOP ( 'NONE', ( #49, #143, #212, #120 ) ) ;
#223 = PRODUCT_DEFINITION_FORMATION_WITH_SPECIFIED_SOURCE ( 'ANY', '', #164, .NOT_KNOWN. ) ;
#224 = DIRECTION ( 'NONE',  ( 1.000000000000000000, 0.0000000000000000000, 0.0000000000000000000 ) ) ;
#225 = CARTESIAN_POINT ( 'NONE',  ( -0.06250000000000002776, 0.0000000000000000000, 1.500000000000000222 ) ) ;
#226 = DIRECTION ( 'NONE',  ( -0.0000000000000000000, -0.0000000000000000000, -1.000000000000000000 ) ) ;
#227 = CONICAL_SURFACE ( 'NONE', #65, 0.04750000000000064587, 0.7853981633974466137 ) ;
#228 = LINE ( 'NONE', #128, #189 ) ;
#229 = EDGE_CURVE ( 'NONE', #118, #287, #98, .T. ) ;
#230 = CARTESIAN_POINT ( 'NONE',  ( 1.836970198721029749E-17, 0.0000000000000000000, 0.1499999999999999944 ) ) ;
#231 = CARTESIAN_POINT ( 'NONE',  ( -0.04750000000000064587, 0.0000000000000000000, 1.500000000000000222 ) ) ;
#232 = ADVANCED_FACE ( 'NONE', ( #77 ), #227, .T. ) ;
#233 = SURFACE_STYLE_USAGE ( .BOTH. , #158 ) ;
#234 = VERTEX_POINT ( 'NONE', #109 ) ;
#235 = CARTESIAN_POINT ( 'NONE',  ( 1.836970198721029749E-17, 0.0000000000000000000, 0.1499999999999999944 ) ) ;
#236 = EDGE_CURVE ( 'NONE', #219, #137, #133, .T. ) ;
#237 = VERTEX_POINT ( 'NONE', #181 ) ;
#238 = CARTESIAN_POINT ( 'NONE',  ( 0.04750000000000064587, 6.735557395310483192E-18, 1.500000000000000222 ) ) ;
#239 = ORIENTED_EDGE ( 'NONE', *, *, #87, .F. ) ;
#240 = DIRECTION ( 'NONE',  ( 1.000000000000000000, 0.0000000000000000000, 0.0000000000000000000 ) ) ;
#241 = UNCERTAINTY_MEASURE_WITH_UNIT (LENGTH_MEASURE( 1.000000000000000082E-05 ), #209, 'distance_accuracy_value', 'NONE');
#242 = ORIENTED_EDGE ( 'NONE', *, *, #40, .T. ) ;
#243 = CARTESIAN_POINT ( 'NONE',  ( 3.058555380870515335E-18, 0.0000000000000000000, 0.02497500000000000067 ) ) ;
#244 = ORIENTED_EDGE ( 'NONE', *, *, #106, .F. ) ;
#245 = DIRECTION ( 'NONE',  ( 0.0000000000000000000, 0.0000000000000000000, 1.000000000000000000 ) ) ;
#246 = COLOUR_RGB ( '',0.7921568627450980005, 0.8196078431372548767, 0.9333333333333333481 ) ;
#247 = CARTESIAN_POINT ( 'NONE',  ( 0.02497500000000001802, 0.0000000000000000000, 0.1499999999999999944 ) ) ;
#248 = AXIS2_PLACEMENT_3D ( 'NONE', #159, #284, #112 ) ;
#249 = DIRECTION ( 'NONE',  ( 1.000000000000000000, 0.0000000000000000000, 0.0000000000000000000 ) ) ;
#250 =( NAMED_UNIT ( * ) SI_UNIT ( $, .STERADIAN. ) SOLID_ANGLE_UNIT ( ) );
#251 = DIRECTION ( 'NONE',  ( -1.000000000000000000, 0.0000000000000000000, 0.0000000000000000000 ) ) ;
#252 = UNCERTAINTY_MEASURE_WITH_UNIT (LENGTH_MEASURE( 1.000000000000000082E-05 ), #66, 'distance_accuracy_value', 'NONE');
#253 = DIRECTION ( 'NONE',  ( -1.224646799147353454E-16, -0.0000000000000000000, -1.000000000000000000 ) ) ;
#254 = CARTESIAN_POINT ( 'NONE',  ( -0.02497499999999999720, 0.0000000000000000000, 0.02497500000000000414 ) ) ;
#255 = PRESENTATION_LAYER_ASSIGNMENT (  '', '', ( #125 ) ) ;
#256 = EDGE_CURVE ( 'NONE', #269, #190, #149, .T. ) ;
#257 = MECHANICAL_DESIGN_GEOMETRIC_PRESENTATION_REPRESENTATION (  '', ( #125 ), #36 ) ;
#258 = CARTESIAN_POINT ( 'NONE',  ( 0.02497500000000001802, 0.0000000000000000000, 0.1499999999999999944 ) ) ;
#259 = AXIS2_PLACEMENT_3D ( 'NONE', #96, #12, #52 ) ;
#260 = VECTOR ( 'NONE', #61, 39.37007874015748143 ) ;
#261 =( LENGTH_UNIT ( ) NAMED_UNIT ( * ) SI_UNIT ( $, .METRE. ) );
#262 = ADVANCED_FACE ( 'NONE', ( #27 ), #180, .T. ) ;
#263 = LENGTH_MEASURE_WITH_UNIT ( LENGTH_MEASURE( 0.02539999999999999897 ), #261 );
#264 = ADVANCED_FACE ( 'NONE', ( #30 ), #131, .T. ) ;
#265 = VECTOR ( 'NONE', #79, 39.37007874015748854 ) ;
#266 = ORIENTED_EDGE ( 'NONE', *, *, #85, .T. ) ;
#267 = ORIENTED_EDGE ( 'NONE', *, *, #320, .T. ) ;
#268 = DIRECTION ( 'NONE',  ( -1.000000000000000000, 0.0000000000000000000, 0.0000000000000000000 ) ) ;
#269 = VERTEX_POINT ( 'NONE', #24 ) ;
#270 = CIRCLE ( 'NONE', #185, 0.04750000000000064587 ) ;
#271 = CYLINDRICAL_SURFACE ( 'NONE', #300, 0.06250000000000002776 ) ;
#272 = AXIS2_PLACEMENT_3D ( 'NONE', #83, #6, #129 ) ;
#273 = EDGE_LOOP ( 'NONE', ( #11, #70, #74, #239 ) ) ;
#274 = DIRECTION ( 'NONE',  ( 0.0000000000000000000, 0.0000000000000000000, -1.000000000000000000 ) ) ;
#275 = ORIENTED_EDGE ( 'NONE', *, *, #305, .F. ) ;
#276 = CYLINDRICAL_SURFACE ( 'NONE', #259, 0.02497500000000000067 ) ;
#277 = SURFACE_SIDE_STYLE ('',( #150 ) ) ;
#278 = DIRECTION ( 'NONE',  ( 0.0000000000000000000, 1.000000000000000000, 0.0000000000000000000 ) ) ;
#279 = CLOSED_SHELL ( 'NONE', ( #193, #29, #294, #232, #201, #264, #211, #262, #132, #174, #206 ) ) ;
#280 = FILL_AREA_STYLE ('',( #32 ) ) ;
#281 = DIRECTION ( 'NONE',  ( -1.224646799147353454E-16, -0.0000000000000000000, -1.000000000000000000 ) ) ;
#282 = APPLICATION_PROTOCOL_DEFINITION ( 'draft international standard', 'automotive_design', 1998, #37 ) ;
#283 = DIRECTION ( 'NONE',  ( -1.000000000000000000, 1.224646799147353207E-16, 0.0000000000000000000 ) ) ;
#284 = DIRECTION ( 'NONE',  ( 0.0000000000000000000, 0.0000000000000000000, 1.000000000000000000 ) ) ;
#285 = CIRCLE ( 'NONE', #113, 0.06250000000000002776 ) ;
#286 = CIRCLE ( 'NONE', #302, 0.02497500000000000067 ) ;
#287 = VERTEX_POINT ( 'NONE', #254 ) ;
#288 = PRODUCT_DEFINITION_SHAPE ( 'NONE', 'NONE',  #160 ) ;
#289 = PLANE ( 'NONE',  #47 ) ;
#290 = VERTEX_POINT ( 'NONE', #231 ) ;
#291 = ORIENTED_EDGE ( 'NONE', *, *, #40, .F. ) ;
#292 =( GEOMETRIC_REPRESENTATION_CONTEXT ( 3 ) GLOBAL_UNCERTAINTY_ASSIGNED_CONTEXT ( ( #241 ) ) GLOBAL_UNIT_ASSIGNED_CONTEXT ( ( #209, #304, #207 ) ) REPRESENTATION_CONTEXT ( 'NONE', 'WORKASPACE' ) );
#293 = DIRECTION ( 'NONE',  ( -1.224646799147353454E-16, -0.0000000000000000000, -1.000000000000000000 ) ) ;
#294 = ADVANCED_FACE ( 'NONE', ( #3 ), #39, .T. ) ;
#295 = ORIENTED_EDGE ( 'NONE', *, *, #101, .T. ) ;
#296 = DIRECTION ( 'NONE',  ( 1.000000000000000000, 0.0000000000000000000, 0.0000000000000000000 ) ) ;
#297 = SPHERICAL_SURFACE ( 'NONE', #88, 0.02497500000000000067 ) ;
#298 = SURFACE_STYLE_USAGE ( .BOTH. , #277 ) ;
#299 = DIRECTION ( 'NONE',  ( 0.7071067811865462405, 8.659560562354916834E-17, -0.7071067811865486830 ) ) ;
#300 = AXIS2_PLACEMENT_3D ( 'NONE', #48, #55, #268 ) ;
#301 = LINE ( 'NONE', #2, #130 ) ;
#302 = AXIS2_PLACEMENT_3D ( 'NONE', #303, #105, #283 ) ;
#303 = CARTESIAN_POINT ( 'NONE',  ( 3.058555380870515335E-18, 0.0000000000000000000, 0.02497500000000000067 ) ) ;
#304 =( NAMED_UNIT ( * ) PLANE_ANGLE_UNIT ( ) SI_UNIT ( $, .RADIAN. ) );
#305 = EDGE_CURVE ( 'NONE', #136, #269, #228, .T. ) ;
#306 = AXIS2_PLACEMENT_3D ( 'NONE', #21, #126, #224 ) ;
#307 = EDGE_CURVE ( 'NONE', #234, #287, #286, .T. ) ;
#308 = SHAPE_DEFINITION_REPRESENTATION ( #288, #157 ) ;
#309 = VERTEX_POINT ( 'NONE', #258 ) ;
#310 = SPHERICAL_SURFACE ( 'NONE', #170, 0.02497500000000000067 ) ;
#311 = ORIENTED_EDGE ( 'NONE', *, *, #10, .F. ) ;
#312 = FACE_OUTER_BOUND ( 'NONE', #222, .T. ) ;
#313 = ORIENTED_EDGE ( 'NONE', *, *, #87, .T. ) ;
#314 = EDGE_CURVE ( 'NONE', #190, #137, #69, .T. ) ;
#315 = LINE ( 'NONE', #100, #210 ) ;
#316 = EDGE_LOOP ( 'NONE', ( #169, #13, #163, #215 ) ) ;
#317 = VECTOR ( 'NONE', #80, 39.37007874015748143 ) ;
#318 = VECTOR ( 'NONE', #226, 39.37007874015748143 ) ;
#319 = CARTESIAN_POINT ( 'NONE',  ( 0.0000000000000000000, 0.0000000000000000000, 1.485000000000000764 ) ) ;
#320 = EDGE_CURVE ( 'NONE', #234, #237, #93, .T. ) ;
#321 = EDGE_LOOP ( 'NONE', ( #275, #192, #313, #311 ) ) ;
#322 = DIRECTION ( 'NONE',  ( 1.000000000000000000, 0.0000000000000000000, 0.0000000000000000000 ) ) ;
#323 = FACE_OUTER_BOUND ( 'NONE', #41, .T. ) ;
#324 =( LENGTH_UNIT ( ) NAMED_UNIT ( * ) SI_UNIT ( $, .METRE. ) );
#325 = EDGE_CURVE ( 'NONE', #287, #237, #171, .T. ) ;
ENDSEC;
END-ISO-10303-21;
