ISO-10303-21;
HEADER;
FILE_DESCRIPTION (( 'STEP AP214' ),
    '1' );
FILE_NAME ('84786.STEP',
    '2023-07-05T16:27:51',
    ( '' ),
    ( '' ),
    'SwSTEP 2.0',
    'SolidWorks 2023',
    '' );
FILE_SCHEMA (( 'AUTOMOTIVE_DESIGN' ));
ENDSEC;

DATA;
#1 = DIRECTION ( 'NONE',  ( 0.000000000000000000, 0.000000000000000000, 1.000000000000000000 ) ) ;
#2 = DIRECTION ( 'NONE',  ( 0.000000000000000000, 1.000000000000000000, 0.000000000000000000 ) ) ;
#3 =( NAMED_UNIT ( * ) SI_UNIT ( $, .STERADIAN. ) SOLID_ANGLE_UNIT ( ) );
#4 = ADVANCED_FACE ( 'NONE', ( #39 ), #182, .T. ) ;
#5 = PRESENTATION_STYLE_ASSIGNMENT (( #209 ) ) ;
#6 = DIMENSIONAL_EXPONENTS ( 1.000000000000000000, 0.000000000000000000, 0.000000000000000000, 0.000000000000000000, 0.000000000000000000, 0.000000000000000000, 0.000000000000000000 ) ;
#7 = SURFACE_STYLE_FILL_AREA ( #116 ) ;
#8 = CARTESIAN_POINT ( 'NONE',  ( 0.3124999999999999445, 3.000000000000000444, 3.827021247335477078E-17 ) ) ;
#9 = VECTOR ( 'NONE', #193, 39.37007874015748143 ) ;
#10 = CARTESIAN_POINT ( 'NONE',  ( -0.3125000000000000555, 3.000000000000000444, 0.000000000000000000 ) ) ;
#11 = CARTESIAN_POINT ( 'NONE',  ( -0.3124999999999992784, 0.3124999999999988343, 0.000000000000000000 ) ) ;
#12 = DIRECTION ( 'NONE',  ( 0.000000000000000000, 0.000000000000000000, -1.000000000000000000 ) ) ;
#13 = EDGE_CURVE ( 'NONE', #127, #48, #128, .T. ) ;
#14 = MECHANICAL_DESIGN_GEOMETRIC_PRESENTATION_REPRESENTATION (  '', ( #114 ), #109 ) ;
#15 = CONICAL_SURFACE ( 'NONE', #77, 39.37007874015760223, 0.7853981633974498333 ) ;
#16 = EDGE_LOOP ( 'NONE', ( #185, #139 ) ) ;
#17 = CARTESIAN_POINT ( 'NONE',  ( 0.3124999999999997224, 3.000000000000000444, 3.827021247335476461E-17 ) ) ;
#18 = STYLED_ITEM ( 'NONE', ( #238 ), #258 ) ;
#19 = PRESENTATION_STYLE_ASSIGNMENT (( #103 ) ) ;
#20 = EDGE_LOOP ( 'NONE', ( #71, #243, #242, #126 ) ) ;
#21 = ORIENTED_EDGE ( 'NONE', *, *, #64, .F. ) ;
#22 = SURFACE_STYLE_FILL_AREA ( #120 ) ;
#23 = ORIENTED_EDGE ( 'NONE', *, *, #142, .F. ) ;
#24 = EDGE_CURVE ( 'NONE', #220, #84, #79, .T. ) ;
#25 = AXIS2_PLACEMENT_3D ( 'NONE', #29, #230, #115 ) ;
#26 = FILL_AREA_STYLE ('',( #125 ) ) ;
#27 = PRODUCT_DEFINITION ( 'UNKNOWN', '', #153, #256 ) ;
#28 =( LENGTH_UNIT ( ) NAMED_UNIT ( * ) SI_UNIT ( $, .METRE. ) );
#29 = CARTESIAN_POINT ( 'NONE',  ( -6.123233995736770966E-17, 3.000000000000000444, 0.000000000000000000 ) ) ;
#30 = APPLICATION_PROTOCOL_DEFINITION ( 'draft international standard', 'automotive_design', 1998, #251 ) ;
#31 = DIMENSIONAL_EXPONENTS ( 1.000000000000000000, 0.000000000000000000, 0.000000000000000000, 0.000000000000000000, 0.000000000000000000, 0.000000000000000000, 0.000000000000000000 ) ;
#32 = CIRCLE ( 'NONE', #124, 0.3125000000000000000 ) ;
#33 = DIRECTION ( 'NONE',  ( -1.452488064105000487E-16, 1.000000000000000000, -0.000000000000000000 ) ) ;
#34 = DIRECTION ( 'NONE',  ( -1.452488064105000487E-16, 1.000000000000000000, -0.000000000000000000 ) ) ;
#35 = FILL_AREA_STYLE_COLOUR ( '', #152 ) ;
#36 = ORIENTED_EDGE ( 'NONE', *, *, #142, .T. ) ;
#37 =( NAMED_UNIT ( * ) SI_UNIT ( $, .STERADIAN. ) SOLID_ANGLE_UNIT ( ) );
#38 = AXIS2_PLACEMENT_3D ( 'NONE', #138, #195, #12 ) ;
#39 = FACE_OUTER_BOUND ( 'NONE', #108, .T. ) ;
#40 = CARTESIAN_POINT ( 'NONE',  ( -6.123233995736770966E-17, 3.000000000000000444, 0.000000000000000000 ) ) ;
#41 = ADVANCED_FACE ( 'NONE', ( #211 ), #210, .T. ) ;
#42 = LENGTH_MEASURE_WITH_UNIT ( LENGTH_MEASURE( 0.02539999999999999897 ), #264 );
#43 =( LENGTH_UNIT ( ) NAMED_UNIT ( * ) SI_UNIT ( $, .METRE. ) );
#44 =( GEOMETRIC_REPRESENTATION_CONTEXT ( 3 ) GLOBAL_UNCERTAINTY_ASSIGNED_CONTEXT ( ( #82 ) ) GLOBAL_UNIT_ASSIGNED_CONTEXT ( ( #171, #148, #250 ) ) REPRESENTATION_CONTEXT ( 'NONE', 'WORKASPACE' ) );
#45 = FACE_OUTER_BOUND ( 'NONE', #196, .T. ) ;
#46 =( NAMED_UNIT ( * ) SI_UNIT ( $, .STERADIAN. ) SOLID_ANGLE_UNIT ( ) );
#47 = ORIENTED_EDGE ( 'NONE', *, *, #207, .T. ) ;
#48 = VERTEX_POINT ( 'NONE', #247 ) ;
#49 =( GEOMETRIC_REPRESENTATION_CONTEXT ( 3 ) GLOBAL_UNCERTAINTY_ASSIGNED_CONTEXT ( ( #72 ) ) GLOBAL_UNIT_ASSIGNED_CONTEXT ( ( #167, #241, #123 ) ) REPRESENTATION_CONTEXT ( 'NONE', 'WORKASPACE' ) );
#50 = DIRECTION ( 'NONE',  ( 0.000000000000000000, 0.000000000000000000, 1.000000000000000000 ) ) ;
#51 = DIRECTION ( 'NONE',  ( 0.000000000000000000, 1.000000000000000000, 0.000000000000000000 ) ) ;
#52 = DIMENSIONAL_EXPONENTS ( 1.000000000000000000, 0.000000000000000000, 0.000000000000000000, 0.000000000000000000, 0.000000000000000000, 0.000000000000000000, 0.000000000000000000 ) ;
#53 = MECHANICAL_DESIGN_GEOMETRIC_PRESENTATION_REPRESENTATION (  '', ( #217 ), #190 ) ;
#54 = CARTESIAN_POINT ( 'NONE',  ( 3.291238272708513516E-16, 0.3124999999999989453, 0.000000000000000000 ) ) ;
#55 = DIMENSIONAL_EXPONENTS ( 1.000000000000000000, 0.000000000000000000, 0.000000000000000000, 0.000000000000000000, 0.000000000000000000, 0.000000000000000000, 0.000000000000000000 ) ;
#56 = DIRECTION ( 'NONE',  ( -0.000000000000000000, -1.000000000000000000, -0.000000000000000000 ) ) ;
#57 = DIRECTION ( 'NONE',  ( -1.452488064105000487E-16, 1.000000000000000000, -0.000000000000000000 ) ) ;
#58 = AXIS2_PLACEMENT_3D ( 'NONE', #136, #59, #135 ) ;
#59 = DIRECTION ( 'NONE',  ( -1.452488064105000487E-16, 1.000000000000000000, -0.000000000000000000 ) ) ;
#60 = DIRECTION ( 'NONE',  ( 8.659560562354947649E-17, 0.7071067811865464625, -0.7071067811865486830 ) ) ;
#61 = DIRECTION ( 'NONE',  ( -1.452488064105000487E-16, 1.000000000000000000, -0.000000000000000000 ) ) ;
#62 = VERTEX_POINT ( 'NONE', #132 ) ;
#63 = SURFACE_STYLE_FILL_AREA ( #200 ) ;
#64 = EDGE_CURVE ( 'NONE', #62, #216, #187, .T. ) ;
#65 = PRODUCT_DEFINITION_SHAPE ( 'NONE', 'NONE',  #27 ) ;
#66 = AXIS2_PLACEMENT_3D ( 'NONE', #254, #179, #83 ) ;
#67 =( CONVERSION_BASED_UNIT ( 'INCH', #259 ) LENGTH_UNIT ( ) NAMED_UNIT ( #246 ) );
#68 = ORIENTED_EDGE ( 'NONE', *, *, #64, .T. ) ;
#69 = COLOUR_RGB ( '',0.7921568627450980005, 0.8196078431372548767, 0.9333333333333333481 ) ;
#70 =( NAMED_UNIT ( * ) SI_UNIT ( $, .STERADIAN. ) SOLID_ANGLE_UNIT ( ) );
#71 = ORIENTED_EDGE ( 'NONE', *, *, #13, .T. ) ;
#72 = UNCERTAINTY_MEASURE_WITH_UNIT (LENGTH_MEASURE( 1.000000000000000082E-05 ), #167, 'distance_accuracy_value', 'NONE');
#73 = STYLED_ITEM ( 'NONE', ( #19 ), #249 ) ;
#74 = CARTESIAN_POINT ( 'NONE',  ( 0.000000000000000000, 0.3124999999999990008, 0.000000000000000000 ) ) ;
#75 = SURFACE_STYLE_FILL_AREA ( #224 ) ;
#76 =( CONVERSION_BASED_UNIT ( 'INCH', #113 ) LENGTH_UNIT ( ) NAMED_UNIT ( #6 ) );
#77 = AXIS2_PLACEMENT_3D ( 'NONE', #118, #146, #143 ) ;
#78 = CARTESIAN_POINT ( 'NONE',  ( 0.000000000000000000, 0.3124999999999990008, 0.000000000000000000 ) ) ;
#79 = CIRCLE ( 'NONE', #25, 0.3125000000000000000 ) ;
#80 = LENGTH_MEASURE_WITH_UNIT ( LENGTH_MEASURE( 0.02539999999999999897 ), #199 );
#81 = AXIS2_PLACEMENT_3D ( 'NONE', #172, #1, #225 ) ;
#82 = UNCERTAINTY_MEASURE_WITH_UNIT (LENGTH_MEASURE( 1.000000000000000082E-05 ), #171, 'distance_accuracy_value', 'NONE');
#83 = DIRECTION ( 'NONE',  ( -1.000000000000000000, -1.452488064105000487E-16, 0.000000000000000000 ) ) ;
#84 = VERTEX_POINT ( 'NONE', #8 ) ;
#85 = LINE ( 'NONE', #17, #180 ) ;
#86 = PLANE ( 'NONE',  #166 ) ;
#87 = CLOSED_SHELL ( 'NONE', ( #147, #160, #240, #260 ) ) ;
#88 = VECTOR ( 'NONE', #34, 39.37007874015748143 ) ;
#89 = ORIENTED_EDGE ( 'NONE', *, *, #106, .T. ) ;
#90 = ORIENTED_EDGE ( 'NONE', *, *, #106, .F. ) ;
#91 = CARTESIAN_POINT ( 'NONE',  ( 0.000000000000000000, 0.000000000000000000, 0.000000000000000000 ) ) ;
#92 =( NAMED_UNIT ( * ) PLANE_ANGLE_UNIT ( ) SI_UNIT ( $, .RADIAN. ) );
#93 = PRODUCT_CONTEXT ( 'NONE', #251, 'mechanical' ) ;
#94 = PRESENTATION_LAYER_ASSIGNMENT (  '', '', ( #217 ) ) ;
#95 = LINE ( 'NONE', #91, #9 ) ;
#96 = CARTESIAN_POINT ( 'NONE',  ( 0.000000000000000000, 0.000000000000000000, 0.000000000000000000 ) ) ;
#97 = PRODUCT ( '84786', '84786', '', ( #93 ) ) ;
#98 = CARTESIAN_POINT ( 'NONE',  ( -6.123233995736772199E-17, 3.000000000000000444, 0.000000000000000000 ) ) ;
#99 = AXIS2_PLACEMENT_3D ( 'NONE', #54, #150, #173 ) ;
#100 = CARTESIAN_POINT ( 'NONE',  ( 3.291238272708513516E-16, 0.3124999999999989453, 0.000000000000000000 ) ) ;
#101 = ORIENTED_EDGE ( 'NONE', *, *, #149, .T. ) ;
#102 = LINE ( 'NONE', #117, #197 ) ;
#103 = SURFACE_STYLE_USAGE ( .BOTH. , #110 ) ;
#104 = COLOUR_RGB ( '',1.000000000000000000, 0.000000000000000000, 0.000000000000000000 ) ;
#105 =( CONVERSION_BASED_UNIT ( 'INCH', #219 ) LENGTH_UNIT ( ) NAMED_UNIT ( #244 ) );
#106 = EDGE_CURVE ( 'NONE', #234, #62, #95, .T. ) ;
#107 = ORIENTED_EDGE ( 'NONE', *, *, #24, .T. ) ;
#108 = EDGE_LOOP ( 'NONE', ( #21, #23 ) ) ;
#109 =( GEOMETRIC_REPRESENTATION_CONTEXT ( 3 ) GLOBAL_UNCERTAINTY_ASSIGNED_CONTEXT ( ( #121 ) ) GLOBAL_UNIT_ASSIGNED_CONTEXT ( ( #76, #92, #3 ) ) REPRESENTATION_CONTEXT ( 'NONE', 'WORKASPACE' ) );
#110 = SURFACE_SIDE_STYLE ('',( #22 ) ) ;
#111 = SHAPE_DEFINITION_REPRESENTATION ( #65, #194 ) ;
#112 =( LENGTH_UNIT ( ) NAMED_UNIT ( * ) SI_UNIT ( $, .METRE. ) );
#113 = LENGTH_MEASURE_WITH_UNIT ( LENGTH_MEASURE( 0.02539999999999999897 ), #112 );
#114 = STYLED_ITEM ( 'NONE', ( #228 ), #41 ) ;
#115 = DIRECTION ( 'NONE',  ( -1.000000000000000000, 0.000000000000000000, 0.000000000000000000 ) ) ;
#116 = FILL_AREA_STYLE ('',( #208 ) ) ;
#117 = CARTESIAN_POINT ( 'NONE',  ( 0.000000000000000000, 0.000000000000000000, 0.000000000000000000 ) ) ;
#118 = CARTESIAN_POINT ( 'NONE',  ( 0.000000000000000000, 39.37007874015748143, 0.000000000000000000 ) ) ;
#119 = PRODUCT_RELATED_PRODUCT_CATEGORY ( 'part', '', ( #97 ) ) ;
#120 = FILL_AREA_STYLE ('',( #35 ) ) ;
#121 = UNCERTAINTY_MEASURE_WITH_UNIT (LENGTH_MEASURE( 1.000000000000000082E-05 ), #76, 'distance_accuracy_value', 'NONE');
#122 = DIRECTION ( 'NONE',  ( -1.000000000000000000, 0.000000000000000000, 0.000000000000000000 ) ) ;
#123 =( NAMED_UNIT ( * ) SI_UNIT ( $, .STERADIAN. ) SOLID_ANGLE_UNIT ( ) );
#124 = AXIS2_PLACEMENT_3D ( 'NONE', #40, #161, #122 ) ;
#125 = FILL_AREA_STYLE_COLOUR ( '', #69 ) ;
#126 = ORIENTED_EDGE ( 'NONE', *, *, #207, .F. ) ;
#127 = VERTEX_POINT ( 'NONE', #11 ) ;
#128 = CIRCLE ( 'NONE', #99, 0.3124999999999996114 ) ;
#129 = SURFACE_SIDE_STYLE ('',( #7 ) ) ;
#130 = DIRECTION ( 'NONE',  ( 0.000000000000000000, -0.000000000000000000, 1.000000000000000000 ) ) ;
#131 = MECHANICAL_DESIGN_GEOMETRIC_PRESENTATION_REPRESENTATION (  '', ( #140 ), #44 ) ;
#132 = CARTESIAN_POINT ( 'NONE',  ( 0.000000000000000000, 0.3124999999999990008, 0.3125000000000000000 ) ) ;
#133 = SURFACE_STYLE_USAGE ( .BOTH. , #191 ) ;
#134 = COLOUR_RGB ( '',0.7921568627450980005, 0.8196078431372548767, 0.9333333333333333481 ) ;
#135 = DIRECTION ( 'NONE',  ( -1.000000000000000000, 0.000000000000000000, 0.000000000000000000 ) ) ;
#136 = CARTESIAN_POINT ( 'NONE',  ( -6.123233995736772199E-17, 3.000000000000000444, 0.000000000000000000 ) ) ;
#137 = UNCERTAINTY_MEASURE_WITH_UNIT (LENGTH_MEASURE( 1.000000000000000082E-05 ), #67, 'distance_accuracy_value', 'NONE');
#138 = CARTESIAN_POINT ( 'NONE',  ( 0.000000000000000000, 0.3124999999999990008, 0.000000000000000000 ) ) ;
#139 = ORIENTED_EDGE ( 'NONE', *, *, #149, .F. ) ;
#140 = STYLED_ITEM ( 'NONE', ( #5 ), #4 ) ;
#141 = FACE_OUTER_BOUND ( 'NONE', #20, .T. ) ;
#142 = EDGE_CURVE ( 'NONE', #216, #62, #157, .T. ) ;
#143 = DIRECTION ( 'NONE',  ( 0.000000000000000000, 0.000000000000000000, 1.000000000000000000 ) ) ;
#144 = FILL_AREA_STYLE_COLOUR ( '', #104 ) ;
#145 = DIRECTION ( 'NONE',  ( 1.000000000000000000, 1.452488064105000487E-16, 0.000000000000000000 ) ) ;
#146 = DIRECTION ( 'NONE',  ( 0.000000000000000000, 1.000000000000000000, 0.000000000000000000 ) ) ;
#147 = ADVANCED_FACE ( 'NONE', ( #141 ), #155, .T. ) ;
#148 =( NAMED_UNIT ( * ) PLANE_ANGLE_UNIT ( ) SI_UNIT ( $, .RADIAN. ) );
#149 = EDGE_CURVE ( 'NONE', #48, #127, #205, .T. ) ;
#150 = DIRECTION ( 'NONE',  ( -1.452488064105000487E-16, 1.000000000000000000, -0.000000000000000000 ) ) ;
#151 = SURFACE_STYLE_USAGE ( .BOTH. , #129 ) ;
#152 = COLOUR_RGB ( '',1.000000000000000000, 0.000000000000000000, 0.000000000000000000 ) ;
#153 = PRODUCT_DEFINITION_FORMATION_WITH_SPECIFIED_SOURCE ( 'ANY', '', #97, .NOT_KNOWN. ) ;
#154 = SURFACE_SIDE_STYLE ('',( #75 ) ) ;
#155 = CYLINDRICAL_SURFACE ( 'NONE', #245, 0.3124999999999998335 ) ;
#156 =( NAMED_UNIT ( * ) PLANE_ANGLE_UNIT ( ) SI_UNIT ( $, .RADIAN. ) );
#157 = CIRCLE ( 'NONE', #38, 0.3124999999999999445 ) ;
#158 = MECHANICAL_DESIGN_GEOMETRIC_PRESENTATION_REPRESENTATION (  '', ( #18 ), #263 ) ;
#159 = FACE_OUTER_BOUND ( 'NONE', #218, .T. ) ;
#160 = ADVANCED_FACE ( 'NONE', ( #177 ), #176, .F. ) ;
#161 = DIRECTION ( 'NONE',  ( -1.452488064105000487E-16, 1.000000000000000000, -0.000000000000000000 ) ) ;
#162 = AXIS2_PLACEMENT_3D ( 'NONE', #100, #57, #235 ) ;
#163 = SURFACE_STYLE_USAGE ( .BOTH. , #183 ) ;
#164 =( NAMED_UNIT ( * ) PLANE_ANGLE_UNIT ( ) SI_UNIT ( $, .RADIAN. ) );
#165 = PRESENTATION_LAYER_ASSIGNMENT (  '', '', ( #140 ) ) ;
#166 = AXIS2_PLACEMENT_3D ( 'NONE', #204, #237, #145 ) ;
#167 =( CONVERSION_BASED_UNIT ( 'INCH', #42 ) LENGTH_UNIT ( ) NAMED_UNIT ( #55 ) );
#168 = ORIENTED_EDGE ( 'NONE', *, *, #192, .T. ) ;
#169 = UNCERTAINTY_MEASURE_WITH_UNIT (LENGTH_MEASURE( 1.000000000000000082E-05 ), #215, 'distance_accuracy_value', 'NONE');
#170 = PRESENTATION_LAYER_ASSIGNMENT (  '', '', ( #114 ) ) ;
#171 =( CONVERSION_BASED_UNIT ( 'INCH', #226 ) LENGTH_UNIT ( ) NAMED_UNIT ( #52 ) );
#172 = CARTESIAN_POINT ( 'NONE',  ( 0.000000000000000000, 0.000000000000000000, 0.000000000000000000 ) ) ;
#173 = DIRECTION ( 'NONE',  ( -1.000000000000000000, -2.185478394931413286E-16, 0.000000000000000000 ) ) ;
#174 = LINE ( 'NONE', #252, #88 ) ;
#175 = MECHANICAL_DESIGN_GEOMETRIC_PRESENTATION_REPRESENTATION (  '', ( #73 ), #248 ) ;
#176 = PLANE ( 'NONE',  #66 ) ;
#177 = FACE_OUTER_BOUND ( 'NONE', #16, .T. ) ;
#178 = MANIFOLD_SOLID_BREP ( 'Revolve - Tool Body (Pointed)', #87 ) ;
#179 = DIRECTION ( 'NONE',  ( -1.452488064105000487E-16, 1.000000000000000000, 0.000000000000000000 ) ) ;
#180 = VECTOR ( 'NONE', #33, 39.37007874015748143 ) ;
#181 = SURFACE_STYLE_FILL_AREA ( #26 ) ;
#182 = PLANE ( 'NONE',  #189 ) ;
#183 = SURFACE_SIDE_STYLE ('',( #181 ) ) ;
#184 = ORIENTED_EDGE ( 'NONE', *, *, #192, .F. ) ;
#185 = ORIENTED_EDGE ( 'NONE', *, *, #13, .F. ) ;
#186 = CARTESIAN_POINT ( 'NONE',  ( 0.000000000000000000, 39.37007874015748143, 0.000000000000000000 ) ) ;
#187 = CIRCLE ( 'NONE', #262, 0.3124999999999999445 ) ;
#188 = APPLICATION_PROTOCOL_DEFINITION ( 'draft international standard', 'automotive_design', 1998, #261 ) ;
#189 = AXIS2_PLACEMENT_3D ( 'NONE', #74, #51, #130 ) ;
#190 =( GEOMETRIC_REPRESENTATION_CONTEXT ( 3 ) GLOBAL_UNCERTAINTY_ASSIGNED_CONTEXT ( ( #169 ) ) GLOBAL_UNIT_ASSIGNED_CONTEXT ( ( #215, #156, #37 ) ) REPRESENTATION_CONTEXT ( 'NONE', 'WORKASPACE' ) );
#191 = SURFACE_SIDE_STYLE ('',( #63 ) ) ;
#192 = EDGE_CURVE ( 'NONE', #84, #220, #32, .T. ) ;
#193 = DIRECTION ( 'NONE',  ( 0.000000000000000000, 0.7071067811865464625, 0.7071067811865486830 ) ) ;
#194 = ADVANCED_BREP_SHAPE_REPRESENTATION ( '84786', ( #258, #178, #81 ), #49 ) ;
#195 = DIRECTION ( 'NONE',  ( -0.000000000000000000, -1.000000000000000000, -0.000000000000000000 ) ) ;
#196 = EDGE_LOOP ( 'NONE', ( #107, #168 ) ) ;
#197 = VECTOR ( 'NONE', #60, 39.37007874015748143 ) ;
#198 = PRESENTATION_LAYER_ASSIGNMENT (  '', '', ( #18 ) ) ;
#199 =( LENGTH_UNIT ( ) NAMED_UNIT ( * ) SI_UNIT ( $, .METRE. ) );
#200 = FILL_AREA_STYLE ('',( #257 ) ) ;
#201 = UNCERTAINTY_MEASURE_WITH_UNIT (LENGTH_MEASURE( 1.000000000000000082E-05 ), #105, 'distance_accuracy_value', 'NONE');
#202 =( LENGTH_UNIT ( ) NAMED_UNIT ( * ) SI_UNIT ( $, .METRE. ) );
#203 = PRESENTATION_LAYER_ASSIGNMENT (  '', '', ( #73 ) ) ;
#204 = CARTESIAN_POINT ( 'NONE',  ( 0.3124999999999999445, 3.000000000000000444, 0.000000000000000000 ) ) ;
#205 = CIRCLE ( 'NONE', #162, 0.3124999999999996114 ) ;
#206 = EDGE_LOOP ( 'NONE', ( #90, #255, #36 ) ) ;
#207 = EDGE_CURVE ( 'NONE', #127, #220, #174, .T. ) ;
#208 = FILL_AREA_STYLE_COLOUR ( '', #229 ) ;
#209 = SURFACE_STYLE_USAGE ( .BOTH. , #154 ) ;
#210 = CONICAL_SURFACE ( 'NONE', #253, 39.37007874015760223, 0.7853981633974498333 ) ;
#211 = FACE_OUTER_BOUND ( 'NONE', #206, .T. ) ;
#212 = DIRECTION ( 'NONE',  ( 0.000000000000000000, 0.000000000000000000, -1.000000000000000000 ) ) ;
#213 = PRESENTATION_STYLE_ASSIGNMENT (( #133 ) ) ;
#214 = FACE_OUTER_BOUND ( 'NONE', #222, .T. ) ;
#215 =( CONVERSION_BASED_UNIT ( 'INCH', #80 ) LENGTH_UNIT ( ) NAMED_UNIT ( #31 ) );
#216 = VERTEX_POINT ( 'NONE', #231 ) ;
#217 = STYLED_ITEM ( 'NONE', ( #213 ), #178 ) ;
#218 = EDGE_LOOP ( 'NONE', ( #265, #101, #47, #184 ) ) ;
#219 = LENGTH_MEASURE_WITH_UNIT ( LENGTH_MEASURE( 0.02539999999999999897 ), #202 );
#220 = VERTEX_POINT ( 'NONE', #10 ) ;
#221 =( NAMED_UNIT ( * ) PLANE_ANGLE_UNIT ( ) SI_UNIT ( $, .RADIAN. ) );
#222 = EDGE_LOOP ( 'NONE', ( #239, #89, #68 ) ) ;
#223 = EDGE_CURVE ( 'NONE', #48, #84, #85, .T. ) ;
#224 = FILL_AREA_STYLE ('',( #144 ) ) ;
#225 = DIRECTION ( 'NONE',  ( 1.000000000000000000, 0.000000000000000000, 0.000000000000000000 ) ) ;
#226 = LENGTH_MEASURE_WITH_UNIT ( LENGTH_MEASURE( 0.02539999999999999897 ), #28 );
#227 = EDGE_CURVE ( 'NONE', #234, #216, #102, .T. ) ;
#228 = PRESENTATION_STYLE_ASSIGNMENT (( #151 ) ) ;
#229 = COLOUR_RGB ( '',1.000000000000000000, 0.000000000000000000, 0.000000000000000000 ) ;
#230 = DIRECTION ( 'NONE',  ( -1.452488064105000487E-16, 1.000000000000000000, -0.000000000000000000 ) ) ;
#231 = CARTESIAN_POINT ( 'NONE',  ( 3.827021247335478926E-17, 0.3124999999999990008, -0.3125000000000000000 ) ) ;
#232 = CYLINDRICAL_SURFACE ( 'NONE', #58, 0.3124999999999998335 ) ;
#233 = DIRECTION ( 'NONE',  ( -1.000000000000000000, 0.000000000000000000, 0.000000000000000000 ) ) ;
#234 = VERTEX_POINT ( 'NONE', #96 ) ;
#235 = DIRECTION ( 'NONE',  ( -1.000000000000000000, -2.185478394931413286E-16, 0.000000000000000000 ) ) ;
#236 = CLOSED_SHELL ( 'NONE', ( #41, #4, #249 ) ) ;
#237 = DIRECTION ( 'NONE',  ( 1.452488064105000487E-16, -1.000000000000000000, 0.000000000000000000 ) ) ;
#238 = PRESENTATION_STYLE_ASSIGNMENT (( #163 ) ) ;
#239 = ORIENTED_EDGE ( 'NONE', *, *, #227, .F. ) ;
#240 = ADVANCED_FACE ( 'NONE', ( #159 ), #232, .T. ) ;
#241 =( NAMED_UNIT ( * ) PLANE_ANGLE_UNIT ( ) SI_UNIT ( $, .RADIAN. ) );
#242 = ORIENTED_EDGE ( 'NONE', *, *, #24, .F. ) ;
#243 = ORIENTED_EDGE ( 'NONE', *, *, #223, .T. ) ;
#244 = DIMENSIONAL_EXPONENTS ( 1.000000000000000000, 0.000000000000000000, 0.000000000000000000, 0.000000000000000000, 0.000000000000000000, 0.000000000000000000, 0.000000000000000000 ) ;
#245 = AXIS2_PLACEMENT_3D ( 'NONE', #98, #61, #233 ) ;
#246 = DIMENSIONAL_EXPONENTS ( 1.000000000000000000, 0.000000000000000000, 0.000000000000000000, 0.000000000000000000, 0.000000000000000000, 0.000000000000000000, 0.000000000000000000 ) ;
#247 = CARTESIAN_POINT ( 'NONE',  ( 0.3124999999999999445, 0.3124999999999990008, 3.827021247335477078E-17 ) ) ;
#248 =( GEOMETRIC_REPRESENTATION_CONTEXT ( 3 ) GLOBAL_UNCERTAINTY_ASSIGNED_CONTEXT ( ( #201 ) ) GLOBAL_UNIT_ASSIGNED_CONTEXT ( ( #105, #164, #46 ) ) REPRESENTATION_CONTEXT ( 'NONE', 'WORKASPACE' ) );
#249 = ADVANCED_FACE ( 'NONE', ( #214 ), #15, .T. ) ;
#250 =( NAMED_UNIT ( * ) SI_UNIT ( $, .STERADIAN. ) SOLID_ANGLE_UNIT ( ) );
#251 = APPLICATION_CONTEXT ( 'automotive_design' ) ;
#252 = CARTESIAN_POINT ( 'NONE',  ( -0.3124999999999998890, 3.000000000000000444, 0.000000000000000000 ) ) ;
#253 = AXIS2_PLACEMENT_3D ( 'NONE', #186, #2, #50 ) ;
#254 = CARTESIAN_POINT ( 'NONE',  ( 3.291238272708513516E-16, 0.3124999999999990008, 0.000000000000000000 ) ) ;
#255 = ORIENTED_EDGE ( 'NONE', *, *, #227, .T. ) ;
#256 = PRODUCT_DEFINITION_CONTEXT ( 'detailed design', #261, 'design' ) ;
#257 = FILL_AREA_STYLE_COLOUR ( '', #134 ) ;
#258 = MANIFOLD_SOLID_BREP ( 'Revolve - Cutting Edge', #236 ) ;
#259 = LENGTH_MEASURE_WITH_UNIT ( LENGTH_MEASURE( 0.02539999999999999897 ), #43 );
#260 = ADVANCED_FACE ( 'NONE', ( #45 ), #86, .F. ) ;
#261 = APPLICATION_CONTEXT ( 'automotive_design' ) ;
#262 = AXIS2_PLACEMENT_3D ( 'NONE', #78, #56, #212 ) ;
#263 =( GEOMETRIC_REPRESENTATION_CONTEXT ( 3 ) GLOBAL_UNCERTAINTY_ASSIGNED_CONTEXT ( ( #137 ) ) GLOBAL_UNIT_ASSIGNED_CONTEXT ( ( #67, #221, #70 ) ) REPRESENTATION_CONTEXT ( 'NONE', 'WORKASPACE' ) );
#264 =( LENGTH_UNIT ( ) NAMED_UNIT ( * ) SI_UNIT ( $, .METRE. ) );
#265 = ORIENTED_EDGE ( 'NONE', *, *, #223, .F. ) ;
ENDSEC;
END-ISO-10303-21;
