ISO-10303-21;
HEADER;
FILE_DESCRIPTION (( 'STEP AP214' ),
    '1' );
FILE_NAME ('59274.STEP',
    '2023-06-22T22:45:34',
    ( '' ),
    ( '' ),
    'SwSTEP 2.0',
    'SolidWorks 2023',
    '' );
FILE_SCHEMA (( 'AUTOMOTIVE_DESIGN' ));
ENDSEC;

DATA;
#1 = UNCERTAINTY_MEASURE_WITH_UNIT (LENGTH_MEASURE( 1.000000000000000082E-05 ), #6, 'distance_accuracy_value', 'NONE');
#2 =( CONVERSION_BASED_UNIT ( 'INCH', #182 ) LENGTH_UNIT ( ) NAMED_UNIT ( #97 ) );
#3 = DIRECTION ( 'NONE',  ( -1.000000000000000000, 0.000000000000000000, 0.000000000000000000 ) ) ;
#4 = PRESENTATION_LAYER_ASSIGNMENT (  '', '', ( #30 ) ) ;
#5 = ORIENTED_EDGE ( 'NONE', *, *, #144, .F. ) ;
#6 =( CONVERSION_BASED_UNIT ( 'INCH', #188 ) LENGTH_UNIT ( ) NAMED_UNIT ( #229 ) );
#7 = MANIFOLD_SOLID_BREP ( 'Revolve - Tool Body (Straight Shanked)', #168 ) ;
#8 =( CONVERSION_BASED_UNIT ( 'INCH', #151 ) LENGTH_UNIT ( ) NAMED_UNIT ( #178 ) );
#9 = UNCERTAINTY_MEASURE_WITH_UNIT (LENGTH_MEASURE( 1.000000000000000082E-05 ), #248, 'distance_accuracy_value', 'NONE');
#10 = VERTEX_POINT ( 'NONE', #252 ) ;
#11 = CARTESIAN_POINT ( 'NONE',  ( 0.000000000000000000, 0.000000000000000000, 0.000000000000000000 ) ) ;
#12 = DIRECTION ( 'NONE',  ( 0.000000000000000000, 0.000000000000000000, -1.000000000000000000 ) ) ;
#13 = FACE_OUTER_BOUND ( 'NONE', #185, .T. ) ;
#14 = CIRCLE ( 'NONE', #273, 0.3750000000000000555 ) ;
#15 = DIRECTION ( 'NONE',  ( -0.000000000000000000, -1.000000000000000000, -0.000000000000000000 ) ) ;
#16 = DIRECTION ( 'NONE',  ( 0.000000000000000000, 0.000000000000000000, -1.000000000000000000 ) ) ;
#17 = FACE_OUTER_BOUND ( 'NONE', #26, .T. ) ;
#18 = CARTESIAN_POINT ( 'NONE',  ( -0.3750000000000002776, 5.000000000000000000, 0.000000000000000000 ) ) ;
#19 = FILL_AREA_STYLE_COLOUR ( '', #67 ) ;
#20 = VECTOR ( 'NONE', #33, 39.37007874015748143 ) ;
#21 = CARTESIAN_POINT ( 'NONE',  ( -0.3750000000000000555, 2.250000000000000444, 0.000000000000000000 ) ) ;
#22 = PRESENTATION_STYLE_ASSIGNMENT (( #27 ) ) ;
#23 = AXIS2_PLACEMENT_3D ( 'NONE', #43, #224, #38 ) ;
#24 = STYLED_ITEM ( 'NONE', ( #22 ), #186 ) ;
#25 = DIRECTION ( 'NONE',  ( 0.000000000000000000, -1.000000000000000000, -0.000000000000000000 ) ) ;
#26 = EDGE_LOOP ( 'NONE', ( #126, #297, #76, #272 ) ) ;
#27 = SURFACE_STYLE_USAGE ( .BOTH. , #263 ) ;
#28 = EDGE_LOOP ( 'NONE', ( #55, #262, #5, #79 ) ) ;
#29 = CARTESIAN_POINT ( 'NONE',  ( -1.224646799147353207E-16, 5.000000000000000000, 0.000000000000000000 ) ) ;
#30 = STYLED_ITEM ( 'NONE', ( #161 ), #173 ) ;
#31 = VERTEX_POINT ( 'NONE', #133 ) ;
#32 = PRODUCT_DEFINITION ( 'UNKNOWN', '', #82, #78 ) ;
#33 = DIRECTION ( 'NONE',  ( -4.453261087808557677E-17, 1.000000000000000000, -0.000000000000000000 ) ) ;
#34 = SURFACE_STYLE_FILL_AREA ( #195 ) ;
#35 = SURFACE_STYLE_FILL_AREA ( #155 ) ;
#36 = EDGE_CURVE ( 'NONE', #210, #10, #241, .T. ) ;
#37 = CIRCLE ( 'NONE', #23, 0.3750000000000000555 ) ;
#38 = DIRECTION ( 'NONE',  ( 0.000000000000000000, 0.000000000000000000, -1.000000000000000000 ) ) ;
#39 = DIMENSIONAL_EXPONENTS ( 1.000000000000000000, 0.000000000000000000, 0.000000000000000000, 0.000000000000000000, 0.000000000000000000, 0.000000000000000000, 0.000000000000000000 ) ;
#40 = CARTESIAN_POINT ( 'NONE',  ( -1.224646799147353207E-16, 5.000000000000000000, 0.000000000000000000 ) ) ;
#41 = CARTESIAN_POINT ( 'NONE',  ( 0.000000000000000000, 0.000000000000000000, 0.000000000000000000 ) ) ;
#42 = CARTESIAN_POINT ( 'NONE',  ( -1.224646799147353207E-16, 5.000000000000000000, 0.000000000000000000 ) ) ;
#43 = CARTESIAN_POINT ( 'NONE',  ( 0.000000000000000000, 2.250000000000000000, 0.000000000000000000 ) ) ;
#44 = SURFACE_STYLE_FILL_AREA ( #164 ) ;
#45 = SURFACE_SIDE_STYLE ('',( #249 ) ) ;
#46 =( GEOMETRIC_REPRESENTATION_CONTEXT ( 3 ) GLOBAL_UNCERTAINTY_ASSIGNED_CONTEXT ( ( #9 ) ) GLOBAL_UNIT_ASSIGNED_CONTEXT ( ( #248, #199, #307 ) ) REPRESENTATION_CONTEXT ( 'NONE', 'WORKASPACE' ) );
#47 = SURFACE_STYLE_FILL_AREA ( #261 ) ;
#48 = ORIENTED_EDGE ( 'NONE', *, *, #233, .F. ) ;
#49 = MECHANICAL_DESIGN_GEOMETRIC_PRESENTATION_REPRESENTATION (  '', ( #235 ), #219 ) ;
#50 = PLANE ( 'NONE',  #152 ) ;
#51 = PRODUCT_DEFINITION_SHAPE ( 'NONE', 'NONE',  #32 ) ;
#52 = PRESENTATION_LAYER_ASSIGNMENT (  '', '', ( #230 ) ) ;
#53 =( LENGTH_UNIT ( ) NAMED_UNIT ( * ) SI_UNIT ( $, .METRE. ) );
#54 = MECHANICAL_DESIGN_GEOMETRIC_PRESENTATION_REPRESENTATION (  '', ( #24 ), #286 ) ;
#55 = ORIENTED_EDGE ( 'NONE', *, *, #104, .T. ) ;
#56 = ADVANCED_FACE ( 'NONE', ( #64 ), #202, .F. ) ;
#57 = AXIS2_PLACEMENT_3D ( 'NONE', #303, #204, #200 ) ;
#58 = AXIS2_PLACEMENT_3D ( 'NONE', #177, #302, #98 ) ;
#59 = ORIENTED_EDGE ( 'NONE', *, *, #270, .F. ) ;
#60 = VERTEX_POINT ( 'NONE', #18 ) ;
#61 = EDGE_CURVE ( 'NONE', #210, #147, #37, .T. ) ;
#62 = CYLINDRICAL_SURFACE ( 'NONE', #190, 0.3750000000000000555 ) ;
#63 = ADVANCED_FACE ( 'NONE', ( #139 ), #62, .T. ) ;
#64 = FACE_OUTER_BOUND ( 'NONE', #107, .T. ) ;
#65 = CARTESIAN_POINT ( 'NONE',  ( 0.000000000000000000, 0.000000000000000000, 0.000000000000000000 ) ) ;
#66 = DIRECTION ( 'NONE',  ( -1.000000000000000000, -4.453261087808557677E-17, 0.000000000000000000 ) ) ;
#67 = COLOUR_RGB ( '',1.000000000000000000, 0.000000000000000000, 0.000000000000000000 ) ;
#68 =( GEOMETRIC_REPRESENTATION_CONTEXT ( 3 ) GLOBAL_UNCERTAINTY_ASSIGNED_CONTEXT ( ( #291 ) ) GLOBAL_UNIT_ASSIGNED_CONTEXT ( ( #8, #187, #80 ) ) REPRESENTATION_CONTEXT ( 'NONE', 'WORKASPACE' ) );
#69 = FACE_OUTER_BOUND ( 'NONE', #108, .T. ) ;
#70 = DIMENSIONAL_EXPONENTS ( 1.000000000000000000, 0.000000000000000000, 0.000000000000000000, 0.000000000000000000, 0.000000000000000000, 0.000000000000000000, 0.000000000000000000 ) ;
#71 =( CONVERSION_BASED_UNIT ( 'INCH', #93 ) LENGTH_UNIT ( ) NAMED_UNIT ( #247 ) );
#72 = DIRECTION ( 'NONE',  ( -4.453261087808557677E-17, 1.000000000000000000, -0.000000000000000000 ) ) ;
#73 =( CONVERSION_BASED_UNIT ( 'INCH', #181 ) LENGTH_UNIT ( ) NAMED_UNIT ( #39 ) );
#74 = VECTOR ( 'NONE', #172, 39.37007874015748143 ) ;
#75 = FILL_AREA_STYLE_COLOUR ( '', #206 ) ;
#76 = ORIENTED_EDGE ( 'NONE', *, *, #233, .T. ) ;
#77 = ADVANCED_FACE ( 'NONE', ( #13 ), #225, .T. ) ;
#78 = PRODUCT_DEFINITION_CONTEXT ( 'detailed design', #125, 'design' ) ;
#79 = ORIENTED_EDGE ( 'NONE', *, *, #180, .F. ) ;
#80 =( NAMED_UNIT ( * ) SI_UNIT ( $, .STERADIAN. ) SOLID_ANGLE_UNIT ( ) );
#81 = DIRECTION ( 'NONE',  ( -4.453261087808557677E-17, 1.000000000000000000, -0.000000000000000000 ) ) ;
#82 = PRODUCT_DEFINITION_FORMATION_WITH_SPECIFIED_SOURCE ( 'ANY', '', #237, .NOT_KNOWN. ) ;
#83 =( LENGTH_UNIT ( ) NAMED_UNIT ( * ) SI_UNIT ( $, .METRE. ) );
#84 = CARTESIAN_POINT ( 'NONE',  ( 1.516480271171051896E-32, 2.250000000000000444, 0.000000000000000000 ) ) ;
#85 = ORIENTED_EDGE ( 'NONE', *, *, #119, .F. ) ;
#86 = CLOSED_SHELL ( 'NONE', ( #63, #186, #77, #173 ) ) ;
#87 = SURFACE_STYLE_FILL_AREA ( #255 ) ;
#88 = MECHANICAL_DESIGN_GEOMETRIC_PRESENTATION_REPRESENTATION (  '', ( #230 ), #215 ) ;
#89 = VECTOR ( 'NONE', #289, 39.37007874015748143 ) ;
#90 =( LENGTH_UNIT ( ) NAMED_UNIT ( * ) SI_UNIT ( $, .METRE. ) );
#91 =( LENGTH_UNIT ( ) NAMED_UNIT ( * ) SI_UNIT ( $, .METRE. ) );
#92 = FACE_OUTER_BOUND ( 'NONE', #130, .T. ) ;
#93 = LENGTH_MEASURE_WITH_UNIT ( LENGTH_MEASURE( 0.02539999999999999897 ), #83 );
#94 = ADVANCED_FACE ( 'NONE', ( #17 ), #254, .T. ) ;
#95 = DIRECTION ( 'NONE',  ( -4.453261087808557677E-17, 1.000000000000000000, -0.000000000000000000 ) ) ;
#96 = CIRCLE ( 'NONE', #58, 0.3750000000000000555 ) ;
#97 = DIMENSIONAL_EXPONENTS ( 1.000000000000000000, 0.000000000000000000, 0.000000000000000000, 0.000000000000000000, 0.000000000000000000, 0.000000000000000000, 0.000000000000000000 ) ;
#98 = DIRECTION ( 'NONE',  ( 0.000000000000000000, 0.000000000000000000, -1.000000000000000000 ) ) ;
#99 = EDGE_CURVE ( 'NONE', #169, #265, #197, .T. ) ;
#100 = PRESENTATION_LAYER_ASSIGNMENT (  '', '', ( #134 ) ) ;
#101 = FILL_AREA_STYLE_COLOUR ( '', #111 ) ;
#102 =( LENGTH_UNIT ( ) NAMED_UNIT ( * ) SI_UNIT ( $, .METRE. ) );
#103 = LENGTH_MEASURE_WITH_UNIT ( LENGTH_MEASURE( 0.02539999999999999897 ), #217 );
#104 = EDGE_CURVE ( 'NONE', #147, #210, #14, .T. ) ;
#105 = SURFACE_SIDE_STYLE ('',( #34 ) ) ;
#106 = ORIENTED_EDGE ( 'NONE', *, *, #119, .T. ) ;
#107 = EDGE_LOOP ( 'NONE', ( #295, #153 ) ) ;
#108 = EDGE_LOOP ( 'NONE', ( #244, #106 ) ) ;
#109 = CARTESIAN_POINT ( 'NONE',  ( 0.000000000000000000, 0.000000000000000000, 0.000000000000000000 ) ) ;
#110 = CARTESIAN_POINT ( 'NONE',  ( 0.3750000000000000555, 2.250000000000000444, 4.592425496802576684E-17 ) ) ;
#111 = COLOUR_RGB ( '',1.000000000000000000, 0.000000000000000000, 0.000000000000000000 ) ;
#112 = DIRECTION ( 'NONE',  ( -0.000000000000000000, -1.000000000000000000, -0.000000000000000000 ) ) ;
#113 = PRESENTATION_STYLE_ASSIGNMENT (( #277 ) ) ;
#114 = DIRECTION ( 'NONE',  ( -0.000000000000000000, -1.000000000000000000, -0.000000000000000000 ) ) ;
#115 = FILL_AREA_STYLE_COLOUR ( '', #285 ) ;
#116 =( NAMED_UNIT ( * ) SI_UNIT ( $, .STERADIAN. ) SOLID_ANGLE_UNIT ( ) );
#117 = ADVANCED_FACE ( 'NONE', ( #92 ), #176, .T. ) ;
#118 = CARTESIAN_POINT ( 'NONE',  ( 4.592425496802575451E-17, 2.250000000000000000, 0.3750000000000000555 ) ) ;
#119 = EDGE_CURVE ( 'NONE', #10, #31, #96, .T. ) ;
#120 = LINE ( 'NONE', #234, #89 ) ;
#121 = UNCERTAINTY_MEASURE_WITH_UNIT (LENGTH_MEASURE( 1.000000000000000082E-05 ), #73, 'distance_accuracy_value', 'NONE');
#122 = DIRECTION ( 'NONE',  ( -1.000000000000000000, 0.000000000000000000, 0.000000000000000000 ) ) ;
#123 = PRESENTATION_LAYER_ASSIGNMENT (  '', '', ( #235 ) ) ;
#124 = CIRCLE ( 'NONE', #308, 0.3750000000000001665 ) ;
#125 = APPLICATION_CONTEXT ( 'automotive_design' ) ;
#126 = ORIENTED_EDGE ( 'NONE', *, *, #99, .F. ) ;
#127 = CARTESIAN_POINT ( 'NONE',  ( -0.3750000000000002220, 5.000000000000000000, 0.000000000000000000 ) ) ;
#128 = MECHANICAL_DESIGN_GEOMETRIC_PRESENTATION_REPRESENTATION (  '', ( #157 ), #216 ) ;
#129 = AXIS2_PLACEMENT_3D ( 'NONE', #201, #72, #283 ) ;
#130 = EDGE_LOOP ( 'NONE', ( #298, #246, #268, #48 ) ) ;
#131 = ADVANCED_FACE ( 'NONE', ( #205 ), #132, .F. ) ;
#132 = PLANE ( 'NONE',  #305 ) ;
#133 = CARTESIAN_POINT ( 'NONE',  ( 0.000000000000000000, 0.000000000000000000, -0.3750000000000000555 ) ) ;
#134 = STYLED_ITEM ( 'NONE', ( #194 ), #211 ) ;
#135 = SURFACE_STYLE_USAGE ( .BOTH. , #45 ) ;
#136 = DIRECTION ( 'NONE',  ( 0.000000000000000000, 0.000000000000000000, -1.000000000000000000 ) ) ;
#137 = PRODUCT_CONTEXT ( 'NONE', #218, 'mechanical' ) ;
#138 = DIRECTION ( 'NONE',  ( -4.453261087808557677E-17, 1.000000000000000000, -0.000000000000000000 ) ) ;
#139 = FACE_OUTER_BOUND ( 'NONE', #28, .T. ) ;
#140 =( NAMED_UNIT ( * ) PLANE_ANGLE_UNIT ( ) SI_UNIT ( $, .RADIAN. ) );
#141 =( NAMED_UNIT ( * ) PLANE_ANGLE_UNIT ( ) SI_UNIT ( $, .RADIAN. ) );
#142 =( GEOMETRIC_REPRESENTATION_CONTEXT ( 3 ) GLOBAL_UNCERTAINTY_ASSIGNED_CONTEXT ( ( #1 ) ) GLOBAL_UNIT_ASSIGNED_CONTEXT ( ( #6, #296, #149 ) ) REPRESENTATION_CONTEXT ( 'NONE', 'WORKASPACE' ) );
#143 = DIRECTION ( 'NONE',  ( 0.000000000000000000, 1.000000000000000000, 0.000000000000000000 ) ) ;
#144 = EDGE_CURVE ( 'NONE', #31, #10, #166, .T. ) ;
#145 = ORIENTED_EDGE ( 'NONE', *, *, #61, .T. ) ;
#146 = EDGE_CURVE ( 'NONE', #265, #60, #192, .T. ) ;
#147 = VERTEX_POINT ( 'NONE', #174 ) ;
#148 = PRESENTATION_STYLE_ASSIGNMENT (( #293 ) ) ;
#149 =( NAMED_UNIT ( * ) SI_UNIT ( $, .STERADIAN. ) SOLID_ANGLE_UNIT ( ) );
#150 = FILL_AREA_STYLE_COLOUR ( '', #165 ) ;
#151 = LENGTH_MEASURE_WITH_UNIT ( LENGTH_MEASURE( 0.02539999999999999897 ), #53 );
#152 = AXIS2_PLACEMENT_3D ( 'NONE', #162, #143, #232 ) ;
#153 = ORIENTED_EDGE ( 'NONE', *, *, #146, .T. ) ;
#154 = LENGTH_MEASURE_WITH_UNIT ( LENGTH_MEASURE( 0.02539999999999999897 ), #90 );
#155 = FILL_AREA_STYLE ('',( #19 ) ) ;
#156 = APPLICATION_PROTOCOL_DEFINITION ( 'draft international standard', 'automotive_design', 1998, #218 ) ;
#157 = STYLED_ITEM ( 'NONE', ( #148 ), #7 ) ;
#158 =( NAMED_UNIT ( * ) SI_UNIT ( $, .STERADIAN. ) SOLID_ANGLE_UNIT ( ) );
#159 = FILL_AREA_STYLE ('',( #115 ) ) ;
#160 = PLANE ( 'NONE',  #170 ) ;
#161 = PRESENTATION_STYLE_ASSIGNMENT (( #274 ) ) ;
#162 = CARTESIAN_POINT ( 'NONE',  ( 0.000000000000000000, 2.250000000000000000, 0.000000000000000000 ) ) ;
#163 =( NAMED_UNIT ( * ) SI_UNIT ( $, .STERADIAN. ) SOLID_ANGLE_UNIT ( ) );
#164 = FILL_AREA_STYLE ('',( #101 ) ) ;
#165 = COLOUR_RGB ( '',0.7921568627450980005, 0.8196078431372548767, 0.9333333333333333481 ) ;
#166 = CIRCLE ( 'NONE', #280, 0.3750000000000000555 ) ;
#167 = DIRECTION ( 'NONE',  ( 0.000000000000000000, 0.000000000000000000, -1.000000000000000000 ) ) ;
#168 = CLOSED_SHELL ( 'NONE', ( #117, #131, #94, #56 ) ) ;
#169 = VERTEX_POINT ( 'NONE', #110 ) ;
#170 = AXIS2_PLACEMENT_3D ( 'NONE', #184, #25, #167 ) ;
#171 = AXIS2_PLACEMENT_3D ( 'NONE', #65, #250, #253 ) ;
#172 = DIRECTION ( 'NONE',  ( -4.453261087808557677E-17, 1.000000000000000000, -0.000000000000000000 ) ) ;
#173 = ADVANCED_FACE ( 'NONE', ( #69 ), #160, .T. ) ;
#174 = CARTESIAN_POINT ( 'NONE',  ( 0.000000000000000000, 2.250000000000000000, -0.3750000000000000555 ) ) ;
#175 =( NAMED_UNIT ( * ) SI_UNIT ( $, .STERADIAN. ) SOLID_ANGLE_UNIT ( ) );
#176 = CYLINDRICAL_SURFACE ( 'NONE', #198, 0.3750000000000001110 ) ;
#177 = CARTESIAN_POINT ( 'NONE',  ( 0.000000000000000000, 0.000000000000000000, 0.000000000000000000 ) ) ;
#178 = DIMENSIONAL_EXPONENTS ( 1.000000000000000000, 0.000000000000000000, 0.000000000000000000, 0.000000000000000000, 0.000000000000000000, 0.000000000000000000, 0.000000000000000000 ) ;
#179 = SURFACE_SIDE_STYLE ('',( #87 ) ) ;
#180 = EDGE_CURVE ( 'NONE', #147, #31, #120, .T. ) ;
#181 = LENGTH_MEASURE_WITH_UNIT ( LENGTH_MEASURE( 0.02539999999999999897 ), #91 );
#182 = LENGTH_MEASURE_WITH_UNIT ( LENGTH_MEASURE( 0.02539999999999999897 ), #212 );
#183 = AXIS2_PLACEMENT_3D ( 'NONE', #207, #240, #193 ) ;
#184 = CARTESIAN_POINT ( 'NONE',  ( 0.000000000000000000, 0.000000000000000000, 0.000000000000000000 ) ) ;
#185 = EDGE_LOOP ( 'NONE', ( #294, #145, #222, #85 ) ) ;
#186 = ADVANCED_FACE ( 'NONE', ( #209 ), #50, .T. ) ;
#187 =( NAMED_UNIT ( * ) PLANE_ANGLE_UNIT ( ) SI_UNIT ( $, .RADIAN. ) );
#188 = LENGTH_MEASURE_WITH_UNIT ( LENGTH_MEASURE( 0.02539999999999999897 ), #102 );
#189 =( NAMED_UNIT ( * ) PLANE_ANGLE_UNIT ( ) SI_UNIT ( $, .RADIAN. ) );
#190 = AXIS2_PLACEMENT_3D ( 'NONE', #41, #112, #16 ) ;
#191 = EDGE_LOOP ( 'NONE', ( #243, #59 ) ) ;
#192 = CIRCLE ( 'NONE', #239, 0.3750000000000001665 ) ;
#193 = DIRECTION ( 'NONE',  ( -1.000000000000000000, 0.000000000000000000, 0.000000000000000000 ) ) ;
#194 = PRESENTATION_STYLE_ASSIGNMENT (( #309 ) ) ;
#195 = FILL_AREA_STYLE ('',( #150 ) ) ;
#196 = VERTEX_POINT ( 'NONE', #21 ) ;
#197 = LINE ( 'NONE', #306, #74 ) ;
#198 = AXIS2_PLACEMENT_3D ( 'NONE', #42, #138, #227 ) ;
#199 =( NAMED_UNIT ( * ) PLANE_ANGLE_UNIT ( ) SI_UNIT ( $, .RADIAN. ) );
#200 = DIRECTION ( 'NONE',  ( 1.000000000000000000, 4.453261087808557677E-17, 0.000000000000000000 ) ) ;
#201 = CARTESIAN_POINT ( 'NONE',  ( -1.224646799147353207E-16, 5.000000000000000000, 0.000000000000000000 ) ) ;
#202 = PLANE ( 'NONE',  #57 ) ;
#203 = DIRECTION ( 'NONE',  ( -0.000000000000000000, -1.000000000000000000, -0.000000000000000000 ) ) ;
#204 = DIRECTION ( 'NONE',  ( 4.453261087808557677E-17, -1.000000000000000000, 0.000000000000000000 ) ) ;
#205 = FACE_OUTER_BOUND ( 'NONE', #191, .T. ) ;
#206 = COLOUR_RGB ( '',0.7921568627450980005, 0.8196078431372548767, 0.9333333333333333481 ) ;
#207 = CARTESIAN_POINT ( 'NONE',  ( 1.516480271171051896E-32, 2.250000000000000444, 0.000000000000000000 ) ) ;
#208 = SURFACE_SIDE_STYLE ('',( #47 ) ) ;
#209 = FACE_OUTER_BOUND ( 'NONE', #221, .T. ) ;
#210 = VERTEX_POINT ( 'NONE', #118 ) ;
#211 = MANIFOLD_SOLID_BREP ( 'Revolve - Cutting Edge', #86 ) ;
#212 =( LENGTH_UNIT ( ) NAMED_UNIT ( * ) SI_UNIT ( $, .METRE. ) );
#213 = EDGE_CURVE ( 'NONE', #196, #169, #266, .T. ) ;
#214 = LINE ( 'NONE', #127, #20 ) ;
#215 =( GEOMETRIC_REPRESENTATION_CONTEXT ( 3 ) GLOBAL_UNCERTAINTY_ASSIGNED_CONTEXT ( ( #121 ) ) GLOBAL_UNIT_ASSIGNED_CONTEXT ( ( #73, #141, #116 ) ) REPRESENTATION_CONTEXT ( 'NONE', 'WORKASPACE' ) );
#216 =( GEOMETRIC_REPRESENTATION_CONTEXT ( 3 ) GLOBAL_UNCERTAINTY_ASSIGNED_CONTEXT ( ( #287 ) ) GLOBAL_UNIT_ASSIGNED_CONTEXT ( ( #71, #228, #175 ) ) REPRESENTATION_CONTEXT ( 'NONE', 'WORKASPACE' ) );
#217 =( LENGTH_UNIT ( ) NAMED_UNIT ( * ) SI_UNIT ( $, .METRE. ) );
#218 = APPLICATION_CONTEXT ( 'automotive_design' ) ;
#219 =( GEOMETRIC_REPRESENTATION_CONTEXT ( 3 ) GLOBAL_UNCERTAINTY_ASSIGNED_CONTEXT ( ( #236 ) ) GLOBAL_UNIT_ASSIGNED_CONTEXT ( ( #242, #189, #158 ) ) REPRESENTATION_CONTEXT ( 'NONE', 'WORKASPACE' ) );
#220 = DIRECTION ( 'NONE',  ( -4.453261087808557677E-17, 1.000000000000000000, -0.000000000000000000 ) ) ;
#221 = EDGE_LOOP ( 'NONE', ( #267, #223 ) ) ;
#222 = ORIENTED_EDGE ( 'NONE', *, *, #180, .T. ) ;
#223 = ORIENTED_EDGE ( 'NONE', *, *, #61, .F. ) ;
#224 = DIRECTION ( 'NONE',  ( -0.000000000000000000, -1.000000000000000000, -0.000000000000000000 ) ) ;
#225 = CYLINDRICAL_SURFACE ( 'NONE', #245, 0.3750000000000000555 ) ;
#226 = APPLICATION_PROTOCOL_DEFINITION ( 'draft international standard', 'automotive_design', 1998, #125 ) ;
#227 = DIRECTION ( 'NONE',  ( -1.000000000000000000, 0.000000000000000000, 0.000000000000000000 ) ) ;
#228 =( NAMED_UNIT ( * ) PLANE_ANGLE_UNIT ( ) SI_UNIT ( $, .RADIAN. ) );
#229 = DIMENSIONAL_EXPONENTS ( 1.000000000000000000, 0.000000000000000000, 0.000000000000000000, 0.000000000000000000, 0.000000000000000000, 0.000000000000000000, 0.000000000000000000 ) ;
#230 = STYLED_ITEM ( 'NONE', ( #279 ), #63 ) ;
#231 = AXIS2_PLACEMENT_3D ( 'NONE', #84, #220, #122 ) ;
#232 = DIRECTION ( 'NONE',  ( 0.000000000000000000, -0.000000000000000000, 1.000000000000000000 ) ) ;
#233 = EDGE_CURVE ( 'NONE', #196, #60, #214, .T. ) ;
#234 = CARTESIAN_POINT ( 'NONE',  ( 0.000000000000000000, 0.000000000000000000, -0.3750000000000000555 ) ) ;
#235 = STYLED_ITEM ( 'NONE', ( #113 ), #77 ) ;
#236 = UNCERTAINTY_MEASURE_WITH_UNIT (LENGTH_MEASURE( 1.000000000000000082E-05 ), #242, 'distance_accuracy_value', 'NONE');
#237 = PRODUCT ( '59274', '59274', '', ( #137 ) ) ;
#238 = PRESENTATION_LAYER_ASSIGNMENT (  '', '', ( #157 ) ) ;
#239 = AXIS2_PLACEMENT_3D ( 'NONE', #40, #95, #281 ) ;
#240 = DIRECTION ( 'NONE',  ( -4.453261087808557677E-17, 1.000000000000000000, -0.000000000000000000 ) ) ;
#241 = LINE ( 'NONE', #284, #258 ) ;
#242 =( CONVERSION_BASED_UNIT ( 'INCH', #103 ) LENGTH_UNIT ( ) NAMED_UNIT ( #257 ) );
#243 = ORIENTED_EDGE ( 'NONE', *, *, #213, .F. ) ;
#244 = ORIENTED_EDGE ( 'NONE', *, *, #144, .T. ) ;
#245 = AXIS2_PLACEMENT_3D ( 'NONE', #11, #15, #136 ) ;
#246 = ORIENTED_EDGE ( 'NONE', *, *, #99, .T. ) ;
#247 = DIMENSIONAL_EXPONENTS ( 1.000000000000000000, 0.000000000000000000, 0.000000000000000000, 0.000000000000000000, 0.000000000000000000, 0.000000000000000000, 0.000000000000000000 ) ;
#248 =( CONVERSION_BASED_UNIT ( 'INCH', #154 ) LENGTH_UNIT ( ) NAMED_UNIT ( #70 ) );
#249 = SURFACE_STYLE_FILL_AREA ( #159 ) ;
#250 = DIRECTION ( 'NONE',  ( 0.000000000000000000, 0.000000000000000000, 1.000000000000000000 ) ) ;
#251 = CARTESIAN_POINT ( 'NONE',  ( 0.000000000000000000, 2.250000000000000000, 0.000000000000000000 ) ) ;
#252 = CARTESIAN_POINT ( 'NONE',  ( 4.592425496802575451E-17, 0.000000000000000000, 0.3750000000000000555 ) ) ;
#253 = DIRECTION ( 'NONE',  ( 1.000000000000000000, 0.000000000000000000, 0.000000000000000000 ) ) ;
#254 = CYLINDRICAL_SURFACE ( 'NONE', #129, 0.3750000000000001110 ) ;
#255 = FILL_AREA_STYLE ('',( #299 ) ) ;
#256 = DIRECTION ( 'NONE',  ( -0.000000000000000000, -1.000000000000000000, -0.000000000000000000 ) ) ;
#257 = DIMENSIONAL_EXPONENTS ( 1.000000000000000000, 0.000000000000000000, 0.000000000000000000, 0.000000000000000000, 0.000000000000000000, 0.000000000000000000, 0.000000000000000000 ) ;
#258 = VECTOR ( 'NONE', #256, 39.37007874015748143 ) ;
#259 = CIRCLE ( 'NONE', #231, 0.3750000000000000555 ) ;
#260 = PRESENTATION_LAYER_ASSIGNMENT (  '', '', ( #24 ) ) ;
#261 = FILL_AREA_STYLE ('',( #75 ) ) ;
#262 = ORIENTED_EDGE ( 'NONE', *, *, #36, .T. ) ;
#263 = SURFACE_SIDE_STYLE ('',( #44 ) ) ;
#264 = MECHANICAL_DESIGN_GEOMETRIC_PRESENTATION_REPRESENTATION (  '', ( #30 ), #46 ) ;
#265 = VERTEX_POINT ( 'NONE', #269 ) ;
#266 = CIRCLE ( 'NONE', #183, 0.3750000000000000555 ) ;
#267 = ORIENTED_EDGE ( 'NONE', *, *, #104, .F. ) ;
#268 = ORIENTED_EDGE ( 'NONE', *, *, #292, .F. ) ;
#269 = CARTESIAN_POINT ( 'NONE',  ( 0.3750000000000000555, 5.000000000000000000, 4.592425496802576684E-17 ) ) ;
#270 = EDGE_CURVE ( 'NONE', #169, #196, #259, .T. ) ;
#271 = SHAPE_DEFINITION_REPRESENTATION ( #51, #282 ) ;
#272 = ORIENTED_EDGE ( 'NONE', *, *, #146, .F. ) ;
#273 = AXIS2_PLACEMENT_3D ( 'NONE', #251, #114, #12 ) ;
#274 = SURFACE_STYLE_USAGE ( .BOTH. , #179 ) ;
#275 = CARTESIAN_POINT ( 'NONE',  ( 3.718412684285598933E-34, 2.250000000000000000, 0.000000000000000000 ) ) ;
#276 = UNCERTAINTY_MEASURE_WITH_UNIT (LENGTH_MEASURE( 1.000000000000000082E-05 ), #2, 'distance_accuracy_value', 'NONE');
#277 = SURFACE_STYLE_USAGE ( .BOTH. , #301 ) ;
#278 = DIRECTION ( 'NONE',  ( -4.453261087808557677E-17, 1.000000000000000000, 0.000000000000000000 ) ) ;
#279 = PRESENTATION_STYLE_ASSIGNMENT (( #135 ) ) ;
#280 = AXIS2_PLACEMENT_3D ( 'NONE', #109, #203, #304 ) ;
#281 = DIRECTION ( 'NONE',  ( -1.000000000000000000, 0.000000000000000000, 0.000000000000000000 ) ) ;
#282 = ADVANCED_BREP_SHAPE_REPRESENTATION ( '59274', ( #211, #7, #171 ), #142 ) ;
#283 = DIRECTION ( 'NONE',  ( -1.000000000000000000, 0.000000000000000000, 0.000000000000000000 ) ) ;
#284 = CARTESIAN_POINT ( 'NONE',  ( 4.592425496802575451E-17, 0.000000000000000000, 0.3750000000000000555 ) ) ;
#285 = COLOUR_RGB ( '',1.000000000000000000, 0.000000000000000000, 0.000000000000000000 ) ;
#286 =( GEOMETRIC_REPRESENTATION_CONTEXT ( 3 ) GLOBAL_UNCERTAINTY_ASSIGNED_CONTEXT ( ( #276 ) ) GLOBAL_UNIT_ASSIGNED_CONTEXT ( ( #2, #140, #163 ) ) REPRESENTATION_CONTEXT ( 'NONE', 'WORKASPACE' ) );
#287 = UNCERTAINTY_MEASURE_WITH_UNIT (LENGTH_MEASURE( 1.000000000000000082E-05 ), #71, 'distance_accuracy_value', 'NONE');
#288 = PRODUCT_RELATED_PRODUCT_CATEGORY ( 'part', '', ( #237 ) ) ;
#289 = DIRECTION ( 'NONE',  ( -0.000000000000000000, -1.000000000000000000, -0.000000000000000000 ) ) ;
#290 = COLOUR_RGB ( '',1.000000000000000000, 0.000000000000000000, 0.000000000000000000 ) ;
#291 = UNCERTAINTY_MEASURE_WITH_UNIT (LENGTH_MEASURE( 1.000000000000000082E-05 ), #8, 'distance_accuracy_value', 'NONE');
#292 = EDGE_CURVE ( 'NONE', #60, #265, #124, .T. ) ;
#293 = SURFACE_STYLE_USAGE ( .BOTH. , #105 ) ;
#294 = ORIENTED_EDGE ( 'NONE', *, *, #36, .F. ) ;
#295 = ORIENTED_EDGE ( 'NONE', *, *, #292, .T. ) ;
#296 =( NAMED_UNIT ( * ) PLANE_ANGLE_UNIT ( ) SI_UNIT ( $, .RADIAN. ) );
#297 = ORIENTED_EDGE ( 'NONE', *, *, #270, .T. ) ;
#298 = ORIENTED_EDGE ( 'NONE', *, *, #213, .T. ) ;
#299 = FILL_AREA_STYLE_COLOUR ( '', #290 ) ;
#300 = MECHANICAL_DESIGN_GEOMETRIC_PRESENTATION_REPRESENTATION (  '', ( #134 ), #68 ) ;
#301 = SURFACE_SIDE_STYLE ('',( #35 ) ) ;
#302 = DIRECTION ( 'NONE',  ( -0.000000000000000000, -1.000000000000000000, -0.000000000000000000 ) ) ;
#303 = CARTESIAN_POINT ( 'NONE',  ( 0.3750000000000000555, 5.000000000000000000, 0.000000000000000000 ) ) ;
#304 = DIRECTION ( 'NONE',  ( 0.000000000000000000, 0.000000000000000000, -1.000000000000000000 ) ) ;
#305 = AXIS2_PLACEMENT_3D ( 'NONE', #275, #278, #66 ) ;
#306 = CARTESIAN_POINT ( 'NONE',  ( 0.3749999999999999445, 5.000000000000000000, 4.592425496802576068E-17 ) ) ;
#307 =( NAMED_UNIT ( * ) SI_UNIT ( $, .STERADIAN. ) SOLID_ANGLE_UNIT ( ) );
#308 = AXIS2_PLACEMENT_3D ( 'NONE', #29, #81, #3 ) ;
#309 = SURFACE_STYLE_USAGE ( .BOTH. , #208 ) ;
ENDSEC;
END-ISO-10303-21;
