ISO-10303-21;
HEADER;
FILE_DESCRIPTION (( 'STEP AP214' ),
    '1' );
FILE_NAME ('Micro_KC-500-1500-118.STEP',
    '2021-09-03T19:45:40',
    ( '' ),
    ( '' ),
    'SwSTEP 2.0',
    'SolidWorks 2020',
    '' );
FILE_SCHEMA (( 'AUTOMOTIVE_DESIGN' ));
ENDSEC;

DATA;
#1 = DIMENSIONAL_EXPONENTS ( 1.000000000000000000, 0.0000000000000000000, 0.0000000000000000000, 0.0000000000000000000, 0.0000000000000000000, 0.0000000000000000000, 0.0000000000000000000 ) ;
#2 = DIRECTION ( 'NONE',  ( -1.000000000000000000, 0.0000000000000000000, 0.0000000000000000000 ) ) ;
#3 = ORIENTED_EDGE ( 'NONE', *, *, #313, .F. ) ;
#4 = DIRECTION ( 'NONE',  ( -1.000000000000000000, 0.0000000000000000000, 0.0000000000000000000 ) ) ;
#5 = ORIENTED_EDGE ( 'NONE', *, *, #27, .F. ) ;
#6 = ORIENTED_EDGE ( 'NONE', *, *, #66, .T. ) ;
#7 = LENGTH_MEASURE_WITH_UNIT ( LENGTH_MEASURE( 0.02539999999999999897 ), #244 );
#8 = DIRECTION ( 'NONE',  ( 0.7071067811865402453, 8.659560562354845344E-17, -0.7071067811865546782 ) ) ;
#9 =( CONVERSION_BASED_UNIT ( 'INCH', #7 ) LENGTH_UNIT ( ) NAMED_UNIT ( #267 ) );
#10 = VECTOR ( 'NONE', #25, 39.37007874015748143 ) ;
#11 = ADVANCED_FACE ( 'NONE', ( #303 ), #276, .T. ) ;
#12 = CARTESIAN_POINT ( 'NONE',  ( 0.0000000000000000000, 0.0000000000000000000, 0.1180000000000000077 ) ) ;
#13 = ADVANCED_FACE ( 'NONE', ( #189 ), #82, .T. ) ;
#14 = DIRECTION ( 'NONE',  ( 0.0000000000000000000, 0.0000000000000000000, 1.000000000000000000 ) ) ;
#15 = PRODUCT_RELATED_PRODUCT_CATEGORY ( 'part', '', ( #16 ) ) ;
#16 = PRODUCT ( 'Micro_KC-500-1500-118', 'Micro_KC-500-1500-118', '', ( #157 ) ) ;
#17 = EDGE_LOOP ( 'NONE', ( #234, #221, #105, #357 ) ) ;
#18 = LINE ( 'NONE', #126, #156 ) ;
#19 = AXIS2_PLACEMENT_3D ( 'NONE', #104, #197, #379 ) ;
#20 = VECTOR ( 'NONE', #283, 39.37007874015748854 ) ;
#21 = DIRECTION ( 'NONE',  ( 0.0000000000000000000, 0.0000000000000000000, -1.000000000000000000 ) ) ;
#22 = UNCERTAINTY_MEASURE_WITH_UNIT (LENGTH_MEASURE( 1.000000000000000082E-05 ), #364, 'distance_accuracy_value', 'NONE');
#23 = ORIENTED_EDGE ( 'NONE', *, *, #44, .F. ) ;
#24 = DIRECTION ( 'NONE',  ( 1.000000000000000000, 0.0000000000000000000, -0.0000000000000000000 ) ) ;
#25 = DIRECTION ( 'NONE',  ( -0.0000000000000000000, -0.0000000000000000000, -1.000000000000000000 ) ) ;
#26 = FACE_OUTER_BOUND ( 'NONE', #185, .T. ) ;
#27 = EDGE_CURVE ( 'NONE', #54, #195, #18, .T. ) ;
#28 = CARTESIAN_POINT ( 'NONE',  ( 0.0000000000000000000, 0.0000000000000000000, 3.000000000000000444 ) ) ;
#29 = ORIENTED_EDGE ( 'NONE', *, *, #76, .F. ) ;
#30 = EDGE_CURVE ( 'NONE', #80, #164, #301, .T. ) ;
#31 = EDGE_CURVE ( 'NONE', #240, #179, #220, .T. ) ;
#32 = FACE_OUTER_BOUND ( 'NONE', #248, .T. ) ;
#33 = DIRECTION ( 'NONE',  ( 0.0000000000000000000, 0.0000000000000000000, 1.000000000000000000 ) ) ;
#34 = ORIENTED_EDGE ( 'NONE', *, *, #46, .T. ) ;
#35 = FILL_AREA_STYLE_COLOUR ( '', #279 ) ;
#36 = VECTOR ( 'NONE', #270, 39.37007874015748143 ) ;
#37 = CIRCLE ( 'NONE', #60, 0.2500000000000000000 ) ;
#38 = CARTESIAN_POINT ( 'NONE',  ( 0.0000000000000000000, 0.0000000000000000000, 0.0000000000000000000 ) ) ;
#39 = DIMENSIONAL_EXPONENTS ( 1.000000000000000000, 0.0000000000000000000, 0.0000000000000000000, 0.0000000000000000000, 0.0000000000000000000, 0.0000000000000000000, 0.0000000000000000000 ) ;
#40 = EDGE_CURVE ( 'NONE', #213, #54, #370, .T. ) ;
#41 = FACE_OUTER_BOUND ( 'NONE', #367, .T. ) ;
#42 = AXIS2_PLACEMENT_3D ( 'NONE', #154, #192, #277 ) ;
#43 = COLOUR_RGB ( '',0.7921568627450980005, 0.8196078431372548767, 0.9333333333333333481 ) ;
#44 = EDGE_CURVE ( 'NONE', #80, #179, #297, .T. ) ;
#45 = CIRCLE ( 'NONE', #123, 0.1250000000000001943 ) ;
#46 = EDGE_CURVE ( 'NONE', #78, #164, #145, .T. ) ;
#47 = ORIENTED_EDGE ( 'NONE', *, *, #165, .T. ) ;
#48 = DIRECTION ( 'NONE',  ( 1.000000000000000000, 0.0000000000000000000, -0.0000000000000000000 ) ) ;
#49 = ADVANCED_FACE ( 'NONE', ( #242 ), #293, .T. ) ;
#50 = VECTOR ( 'NONE', #256, 39.37007874015748854 ) ;
#51 = DIRECTION ( 'NONE',  ( 0.0000000000000000000, 0.0000000000000000000, -1.000000000000000000 ) ) ;
#52 = DIRECTION ( 'NONE',  ( 1.000000000000000000, 0.0000000000000000000, 0.0000000000000000000 ) ) ;
#53 = CARTESIAN_POINT ( 'NONE',  ( 0.1250000000000001110, 1.530808498934192742E-17, 0.0000000000000000000 ) ) ;
#54 = VERTEX_POINT ( 'NONE', #163 ) ;
#55 = FACE_BOUND ( 'NONE', #372, .T. ) ;
#56 = DIRECTION ( 'NONE',  ( -0.7071067811865402453, 0.0000000000000000000, -0.7071067811865546782 ) ) ;
#57 = ORIENTED_EDGE ( 'NONE', *, *, #76, .T. ) ;
#58 = CARTESIAN_POINT ( 'NONE',  ( 0.0000000000000000000, 0.0000000000000000000, 0.0000000000000000000 ) ) ;
#59 = DIRECTION ( 'NONE',  ( -1.000000000000000000, 0.0000000000000000000, 0.0000000000000000000 ) ) ;
#60 = AXIS2_PLACEMENT_3D ( 'NONE', #38, #113, #298 ) ;
#61 = LINE ( 'NONE', #343, #20 ) ;
#62 = FACE_OUTER_BOUND ( 'NONE', #89, .T. ) ;
#63 = EDGE_CURVE ( 'NONE', #179, #251, #170, .T. ) ;
#64 = CYLINDRICAL_SURFACE ( 'NONE', #95, 0.1250000000000001110 ) ;
#65 = DIRECTION ( 'NONE',  ( -1.000000000000000000, 0.0000000000000000000, 0.0000000000000000000 ) ) ;
#66 = EDGE_CURVE ( 'NONE', #332, #240, #45, .T. ) ;
#67 = FACE_OUTER_BOUND ( 'NONE', #160, .T. ) ;
#68 = ADVANCED_FACE ( 'NONE', ( #106 ), #348, .T. ) ;
#69 = AXIS2_PLACEMENT_3D ( 'NONE', #255, #21, #373 ) ;
#70 = CARTESIAN_POINT ( 'NONE',  ( 0.0000000000000000000, 0.0000000000000000000, 1.500000000000000222 ) ) ;
#71 = CIRCLE ( 'NONE', #69, 0.2500000000000000000 ) ;
#72 = STYLED_ITEM ( 'NONE', ( #209 ), #361 ) ;
#73 = ORIENTED_EDGE ( 'NONE', *, *, #96, .T. ) ;
#74 = CIRCLE ( 'NONE', #287, 0.2500000000000000555 ) ;
#75 = AXIS2_PLACEMENT_3D ( 'NONE', #12, #328, #65 ) ;
#76 = EDGE_CURVE ( 'NONE', #155, #97, #339, .T. ) ;
#77 = EDGE_CURVE ( 'NONE', #332, #155, #88, .T. ) ;
#78 = VERTEX_POINT ( 'NONE', #322 ) ;
#79 = ORIENTED_EDGE ( 'NONE', *, *, #241, .T. ) ;
#80 = VERTEX_POINT ( 'NONE', #171 ) ;
#81 = LINE ( 'NONE', #312, #10 ) ;
#82 = CONICAL_SURFACE ( 'NONE', #42, 0.1250000000000001943, 0.7853981633974500554 ) ;
#83 = VECTOR ( 'NONE', #56, 39.37007874015748854 ) ;
#84 = DIRECTION ( 'NONE',  ( -1.000000000000000000, 0.0000000000000000000, 0.0000000000000000000 ) ) ;
#85 = LINE ( 'NONE', #317, #83 ) ;
#86 = DIRECTION ( 'NONE',  ( -0.0000000000000000000, -0.0000000000000000000, -1.000000000000000000 ) ) ;
#87 = ADVANCED_FACE ( 'NONE', ( #62 ), #191, .T. ) ;
#88 = LINE ( 'NONE', #53, #180 ) ;
#89 = EDGE_LOOP ( 'NONE', ( #239, #6, #73, #29 ) ) ;
#90 = DIRECTION ( 'NONE',  ( -1.000000000000000000, 0.0000000000000000000, 0.0000000000000000000 ) ) ;
#91 = DIRECTION ( 'NONE',  ( 1.000000000000000000, 0.0000000000000000000, 0.0000000000000000000 ) ) ;
#92 = EDGE_LOOP ( 'NONE', ( #177, #107, #143, #124 ) ) ;
#93 = ADVANCED_FACE ( 'NONE', ( #55, #32 ), #228, .T. ) ;
#94 = AXIS2_PLACEMENT_3D ( 'NONE', #129, #200, #308 ) ;
#95 = AXIS2_PLACEMENT_3D ( 'NONE', #222, #349, #246 ) ;
#96 = EDGE_CURVE ( 'NONE', #240, #97, #225, .T. ) ;
#97 = VERTEX_POINT ( 'NONE', #135 ) ;
#98 = MECHANICAL_DESIGN_GEOMETRIC_PRESENTATION_REPRESENTATION (  '', ( #329 ), #320 ) ;
#99 = DIRECTION ( 'NONE',  ( 1.000000000000000000, 0.0000000000000000000, 0.0000000000000000000 ) ) ;
#100 = ADVANCED_FACE ( 'NONE', ( #281 ), #224, .T. ) ;
#101 = FILL_AREA_STYLE ('',( #273 ) ) ;
#102 = DIRECTION ( 'NONE',  ( 1.000000000000000000, 0.0000000000000000000, 0.0000000000000000000 ) ) ;
#103 = EDGE_CURVE ( 'NONE', #164, #80, #71, .T. ) ;
#104 = CARTESIAN_POINT ( 'NONE',  ( 0.0000000000000000000, 0.0000000000000000000, 0.0000000000000000000 ) ) ;
#105 = ORIENTED_EDGE ( 'NONE', *, *, #44, .T. ) ;
#106 = FACE_OUTER_BOUND ( 'NONE', #17, .T. ) ;
#107 = ORIENTED_EDGE ( 'NONE', *, *, #114, .F. ) ;
#108 = DIRECTION ( 'NONE',  ( 0.0000000000000000000, 0.0000000000000000000, 1.000000000000000000 ) ) ;
#109 = CARTESIAN_POINT ( 'NONE',  ( 0.0000000000000000000, 0.0000000000000000000, 3.000000000000000444 ) ) ;
#110 = ORIENTED_EDGE ( 'NONE', *, *, #31, .T. ) ;
#111 = ORIENTED_EDGE ( 'NONE', *, *, #118, .T. ) ;
#112 = CARTESIAN_POINT ( 'NONE',  ( 0.2350000000000011524, 2.877919977996294002E-17, 3.000000000000000444 ) ) ;
#113 = DIRECTION ( 'NONE',  ( 0.0000000000000000000, 0.0000000000000000000, 1.000000000000000000 ) ) ;
#114 = EDGE_CURVE ( 'NONE', #344, #78, #152, .T. ) ;
#115 = CARTESIAN_POINT ( 'NONE',  ( -0.2500000000000000000, 0.0000000000000000000, 3.000000000000000444 ) ) ;
#116 = SURFACE_STYLE_USAGE ( .BOTH. , #363 ) ;
#117 = EDGE_LOOP ( 'NONE', ( #130, #230, #3, #305 ) ) ;
#118 = EDGE_CURVE ( 'NONE', #195, #161, #358, .T. ) ;
#119 = LINE ( 'NONE', #295, #243 ) ;
#120 = CIRCLE ( 'NONE', #253, 0.1250000000000001943 ) ;
#121 = CARTESIAN_POINT ( 'NONE',  ( -0.2350000000000011524, 0.0000000000000000000, 3.000000000000000444 ) ) ;
#122 =( CONVERSION_BASED_UNIT ( 'INCH', #331 ) LENGTH_UNIT ( ) NAMED_UNIT ( #39 ) );
#123 = AXIS2_PLACEMENT_3D ( 'NONE', #167, #159, #231 ) ;
#124 = ORIENTED_EDGE ( 'NONE', *, *, #103, .F. ) ;
#125 = CARTESIAN_POINT ( 'NONE',  ( 0.0000000000000000000, 0.0000000000000000000, 3.000000000000000444 ) ) ;
#126 = CARTESIAN_POINT ( 'NONE',  ( -0.2500000000000000000, 0.0000000000000000000, 3.000000000000000444 ) ) ;
#127 = DIRECTION ( 'NONE',  ( 0.0000000000000000000, 0.0000000000000000000, -1.000000000000000000 ) ) ;
#128 = CARTESIAN_POINT ( 'NONE',  ( -0.1250000000000001943, 1.530808498934193974E-17, 1.500000000000000222 ) ) ;
#129 = CARTESIAN_POINT ( 'NONE',  ( 0.0000000000000000000, 0.0000000000000000000, 1.624999999999999556 ) ) ;
#130 = ORIENTED_EDGE ( 'NONE', *, *, #360, .T. ) ;
#131 = ORIENTED_EDGE ( 'NONE', *, *, #360, .F. ) ;
#132 = AXIS2_PLACEMENT_3D ( 'NONE', #316, #282, #48 ) ;
#133 = CARTESIAN_POINT ( 'NONE',  ( -0.1250000000000001110, 0.0000000000000000000, 0.0000000000000000000 ) ) ;
#134 = PLANE ( 'NONE',  #184 ) ;
#135 = CARTESIAN_POINT ( 'NONE',  ( -0.1250000000000000278, 0.0000000000000000000, 0.1180000000000000077 ) ) ;
#136 = CYLINDRICAL_SURFACE ( 'NONE', #153, 0.2500000000000000000 ) ;
#137 = EDGE_CURVE ( 'NONE', #54, #213, #74, .T. ) ;
#138 = EDGE_CURVE ( 'NONE', #213, #161, #81, .T. ) ;
#139 = CARTESIAN_POINT ( 'NONE',  ( 0.0000000000000000000, 0.0000000000000000000, 3.000000000000000444 ) ) ;
#140 = ORIENTED_EDGE ( 'NONE', *, *, #27, .T. ) ;
#141 = DIRECTION ( 'NONE',  ( -0.0000000000000000000, -0.0000000000000000000, -1.000000000000000000 ) ) ;
#142 = SURFACE_STYLE_FILL_AREA ( #354 ) ;
#143 = ORIENTED_EDGE ( 'NONE', *, *, #173, .T. ) ;
#144 = DIRECTION ( 'NONE',  ( -0.0000000000000000000, -0.0000000000000000000, -1.000000000000000000 ) ) ;
#145 = LINE ( 'NONE', #112, #252 ) ;
#146 = DIRECTION ( 'NONE',  ( -0.0000000000000000000, -0.0000000000000000000, -1.000000000000000000 ) ) ;
#147 = DIRECTION ( 'NONE',  ( -0.0000000000000000000, -0.0000000000000000000, -1.000000000000000000 ) ) ;
#148 = CLOSED_SHELL ( 'NONE', ( #211, #275, #296, #100, #207, #68, #11, #49, #13, #87, #93, #150, #375 ) ) ;
#149 =( LENGTH_UNIT ( ) NAMED_UNIT ( * ) SI_UNIT ( $, .METRE. ) );
#150 = ADVANCED_FACE ( 'NONE', ( #196 ), #134, .F. ) ;
#151 =( NAMED_UNIT ( * ) SI_UNIT ( $, .STERADIAN. ) SOLID_ANGLE_UNIT ( ) );
#152 = CIRCLE ( 'NONE', #377, 0.2350000000000011524 ) ;
#153 = AXIS2_PLACEMENT_3D ( 'NONE', #139, #168, #263 ) ;
#154 = CARTESIAN_POINT ( 'NONE',  ( 0.0000000000000000000, 0.0000000000000000000, 1.500000000000000222 ) ) ;
#155 = VERTEX_POINT ( 'NONE', #260 ) ;
#156 = VECTOR ( 'NONE', #309, 39.37007874015748143 ) ;
#157 = PRODUCT_CONTEXT ( 'NONE', #227, 'mechanical' ) ;
#158 = PRESENTATION_LAYER_ASSIGNMENT (  '', '', ( #329 ) ) ;
#159 = DIRECTION ( 'NONE',  ( -0.0000000000000000000, -0.0000000000000000000, -1.000000000000000000 ) ) ;
#160 = EDGE_LOOP ( 'NONE', ( #131, #110, #206, #217 ) ) ;
#161 = VERTEX_POINT ( 'NONE', #199 ) ;
#162 = CARTESIAN_POINT ( 'NONE',  ( -0.2500000000000000000, 0.0000000000000000000, 1.624999999999999556 ) ) ;
#163 = CARTESIAN_POINT ( 'NONE',  ( -0.2500000000000000555, 0.0000000000000000000, 0.1179999999999999799 ) ) ;
#164 = VERTEX_POINT ( 'NONE', #321 ) ;
#165 = EDGE_CURVE ( 'NONE', #332, #251, #61, .T. ) ;
#166 = SURFACE_STYLE_USAGE ( .BOTH. , #315 ) ;
#167 = CARTESIAN_POINT ( 'NONE',  ( 0.0000000000000000000, 0.0000000000000000000, 1.500000000000000222 ) ) ;
#168 = DIRECTION ( 'NONE',  ( -0.0000000000000000000, -0.0000000000000000000, -1.000000000000000000 ) ) ;
#169 = EDGE_LOOP ( 'NONE', ( #175, #229, #187, #5 ) ) ;
#170 = CIRCLE ( 'NONE', #94, 0.2500000000000000000 ) ;
#171 = CARTESIAN_POINT ( 'NONE',  ( -0.2500000000000000000, 0.0000000000000000000, 2.985000000000001208 ) ) ;
#172 = CONICAL_SURFACE ( 'NONE', #288, 0.1250000000000001943, 0.7853981633974500554 ) ;
#173 = EDGE_CURVE ( 'NONE', #344, #80, #85, .T. ) ;
#174 = DIRECTION ( 'NONE',  ( -0.0000000000000000000, -0.0000000000000000000, -1.000000000000000000 ) ) ;
#175 = ORIENTED_EDGE ( 'NONE', *, *, #137, .T. ) ;
#176 = CARTESIAN_POINT ( 'NONE',  ( -0.1250000000000001943, 2.296212748401288342E-17, 1.500000000000000222 ) ) ;
#177 = ORIENTED_EDGE ( 'NONE', *, *, #46, .F. ) ;
#178 = DIRECTION ( 'NONE',  ( -1.000000000000000000, 0.0000000000000000000, 0.0000000000000000000 ) ) ;
#179 = VERTEX_POINT ( 'NONE', #162 ) ;
#180 = VECTOR ( 'NONE', #174, 39.37007874015748143 ) ;
#181 = DIRECTION ( 'NONE',  ( -0.0000000000000000000, -0.0000000000000000000, -1.000000000000000000 ) ) ;
#182 = CARTESIAN_POINT ( 'NONE',  ( 0.0000000000000000000, 0.0000000000000000000, 0.0000000000000000000 ) ) ;
#183 = AXIS2_PLACEMENT_3D ( 'NONE', #285, #257, #376 ) ;
#184 = AXIS2_PLACEMENT_3D ( 'NONE', #182, #327, #245 ) ;
#185 = EDGE_LOOP ( 'NONE', ( #319, #218, #226, #23 ) ) ;
#186 = LENGTH_MEASURE_WITH_UNIT ( LENGTH_MEASURE( 0.02539999999999999897 ), #149 );
#187 = ORIENTED_EDGE ( 'NONE', *, *, #351, .T. ) ;
#188 = AXIS2_PLACEMENT_3D ( 'NONE', #58, #108, #335 ) ;
#189 = FACE_OUTER_BOUND ( 'NONE', #378, .T. ) ;
#190 = APPLICATION_PROTOCOL_DEFINITION ( 'draft international standard', 'automotive_design', 1998, #215 ) ;
#191 = CYLINDRICAL_SURFACE ( 'NONE', #19, 0.1250000000000001110 ) ;
#192 = DIRECTION ( 'NONE',  ( 0.0000000000000000000, 0.0000000000000000000, 1.000000000000000000 ) ) ;
#193 =( GEOMETRIC_REPRESENTATION_CONTEXT ( 3 ) GLOBAL_UNCERTAINTY_ASSIGNED_CONTEXT ( ( #371 ) ) GLOBAL_UNIT_ASSIGNED_CONTEXT ( ( #9, #300, #356 ) ) REPRESENTATION_CONTEXT ( 'NONE', 'WORKASPACE' ) );
#194 = CARTESIAN_POINT ( 'NONE',  ( 0.0000000000000000000, 0.0000000000000000000, 3.000000000000000444 ) ) ;
#195 = VERTEX_POINT ( 'NONE', #314 ) ;
#196 = FACE_OUTER_BOUND ( 'NONE', #336, .T. ) ;
#197 = DIRECTION ( 'NONE',  ( -0.0000000000000000000, -0.0000000000000000000, -1.000000000000000000 ) ) ;
#198 = CARTESIAN_POINT ( 'NONE',  ( 0.0000000000000000000, 0.0000000000000000000, 3.000000000000000444 ) ) ;
#199 = CARTESIAN_POINT ( 'NONE',  ( 0.2500000000000000000, 3.061616997868382402E-17, 0.0000000000000000000 ) ) ;
#200 = DIRECTION ( 'NONE',  ( -0.0000000000000000000, -0.0000000000000000000, -1.000000000000000000 ) ) ;
#201 = ORIENTED_EDGE ( 'NONE', *, *, #40, .F. ) ;
#202 = CARTESIAN_POINT ( 'NONE',  ( 0.0000000000000000000, 0.0000000000000000000, 1.500000000000000222 ) ) ;
#203 = ORIENTED_EDGE ( 'NONE', *, *, #138, .F. ) ;
#204 = ORIENTED_EDGE ( 'NONE', *, *, #31, .F. ) ;
#205 = DIRECTION ( 'NONE',  ( 0.0000000000000000000, 0.0000000000000000000, -1.000000000000000000 ) ) ;
#206 = ORIENTED_EDGE ( 'NONE', *, *, #63, .T. ) ;
#207 = ADVANCED_FACE ( 'NONE', ( #26 ), #136, .T. ) ;
#208 = AXIS2_PLACEMENT_3D ( 'NONE', #292, #146, #362 ) ;
#209 = PRESENTATION_STYLE_ASSIGNMENT (( #116 ) ) ;
#210 = EDGE_LOOP ( 'NONE', ( #347, #34, #284, #323 ) ) ;
#211 = ADVANCED_FACE ( 'NONE', ( #346 ), #290, .T. ) ;
#212 = AXIS2_PLACEMENT_3D ( 'NONE', #369, #51, #99 ) ;
#213 = VERTEX_POINT ( 'NONE', #289 ) ;
#214 = APPLICATION_PROTOCOL_DEFINITION ( 'draft international standard', 'automotive_design', 1998, #227 ) ;
#215 = APPLICATION_CONTEXT ( 'automotive_design' ) ;
#216 = PRODUCT_DEFINITION_SHAPE ( 'NONE', 'NONE',  #365 ) ;
#217 = ORIENTED_EDGE ( 'NONE', *, *, #165, .F. ) ;
#218 = ORIENTED_EDGE ( 'NONE', *, *, #278, .T. ) ;
#219 = AXIS2_PLACEMENT_3D ( 'NONE', #198, #334, #59 ) ;
#220 = LINE ( 'NONE', #128, #50 ) ;
#221 = ORIENTED_EDGE ( 'NONE', *, *, #103, .T. ) ;
#222 = CARTESIAN_POINT ( 'NONE',  ( 0.0000000000000000000, 0.0000000000000000000, 0.0000000000000000000 ) ) ;
#223 = DIRECTION ( 'NONE',  ( -0.0000000000000000000, -0.0000000000000000000, -1.000000000000000000 ) ) ;
#224 = CONICAL_SURFACE ( 'NONE', #366, 0.2350000000000011524, 0.7853981633974380649 ) ;
#225 = LINE ( 'NONE', #133, #310 ) ;
#226 = ORIENTED_EDGE ( 'NONE', *, *, #63, .F. ) ;
#227 = APPLICATION_CONTEXT ( 'automotive_design' ) ;
#228 = PLANE ( 'NONE',  #132 ) ;
#229 = ORIENTED_EDGE ( 'NONE', *, *, #138, .T. ) ;
#230 = ORIENTED_EDGE ( 'NONE', *, *, #77, .T. ) ;
#231 = DIRECTION ( 'NONE',  ( -1.000000000000000000, 0.0000000000000000000, 0.0000000000000000000 ) ) ;
#232 = ORIENTED_EDGE ( 'NONE', *, *, #66, .F. ) ;
#233 = ORIENTED_EDGE ( 'NONE', *, *, #306, .T. ) ;
#234 = ORIENTED_EDGE ( 'NONE', *, *, #278, .F. ) ;
#235 = CIRCLE ( 'NONE', #353, 0.2500000000000000000 ) ;
#236 = ORIENTED_EDGE ( 'NONE', *, *, #114, .T. ) ;
#237 = CARTESIAN_POINT ( 'NONE',  ( 0.0000000000000000000, 0.0000000000000000000, 3.000000000000000444 ) ) ;
#238 = DIRECTION ( 'NONE',  ( 1.000000000000000000, 0.0000000000000000000, 0.0000000000000000000 ) ) ;
#239 = ORIENTED_EDGE ( 'NONE', *, *, #77, .F. ) ;
#240 = VERTEX_POINT ( 'NONE', #176 ) ;
#241 = EDGE_CURVE ( 'NONE', #78, #344, #269, .T. ) ;
#242 = FACE_OUTER_BOUND ( 'NONE', #92, .T. ) ;
#243 = VECTOR ( 'NONE', #147, 39.37007874015748143 ) ;
#244 =( LENGTH_UNIT ( ) NAMED_UNIT ( * ) SI_UNIT ( $, .METRE. ) );
#245 = DIRECTION ( 'NONE',  ( 1.000000000000000000, 0.0000000000000000000, -0.0000000000000000000 ) ) ;
#246 = DIRECTION ( 'NONE',  ( -1.000000000000000000, 0.0000000000000000000, 0.0000000000000000000 ) ) ;
#247 =( NAMED_UNIT ( * ) PLANE_ANGLE_UNIT ( ) SI_UNIT ( $, .RADIAN. ) );
#248 = EDGE_LOOP ( 'NONE', ( #291, #201 ) ) ;
#249 = AXIS2_PLACEMENT_3D ( 'NONE', #374, #141, #4 ) ;
#250 =( GEOMETRIC_REPRESENTATION_CONTEXT ( 3 ) GLOBAL_UNCERTAINTY_ASSIGNED_CONTEXT ( ( #272 ) ) GLOBAL_UNIT_ASSIGNED_CONTEXT ( ( #122, #247, #341 ) ) REPRESENTATION_CONTEXT ( 'NONE', 'WORKASPACE' ) );
#251 = VERTEX_POINT ( 'NONE', #265 ) ;
#252 = VECTOR ( 'NONE', #8, 39.37007874015748854 ) ;
#253 = AXIS2_PLACEMENT_3D ( 'NONE', #70, #144, #178 ) ;
#254 =( NAMED_UNIT ( * ) PLANE_ANGLE_UNIT ( ) SI_UNIT ( $, .RADIAN. ) );
#255 = CARTESIAN_POINT ( 'NONE',  ( 0.0000000000000000000, 0.0000000000000000000, 2.985000000000001208 ) ) ;
#256 = DIRECTION ( 'NONE',  ( -0.7071067811865486830, 8.659560562354947649E-17, 0.7071067811865462405 ) ) ;
#257 = DIRECTION ( 'NONE',  ( -0.0000000000000000000, -0.0000000000000000000, -1.000000000000000000 ) ) ;
#258 = FACE_OUTER_BOUND ( 'NONE', #117, .T. ) ;
#259 = PRESENTATION_LAYER_ASSIGNMENT (  '', '', ( #72 ) ) ;
#260 = CARTESIAN_POINT ( 'NONE',  ( 0.1250000000000000278, 1.530808498934192125E-17, 0.1180000000000000077 ) ) ;
#261 = DIRECTION ( 'NONE',  ( -1.000000000000000000, 0.0000000000000000000, 0.0000000000000000000 ) ) ;
#262 = ORIENTED_EDGE ( 'NONE', *, *, #313, .T. ) ;
#263 = DIRECTION ( 'NONE',  ( -1.000000000000000000, 0.0000000000000000000, 0.0000000000000000000 ) ) ;
#264 = CARTESIAN_POINT ( 'NONE',  ( 0.0000000000000000000, 0.0000000000000000000, 0.1179999999999999799 ) ) ;
#265 = CARTESIAN_POINT ( 'NONE',  ( 0.2500000000000000000, 3.061616997868382402E-17, 1.624999999999999556 ) ) ;
#266 = ORIENTED_EDGE ( 'NONE', *, *, #40, .T. ) ;
#267 = DIMENSIONAL_EXPONENTS ( 1.000000000000000000, 0.0000000000000000000, 0.0000000000000000000, 0.0000000000000000000, 0.0000000000000000000, 0.0000000000000000000, 0.0000000000000000000 ) ;
#268 = AXIS2_PLACEMENT_3D ( 'NONE', #237, #205, #90 ) ;
#269 = CIRCLE ( 'NONE', #304, 0.2350000000000011524 ) ;
#270 = DIRECTION ( 'NONE',  ( -0.0000000000000000000, -0.0000000000000000000, -1.000000000000000000 ) ) ;
#271 = CARTESIAN_POINT ( 'NONE',  ( 0.1250000000000001943, 0.0000000000000000000, 1.500000000000000222 ) ) ;
#272 = UNCERTAINTY_MEASURE_WITH_UNIT (LENGTH_MEASURE( 1.000000000000000082E-05 ), #122, 'distance_accuracy_value', 'NONE');
#273 = FILL_AREA_STYLE_COLOUR ( '', #43 ) ;
#274 = DIRECTION ( 'NONE',  ( 1.000000000000000000, 0.0000000000000000000, 0.0000000000000000000 ) ) ;
#275 = ADVANCED_FACE ( 'NONE', ( #258 ), #64, .T. ) ;
#276 = PLANE ( 'NONE',  #368 ) ;
#277 = DIRECTION ( 'NONE',  ( 1.000000000000000000, 0.0000000000000000000, 0.0000000000000000000 ) ) ;
#278 = EDGE_CURVE ( 'NONE', #164, #251, #119, .T. ) ;
#279 = COLOUR_RGB ( '',0.7921568627450980005, 0.8196078431372548767, 0.9333333333333333481 ) ;
#280 = SHAPE_DEFINITION_REPRESENTATION ( #216, #338 ) ;
#281 = FACE_OUTER_BOUND ( 'NONE', #210, .T. ) ;
#282 = DIRECTION ( 'NONE',  ( 0.0000000000000000000, 0.0000000000000000000, 1.000000000000000000 ) ) ;
#283 = DIRECTION ( 'NONE',  ( 0.7071067811865486830, 0.0000000000000000000, 0.7071067811865462405 ) ) ;
#284 = ORIENTED_EDGE ( 'NONE', *, *, #30, .F. ) ;
#285 = CARTESIAN_POINT ( 'NONE',  ( 0.0000000000000000000, 0.0000000000000000000, 0.1180000000000000077 ) ) ;
#286 = EDGE_LOOP ( 'NONE', ( #236, #79 ) ) ;
#287 = AXIS2_PLACEMENT_3D ( 'NONE', #264, #223, #2 ) ;
#288 = AXIS2_PLACEMENT_3D ( 'NONE', #202, #326, #238 ) ;
#289 = CARTESIAN_POINT ( 'NONE',  ( 0.2500000000000000555, 3.061616997868383018E-17, 0.1179999999999999799 ) ) ;
#290 = CYLINDRICAL_SURFACE ( 'NONE', #219, 0.2500000000000000000 ) ;
#291 = ORIENTED_EDGE ( 'NONE', *, *, #137, .F. ) ;
#292 = CARTESIAN_POINT ( 'NONE',  ( 0.0000000000000000000, 0.0000000000000000000, 3.000000000000000444 ) ) ;
#293 = CONICAL_SURFACE ( 'NONE', #268, 0.2350000000000011524, 0.7853981633974380649 ) ;
#294 = MECHANICAL_DESIGN_GEOMETRIC_PRESENTATION_REPRESENTATION (  '', ( #72 ), #193 ) ;
#295 = CARTESIAN_POINT ( 'NONE',  ( 0.2500000000000000000, 3.061616997868382402E-17, 3.000000000000000444 ) ) ;
#296 = ADVANCED_FACE ( 'NONE', ( #67 ), #172, .T. ) ;
#297 = LINE ( 'NONE', #115, #36 ) ;
#298 = DIRECTION ( 'NONE',  ( 1.000000000000000000, 0.0000000000000000000, 0.0000000000000000000 ) ) ;
#299 = CYLINDRICAL_SURFACE ( 'NONE', #208, 0.2500000000000000000 ) ;
#300 =( NAMED_UNIT ( * ) PLANE_ANGLE_UNIT ( ) SI_UNIT ( $, .RADIAN. ) );
#301 = CIRCLE ( 'NONE', #212, 0.2500000000000000000 ) ;
#302 = PRESENTATION_STYLE_ASSIGNMENT (( #166 ) ) ;
#303 = FACE_OUTER_BOUND ( 'NONE', #286, .T. ) ;
#304 = AXIS2_PLACEMENT_3D ( 'NONE', #109, #33, #52 ) ;
#305 = ORIENTED_EDGE ( 'NONE', *, *, #96, .F. ) ;
#306 = EDGE_CURVE ( 'NONE', #251, #179, #235, .T. ) ;
#307 =( LENGTH_UNIT ( ) NAMED_UNIT ( * ) SI_UNIT ( $, .METRE. ) );
#308 = DIRECTION ( 'NONE',  ( 1.000000000000000000, 0.0000000000000000000, 0.0000000000000000000 ) ) ;
#309 = DIRECTION ( 'NONE',  ( -0.0000000000000000000, -0.0000000000000000000, -1.000000000000000000 ) ) ;
#310 = VECTOR ( 'NONE', #345, 39.37007874015748143 ) ;
#311 = SURFACE_STYLE_FILL_AREA ( #101 ) ;
#312 = CARTESIAN_POINT ( 'NONE',  ( 0.2500000000000000000, 3.061616997868382402E-17, 3.000000000000000444 ) ) ;
#313 = EDGE_CURVE ( 'NONE', #97, #155, #359, .T. ) ;
#314 = CARTESIAN_POINT ( 'NONE',  ( -0.2500000000000000000, 0.0000000000000000000, 0.0000000000000000000 ) ) ;
#315 = SURFACE_SIDE_STYLE ('',( #311 ) ) ;
#316 = CARTESIAN_POINT ( 'NONE',  ( 0.2500000000000000555, 0.0000000000000000000, 0.1179999999999999938 ) ) ;
#317 = CARTESIAN_POINT ( 'NONE',  ( -0.2350000000000011524, 0.0000000000000000000, 3.000000000000000444 ) ) ;
#318 = DIRECTION ( 'NONE',  ( 0.0000000000000000000, 0.0000000000000000000, 1.000000000000000000 ) ) ;
#319 = ORIENTED_EDGE ( 'NONE', *, *, #30, .T. ) ;
#320 =( GEOMETRIC_REPRESENTATION_CONTEXT ( 3 ) GLOBAL_UNCERTAINTY_ASSIGNED_CONTEXT ( ( #22 ) ) GLOBAL_UNIT_ASSIGNED_CONTEXT ( ( #364, #254, #151 ) ) REPRESENTATION_CONTEXT ( 'NONE', 'WORKASPACE' ) );
#321 = CARTESIAN_POINT ( 'NONE',  ( 0.2500000000000000000, 3.061616997868382402E-17, 2.985000000000001208 ) ) ;
#322 = CARTESIAN_POINT ( 'NONE',  ( 0.2350000000000011524, 2.969768487932338510E-17, 3.000000000000000444 ) ) ;
#323 = ORIENTED_EDGE ( 'NONE', *, *, #173, .F. ) ;
#324 = CARTESIAN_POINT ( 'NONE',  ( 0.0000000000000000000, 0.0000000000000000000, 1.624999999999999556 ) ) ;
#325 = AXIS2_PLACEMENT_3D ( 'NONE', #330, #14, #274 ) ;
#326 = DIRECTION ( 'NONE',  ( 0.0000000000000000000, 0.0000000000000000000, 1.000000000000000000 ) ) ;
#327 = DIRECTION ( 'NONE',  ( 0.0000000000000000000, 0.0000000000000000000, 1.000000000000000000 ) ) ;
#328 = DIRECTION ( 'NONE',  ( -0.0000000000000000000, -0.0000000000000000000, -1.000000000000000000 ) ) ;
#329 = STYLED_ITEM ( 'NONE', ( #302 ), #338 ) ;
#330 = CARTESIAN_POINT ( 'NONE',  ( 0.0000000000000000000, 0.0000000000000000000, 0.0000000000000000000 ) ) ;
#331 = LENGTH_MEASURE_WITH_UNIT ( LENGTH_MEASURE( 0.02539999999999999897 ), #307 );
#332 = VERTEX_POINT ( 'NONE', #271 ) ;
#333 = DIRECTION ( 'NONE',  ( 0.0000000000000000000, 0.0000000000000000000, 1.000000000000000000 ) ) ;
#334 = DIRECTION ( 'NONE',  ( -0.0000000000000000000, -0.0000000000000000000, -1.000000000000000000 ) ) ;
#335 = DIRECTION ( 'NONE',  ( 1.000000000000000000, 0.0000000000000000000, 0.0000000000000000000 ) ) ;
#336 = EDGE_LOOP ( 'NONE', ( #350, #337 ) ) ;
#337 = ORIENTED_EDGE ( 'NONE', *, *, #351, .F. ) ;
#338 = ADVANCED_BREP_SHAPE_REPRESENTATION ( 'Micro_KC-500-1500-118', ( #361, #325 ), #250 ) ;
#339 = CIRCLE ( 'NONE', #183, 0.1250000000000000278 ) ;
#340 = PRODUCT_DEFINITION_FORMATION_WITH_SPECIFIED_SOURCE ( 'ANY', '', #16, .NOT_KNOWN. ) ;
#341 =( NAMED_UNIT ( * ) SI_UNIT ( $, .STERADIAN. ) SOLID_ANGLE_UNIT ( ) );
#342 = CARTESIAN_POINT ( 'NONE',  ( 0.0000000000000000000, 0.0000000000000000000, 3.000000000000000444 ) ) ;
#343 = CARTESIAN_POINT ( 'NONE',  ( 0.1250000000000001943, 0.0000000000000000000, 1.500000000000000222 ) ) ;
#344 = VERTEX_POINT ( 'NONE', #121 ) ;
#345 = DIRECTION ( 'NONE',  ( -0.0000000000000000000, -0.0000000000000000000, -1.000000000000000000 ) ) ;
#346 = FACE_OUTER_BOUND ( 'NONE', #169, .T. ) ;
#347 = ORIENTED_EDGE ( 'NONE', *, *, #241, .F. ) ;
#348 = CYLINDRICAL_SURFACE ( 'NONE', #352, 0.2500000000000000000 ) ;
#349 = DIRECTION ( 'NONE',  ( -0.0000000000000000000, -0.0000000000000000000, -1.000000000000000000 ) ) ;
#350 = ORIENTED_EDGE ( 'NONE', *, *, #118, .F. ) ;
#351 = EDGE_CURVE ( 'NONE', #161, #195, #37, .T. ) ;
#352 = AXIS2_PLACEMENT_3D ( 'NONE', #194, #86, #261 ) ;
#353 = AXIS2_PLACEMENT_3D ( 'NONE', #324, #181, #91 ) ;
#354 = FILL_AREA_STYLE ('',( #35 ) ) ;
#355 = PRODUCT_DEFINITION_CONTEXT ( 'detailed design', #215, 'design' ) ;
#356 =( NAMED_UNIT ( * ) SI_UNIT ( $, .STERADIAN. ) SOLID_ANGLE_UNIT ( ) );
#357 = ORIENTED_EDGE ( 'NONE', *, *, #306, .F. ) ;
#358 = CIRCLE ( 'NONE', #188, 0.2500000000000000000 ) ;
#359 = CIRCLE ( 'NONE', #75, 0.1250000000000000278 ) ;
#360 = EDGE_CURVE ( 'NONE', #240, #332, #120, .T. ) ;
#361 = MANIFOLD_SOLID_BREP ( 'Cut-Revolve1', #148 ) ;
#362 = DIRECTION ( 'NONE',  ( -1.000000000000000000, 0.0000000000000000000, 0.0000000000000000000 ) ) ;
#363 = SURFACE_SIDE_STYLE ('',( #142 ) ) ;
#364 =( CONVERSION_BASED_UNIT ( 'INCH', #186 ) LENGTH_UNIT ( ) NAMED_UNIT ( #1 ) );
#365 = PRODUCT_DEFINITION ( 'UNKNOWN', '', #340, #355 ) ;
#366 = AXIS2_PLACEMENT_3D ( 'NONE', #342, #127, #84 ) ;
#367 = EDGE_LOOP ( 'NONE', ( #203, #266, #140, #111 ) ) ;
#368 = AXIS2_PLACEMENT_3D ( 'NONE', #125, #333, #24 ) ;
#369 = CARTESIAN_POINT ( 'NONE',  ( 0.0000000000000000000, 0.0000000000000000000, 2.985000000000001208 ) ) ;
#370 = CIRCLE ( 'NONE', #249, 0.2500000000000000555 ) ;
#371 = UNCERTAINTY_MEASURE_WITH_UNIT (LENGTH_MEASURE( 1.000000000000000082E-05 ), #9, 'distance_accuracy_value', 'NONE');
#372 = EDGE_LOOP ( 'NONE', ( #262, #57 ) ) ;
#373 = DIRECTION ( 'NONE',  ( 1.000000000000000000, 0.0000000000000000000, 0.0000000000000000000 ) ) ;
#374 = CARTESIAN_POINT ( 'NONE',  ( 0.0000000000000000000, 0.0000000000000000000, 0.1179999999999999799 ) ) ;
#375 = ADVANCED_FACE ( 'NONE', ( #41 ), #299, .T. ) ;
#376 = DIRECTION ( 'NONE',  ( -1.000000000000000000, 0.0000000000000000000, 0.0000000000000000000 ) ) ;
#377 = AXIS2_PLACEMENT_3D ( 'NONE', #28, #318, #102 ) ;
#378 = EDGE_LOOP ( 'NONE', ( #204, #232, #47, #233 ) ) ;
#379 = DIRECTION ( 'NONE',  ( -1.000000000000000000, 0.0000000000000000000, 0.0000000000000000000 ) ) ;
ENDSEC;
END-ISO-10303-21;
