ISO-10303-21;
HEADER;
FILE_DESCRIPTION (( 'STEP AP214' ),
    '1' );
FILE_NAME ('Micro_AEMM-035-4.STEP',
    '2022-03-15T14:24:51',
    ( '' ),
    ( '' ),
    'SwSTEP 2.0',
    'SolidWorks 2022',
    '' );
FILE_SCHEMA (( 'AUTOMOTIVE_DESIGN' ));
ENDSEC;

DATA;
#1 = ORIENTED_EDGE ( 'NONE', *, *, #150, .F. ) ;
#2 = DIMENSIONAL_EXPONENTS ( 1.000000000000000000, 0.000000000000000000, 0.000000000000000000, 0.000000000000000000, 0.000000000000000000, 0.000000000000000000, 0.000000000000000000 ) ;
#3 = DIRECTION ( 'NONE',  ( -1.000000000000000000, 0.000000000000000000, 0.000000000000000000 ) ) ;
#4 = CONICAL_SURFACE ( 'NONE', #204, 0.1031100000000002570, 0.7853981633974318477 ) ;
#5 = STYLED_ITEM ( 'NONE', ( #130 ), #188 ) ;
#6 = CARTESIAN_POINT ( 'NONE',  ( 8.244196035928968872E-17, 0.000000000000000000, 0.6731896936871021309 ) ) ;
#7 = CARTESIAN_POINT ( 'NONE',  ( 0.1031100000000002570, 1.262733314600838667E-17, 2.244094000000000033 ) ) ;
#8 = ADVANCED_FACE ( 'NONE', ( #151 ), #285, .T. ) ;
#9 = EDGE_CURVE ( 'NONE', #59, #86, #30, .T. ) ;
#10 = DIMENSIONAL_EXPONENTS ( 1.000000000000000000, 0.000000000000000000, 0.000000000000000000, 0.000000000000000000, 0.000000000000000000, 0.000000000000000000, 0.000000000000000000 ) ;
#11 = CIRCLE ( 'NONE', #295, 0.1181100000000000066 ) ;
#12 = CARTESIAN_POINT ( 'NONE',  ( 0.1181100000000000066, 1.446430334472939084E-17, 2.244094000000000033 ) ) ;
#13 = CARTESIAN_POINT ( 'NONE',  ( 0.000000000000000000, 0.000000000000000000, 0.000000000000000000 ) ) ;
#14 = ORIENTED_EDGE ( 'NONE', *, *, #266, .F. ) ;
#15 = DIRECTION ( 'NONE',  ( -1.000000000000000000, 0.000000000000000000, 1.224646799147353454E-16 ) ) ;
#16 = DIRECTION ( 'NONE',  ( 1.224646799147353207E-16, 0.000000000000000000, 1.000000000000000000 ) ) ;
#17 = VECTOR ( 'NONE', #153, 39.37007874015748143 ) ;
#18 = FACE_OUTER_BOUND ( 'NONE', #55, .T. ) ;
#19 = ORIENTED_EDGE ( 'NONE', *, *, #115, .T. ) ;
#20 = ORIENTED_EDGE ( 'NONE', *, *, #248, .F. ) ;
#21 = FACE_OUTER_BOUND ( 'NONE', #185, .T. ) ;
#22 = FACE_OUTER_BOUND ( 'NONE', #76, .T. ) ;
#23 = CIRCLE ( 'NONE', #189, 0.06882860250000000235 ) ;
#24 = EDGE_CURVE ( 'NONE', #59, #284, #179, .T. ) ;
#25 = EDGE_CURVE ( 'NONE', #86, #65, #34, .T. ) ;
#26 = CARTESIAN_POINT ( 'NONE',  ( 0.000000000000000000, 0.000000000000000000, 2.244094000000000033 ) ) ;
#27 = FILL_AREA_STYLE ('',( #166 ) ) ;
#28 = CARTESIAN_POINT ( 'NONE',  ( -0.1181099999999999234, 0.000000000000000000, 0.6731896936871021309 ) ) ;
#29 = DIRECTION ( 'NONE',  ( 1.000000000000000000, 0.000000000000000000, -0.000000000000000000 ) ) ;
#30 = CIRCLE ( 'NONE', #276, 0.1181100000000000066 ) ;
#31 = AXIS2_PLACEMENT_3D ( 'NONE', #61, #227, #137 ) ;
#32 = CIRCLE ( 'NONE', #190, 0.06882860250000000235 ) ;
#33 = ADVANCED_FACE ( 'NONE', ( #217 ), #4, .T. ) ;
#34 = LINE ( 'NONE', #12, #214 ) ;
#35 = ORIENTED_EDGE ( 'NONE', *, *, #142, .F. ) ;
#36 = CARTESIAN_POINT ( 'NONE',  ( 0.000000000000000000, 0.000000000000000000, 2.229093999999999465 ) ) ;
#37 = EDGE_LOOP ( 'NONE', ( #35, #267, #173, #196 ) ) ;
#38 = CYLINDRICAL_SURFACE ( 'NONE', #125, 0.06882860250000000235 ) ;
#39 = VERTEX_POINT ( 'NONE', #180 ) ;
#40 = DIRECTION ( 'NONE',  ( -1.000000000000000000, 0.000000000000000000, 0.000000000000000000 ) ) ;
#41 = AXIS2_PLACEMENT_3D ( 'NONE', #74, #264, #40 ) ;
#42 = APPLICATION_PROTOCOL_DEFINITION ( 'draft international standard', 'automotive_design', 1998, #100 ) ;
#43 = EDGE_LOOP ( 'NONE', ( #245, #114, #225, #268 ) ) ;
#44 = FACE_OUTER_BOUND ( 'NONE', #106, .T. ) ;
#45 = DIRECTION ( 'NONE',  ( -0.000000000000000000, -0.000000000000000000, -1.000000000000000000 ) ) ;
#46 = FACE_OUTER_BOUND ( 'NONE', #136, .T. ) ;
#47 = FACE_OUTER_BOUND ( 'NONE', #270, .T. ) ;
#48 = DIRECTION ( 'NONE',  ( 0.7071067811865358044, 8.659560562354788645E-17, -0.7071067811865590080 ) ) ;
#49 = CARTESIAN_POINT ( 'NONE',  ( 0.1181100000000000899, 1.446430334472940009E-17, 0.6731896936871021309 ) ) ;
#50 = DIMENSIONAL_EXPONENTS ( 1.000000000000000000, 0.000000000000000000, 0.000000000000000000, 0.000000000000000000, 0.000000000000000000, 0.000000000000000000, 0.000000000000000000 ) ;
#51 =( CONVERSION_BASED_UNIT ( 'INCH', #207 ) LENGTH_UNIT ( ) NAMED_UNIT ( #2 ) );
#52 = DIRECTION ( 'NONE',  ( -1.224646799147353207E-16, -0.000000000000000000, -1.000000000000000000 ) ) ;
#53 = ADVANCED_FACE ( 'NONE', ( #44 ), #282, .T. ) ;
#54 = VECTOR ( 'NONE', #107, 39.37007874015748143 ) ;
#55 = EDGE_LOOP ( 'NONE', ( #252, #178, #88, #1 ) ) ;
#56 = CIRCLE ( 'NONE', #215, 0.1181100000000000066 ) ;
#57 = AXIS2_PLACEMENT_3D ( 'NONE', #26, #45, #298 ) ;
#58 = CARTESIAN_POINT ( 'NONE',  ( 0.06882860250000005786, 0.000000000000000000, 0.3937009999999999676 ) ) ;
#59 = VERTEX_POINT ( 'NONE', #230 ) ;
#60 = PRODUCT_CONTEXT ( 'NONE', #197, 'mechanical' ) ;
#61 = CARTESIAN_POINT ( 'NONE',  ( 0.000000000000000000, 0.000000000000000000, 0.000000000000000000 ) ) ;
#62 = SURFACE_STYLE_USAGE ( .BOTH. , #68 ) ;
#63 = ORIENTED_EDGE ( 'NONE', *, *, #128, .F. ) ;
#64 = LINE ( 'NONE', #156, #126 ) ;
#65 = VERTEX_POINT ( 'NONE', #49 ) ;
#66 = ADVANCED_FACE ( 'NONE', ( #143 ), #96, .T. ) ;
#67 = VERTEX_POINT ( 'NONE', #141 ) ;
#68 = SURFACE_SIDE_STYLE ('',( #183 ) ) ;
#69 = PLANE ( 'NONE',  #279 ) ;
#70 = APPLICATION_PROTOCOL_DEFINITION ( 'draft international standard', 'automotive_design', 1998, #197 ) ;
#71 =( LENGTH_UNIT ( ) NAMED_UNIT ( * ) SI_UNIT ( $, .METRE. ) );
#72 = CARTESIAN_POINT ( 'NONE',  ( 0.000000000000000000, 0.000000000000000000, 0.000000000000000000 ) ) ;
#73 = CARTESIAN_POINT ( 'NONE',  ( 0.000000000000000000, 0.000000000000000000, 2.244094000000000033 ) ) ;
#74 = CARTESIAN_POINT ( 'NONE',  ( 4.821446694711121291E-17, 0.000000000000000000, 0.3937009999999999676 ) ) ;
#75 =( NAMED_UNIT ( * ) PLANE_ANGLE_UNIT ( ) SI_UNIT ( $, .RADIAN. ) );
#76 = EDGE_LOOP ( 'NONE', ( #19, #265 ) ) ;
#77 = PRODUCT_DEFINITION_FORMATION_WITH_SPECIFIED_SOURCE ( 'ANY', '', #260, .NOT_KNOWN. ) ;
#78 = ADVANCED_FACE ( 'NONE', ( #234 ), #187, .T. ) ;
#79 = STYLED_ITEM ( 'NONE', ( #94 ), #120 ) ;
#80 = VERTEX_POINT ( 'NONE', #273 ) ;
#81 = DIRECTION ( 'NONE',  ( -0.000000000000000000, -0.000000000000000000, -1.000000000000000000 ) ) ;
#82 = VECTOR ( 'NONE', #165, 39.37007874015748854 ) ;
#83 = ADVANCED_FACE ( 'NONE', ( #22 ), #69, .F. ) ;
#84 = ORIENTED_EDGE ( 'NONE', *, *, #191, .F. ) ;
#85 = DIRECTION ( 'NONE',  ( 1.000000000000000000, 0.000000000000000000, 0.000000000000000000 ) ) ;
#86 = VERTEX_POINT ( 'NONE', #161 ) ;
#87 = EDGE_CURVE ( 'NONE', #39, #59, #91, .T. ) ;
#88 = ORIENTED_EDGE ( 'NONE', *, *, #115, .F. ) ;
#89 =( LENGTH_UNIT ( ) NAMED_UNIT ( * ) SI_UNIT ( $, .METRE. ) );
#90 =( NAMED_UNIT ( * ) SI_UNIT ( $, .STERADIAN. ) SOLID_ANGLE_UNIT ( ) );
#91 = LINE ( 'NONE', #278, #82 ) ;
#92 = DIRECTION ( 'NONE',  ( 0.000000000000000000, 0.000000000000000000, -1.000000000000000000 ) ) ;
#93 = DIRECTION ( 'NONE',  ( 1.000000000000000000, 0.000000000000000000, 0.000000000000000000 ) ) ;
#94 = PRESENTATION_STYLE_ASSIGNMENT (( #145 ) ) ;
#95 = COLOUR_RGB ( '',0.7921568627450980005, 0.8196078431372548767, 0.9333333333333333481 ) ;
#96 = CONICAL_SURFACE ( 'NONE', #158, 0.06882860250000000235, 0.1745329251994338360 ) ;
#97 = PRESENTATION_LAYER_ASSIGNMENT (  '', '', ( #5 ) ) ;
#98 = EDGE_LOOP ( 'NONE', ( #14, #290, #157, #228 ) ) ;
#99 = ORIENTED_EDGE ( 'NONE', *, *, #266, .T. ) ;
#100 = APPLICATION_CONTEXT ( 'automotive_design' ) ;
#101 = ADVANCED_FACE ( 'NONE', ( #46 ), #111, .T. ) ;
#102 = DIRECTION ( 'NONE',  ( 1.000000000000000000, 0.000000000000000000, 0.000000000000000000 ) ) ;
#103 = DIRECTION ( 'NONE',  ( 1.000000000000000000, 0.000000000000000000, 0.000000000000000000 ) ) ;
#104 = AXIS2_PLACEMENT_3D ( 'NONE', #223, #16, #176 ) ;
#105 = CARTESIAN_POINT ( 'NONE',  ( 0.000000000000000000, 0.000000000000000000, 0.000000000000000000 ) ) ;
#106 = EDGE_LOOP ( 'NONE', ( #201, #84, #288, #108 ) ) ;
#107 = DIRECTION ( 'NONE',  ( -1.224646799147353207E-16, -0.000000000000000000, -1.000000000000000000 ) ) ;
#108 = ORIENTED_EDGE ( 'NONE', *, *, #162, .F. ) ;
#109 = EDGE_CURVE ( 'NONE', #124, #86, #117, .T. ) ;
#110 = FILL_AREA_STYLE ('',( #292 ) ) ;
#111 = PLANE ( 'NONE',  #271 ) ;
#112 = DIRECTION ( 'NONE',  ( -1.000000000000000000, 0.000000000000000000, 1.224646799147353454E-16 ) ) ;
#113 = CARTESIAN_POINT ( 'NONE',  ( 0.1031100000000002570, 1.354581824536888722E-17, 2.244094000000000033 ) ) ;
#114 = ORIENTED_EDGE ( 'NONE', *, *, #162, .T. ) ;
#115 = EDGE_CURVE ( 'NONE', #67, #80, #244, .T. ) ;
#116 = DIRECTION ( 'NONE',  ( 0.000000000000000000, 0.000000000000000000, 1.000000000000000000 ) ) ;
#117 = LINE ( 'NONE', #7, #152 ) ;
#118 =( GEOMETRIC_REPRESENTATION_CONTEXT ( 3 ) GLOBAL_UNCERTAINTY_ASSIGNED_CONTEXT ( ( #249 ) ) GLOBAL_UNIT_ASSIGNED_CONTEXT ( ( #205, #175, #242 ) ) REPRESENTATION_CONTEXT ( 'NONE', 'WORKASPACE' ) );
#119 = DIRECTION ( 'NONE',  ( -1.000000000000000000, 0.000000000000000000, 0.000000000000000000 ) ) ;
#120 = MANIFOLD_SOLID_BREP ( 'Cut-Revolve1', #210 ) ;
#121 = UNCERTAINTY_MEASURE_WITH_UNIT (LENGTH_MEASURE( 1.000000000000000082E-05 ), #253, 'distance_accuracy_value', 'NONE');
#122 =( GEOMETRIC_REPRESENTATION_CONTEXT ( 3 ) GLOBAL_UNCERTAINTY_ASSIGNED_CONTEXT ( ( #121 ) ) GLOBAL_UNIT_ASSIGNED_CONTEXT ( ( #253, #75, #163 ) ) REPRESENTATION_CONTEXT ( 'NONE', 'WORKASPACE' ) );
#123 = AXIS2_PLACEMENT_3D ( 'NONE', #6, #254, #144 ) ;
#124 = VERTEX_POINT ( 'NONE', #113 ) ;
#125 = AXIS2_PLACEMENT_3D ( 'NONE', #13, #221, #15 ) ;
#126 = VECTOR ( 'NONE', #235, 39.37007874015748143 ) ;
#127 = ORIENTED_EDGE ( 'NONE', *, *, #148, .F. ) ;
#128 = EDGE_CURVE ( 'NONE', #194, #202, #23, .T. ) ;
#129 = DIRECTION ( 'NONE',  ( 0.000000000000000000, 0.000000000000000000, 1.000000000000000000 ) ) ;
#130 = PRESENTATION_STYLE_ASSIGNMENT (( #62 ) ) ;
#131 = ORIENTED_EDGE ( 'NONE', *, *, #128, .T. ) ;
#132 = PRODUCT_DEFINITION_CONTEXT ( 'detailed design', #100, 'design' ) ;
#133 = DIRECTION ( 'NONE',  ( 1.000000000000000000, 0.000000000000000000, 0.000000000000000000 ) ) ;
#134 = ORIENTED_EDGE ( 'NONE', *, *, #25, .T. ) ;
#135 = SHAPE_DEFINITION_REPRESENTATION ( #209, #188 ) ;
#136 = EDGE_LOOP ( 'NONE', ( #154, #99 ) ) ;
#137 = DIRECTION ( 'NONE',  ( -1.000000000000000000, 0.000000000000000000, 1.224646799147353454E-16 ) ) ;
#138 = DIRECTION ( 'NONE',  ( 0.000000000000000000, 0.000000000000000000, -1.000000000000000000 ) ) ;
#139 = SURFACE_SIDE_STYLE ('',( #203 ) ) ;
#140 = VECTOR ( 'NONE', #287, 39.37007874015747433 ) ;
#141 = CARTESIAN_POINT ( 'NONE',  ( -0.06882860250000000235, 0.000000000000000000, 1.685814554828210517E-17 ) ) ;
#142 = EDGE_CURVE ( 'NONE', #202, #194, #239, .T. ) ;
#143 = FACE_OUTER_BOUND ( 'NONE', #251, .T. ) ;
#144 = DIRECTION ( 'NONE',  ( 1.000000000000000000, 0.000000000000000000, 0.000000000000000000 ) ) ;
#145 = SURFACE_STYLE_USAGE ( .BOTH. , #139 ) ;
#146 = DIRECTION ( 'NONE',  ( -1.000000000000000000, 0.000000000000000000, 0.000000000000000000 ) ) ;
#147 = VECTOR ( 'NONE', #283, 39.37007874015748143 ) ;
#148 = EDGE_CURVE ( 'NONE', #202, #284, #220, .T. ) ;
#149 = CARTESIAN_POINT ( 'NONE',  ( -0.06882860250000000235, 0.000000000000000000, 8.429072774141052587E-18 ) ) ;
#150 = EDGE_CURVE ( 'NONE', #202, #67, #195, .T. ) ;
#151 = FACE_OUTER_BOUND ( 'NONE', #37, .T. ) ;
#152 = VECTOR ( 'NONE', #48, 39.37007874015748854 ) ;
#153 = DIRECTION ( 'NONE',  ( 0.1736481776669313304, 0.000000000000000000, 0.9848077530122077983 ) ) ;
#154 = ORIENTED_EDGE ( 'NONE', *, *, #191, .T. ) ;
#155 = ORIENTED_EDGE ( 'NONE', *, *, #224, .T. ) ;
#156 = CARTESIAN_POINT ( 'NONE',  ( 0.06882860250000000235, 8.429072774141052587E-18, -8.429072774141052587E-18 ) ) ;
#157 = ORIENTED_EDGE ( 'NONE', *, *, #9, .F. ) ;
#158 = AXIS2_PLACEMENT_3D ( 'NONE', #206, #275, #93 ) ;
#159 = LINE ( 'NONE', #58, #17 ) ;
#160 = DIRECTION ( 'NONE',  ( 0.000000000000000000, 0.000000000000000000, -1.000000000000000000 ) ) ;
#161 = CARTESIAN_POINT ( 'NONE',  ( 0.1181100000000000066, 1.446430334472939084E-17, 2.229093999999999465 ) ) ;
#162 = EDGE_CURVE ( 'NONE', #86, #59, #56, .T. ) ;
#163 =( NAMED_UNIT ( * ) SI_UNIT ( $, .STERADIAN. ) SOLID_ANGLE_UNIT ( ) );
#164 = AXIS2_PLACEMENT_3D ( 'NONE', #238, #277, #119 ) ;
#165 = DIRECTION ( 'NONE',  ( -0.7071067811865358044, 0.000000000000000000, -0.7071067811865590080 ) ) ;
#166 = FILL_AREA_STYLE_COLOUR ( '', #95 ) ;
#167 = EDGE_CURVE ( 'NONE', #194, #65, #159, .T. ) ;
#168 = AXIS2_PLACEMENT_3D ( 'NONE', #182, #116, #231 ) ;
#169 = ORIENTED_EDGE ( 'NONE', *, *, #246, .F. ) ;
#170 = PRESENTATION_LAYER_ASSIGNMENT (  '', '', ( #79 ) ) ;
#171 = ORIENTED_EDGE ( 'NONE', *, *, #243, .F. ) ;
#172 = CARTESIAN_POINT ( 'NONE',  ( -0.06882860249999996072, 1.144668805943522018E-17, 0.3937009999999999676 ) ) ;
#173 = ORIENTED_EDGE ( 'NONE', *, *, #248, .T. ) ;
#174 = AXIS2_PLACEMENT_3D ( 'NONE', #229, #129, #102 ) ;
#175 =( NAMED_UNIT ( * ) PLANE_ANGLE_UNIT ( ) SI_UNIT ( $, .RADIAN. ) );
#176 = DIRECTION ( 'NONE',  ( 1.000000000000000000, 0.000000000000000000, 0.000000000000000000 ) ) ;
#177 = DIRECTION ( 'NONE',  ( 0.000000000000000000, 0.000000000000000000, 1.000000000000000000 ) ) ;
#178 = ORIENTED_EDGE ( 'NONE', *, *, #243, .T. ) ;
#179 = LINE ( 'NONE', #219, #147 ) ;
#180 = CARTESIAN_POINT ( 'NONE',  ( -0.1031100000000002570, 0.000000000000000000, 2.244094000000000033 ) ) ;
#181 = ADVANCED_FACE ( 'NONE', ( #18 ), #218, .T. ) ;
#182 = CARTESIAN_POINT ( 'NONE',  ( 0.000000000000000000, 0.000000000000000000, 2.244094000000000033 ) ) ;
#183 = SURFACE_STYLE_FILL_AREA ( #110 ) ;
#184 = DIRECTION ( 'NONE',  ( -1.224646799147353207E-16, -0.000000000000000000, -1.000000000000000000 ) ) ;
#185 = EDGE_LOOP ( 'NONE', ( #171, #131, #272, #169 ) ) ;
#186 = MECHANICAL_DESIGN_GEOMETRIC_PRESENTATION_REPRESENTATION (  '', ( #79 ), #122 ) ;
#187 = CYLINDRICAL_SURFACE ( 'NONE', #164, 0.1181100000000000066 ) ;
#188 = ADVANCED_BREP_SHAPE_REPRESENTATION ( 'Micro_AEMM-035-4', ( #120, #240 ), #226 ) ;
#189 = AXIS2_PLACEMENT_3D ( 'NONE', #299, #52, #146 ) ;
#190 = AXIS2_PLACEMENT_3D ( 'NONE', #296, #261, #112 ) ;
#191 = EDGE_CURVE ( 'NONE', #39, #124, #199, .T. ) ;
#192 = ORIENTED_EDGE ( 'NONE', *, *, #167, .T. ) ;
#193 = CARTESIAN_POINT ( 'NONE',  ( -0.06882860249999996072, 8.429072774141052587E-18, 0.3937009999999999676 ) ) ;
#194 = VERTEX_POINT ( 'NONE', #289 ) ;
#195 = LINE ( 'NONE', #149, #54 ) ;
#196 = ORIENTED_EDGE ( 'NONE', *, *, #167, .F. ) ;
#197 = APPLICATION_CONTEXT ( 'automotive_design' ) ;
#198 = DIRECTION ( 'NONE',  ( -1.224646799147353207E-16, -0.000000000000000000, -1.000000000000000000 ) ) ;
#199 = CIRCLE ( 'NONE', #174, 0.1031100000000002570 ) ;
#200 = CARTESIAN_POINT ( 'NONE',  ( 0.000000000000000000, 0.000000000000000000, 2.244094000000000033 ) ) ;
#201 = ORIENTED_EDGE ( 'NONE', *, *, #109, .F. ) ;
#202 = VERTEX_POINT ( 'NONE', #172 ) ;
#203 = SURFACE_STYLE_FILL_AREA ( #27 ) ;
#204 = AXIS2_PLACEMENT_3D ( 'NONE', #200, #92, #3 ) ;
#205 =( CONVERSION_BASED_UNIT ( 'INCH', #222 ) LENGTH_UNIT ( ) NAMED_UNIT ( #50 ) );
#206 = CARTESIAN_POINT ( 'NONE',  ( 4.821446694711121291E-17, 0.000000000000000000, 0.3937009999999999676 ) ) ;
#207 = LENGTH_MEASURE_WITH_UNIT ( LENGTH_MEASURE( 0.02539999999999999897 ), #71 );
#208 = DIRECTION ( 'NONE',  ( 0.000000000000000000, 0.000000000000000000, 1.000000000000000000 ) ) ;
#209 = PRODUCT_DEFINITION_SHAPE ( 'NONE', 'NONE',  #216 ) ;
#210 = CLOSED_SHELL ( 'NONE', ( #181, #8, #33, #259, #78, #101, #53, #66, #211, #83 ) ) ;
#211 = ADVANCED_FACE ( 'NONE', ( #21 ), #38, .T. ) ;
#212 = DIRECTION ( 'NONE',  ( 1.000000000000000000, 0.000000000000000000, -0.000000000000000000 ) ) ;
#213 =( NAMED_UNIT ( * ) PLANE_ANGLE_UNIT ( ) SI_UNIT ( $, .RADIAN. ) );
#214 = VECTOR ( 'NONE', #81, 39.37007874015748143 ) ;
#215 = AXIS2_PLACEMENT_3D ( 'NONE', #36, #294, #250 ) ;
#216 = PRODUCT_DEFINITION ( 'UNKNOWN', '', #77, #132 ) ;
#217 = FACE_OUTER_BOUND ( 'NONE', #98, .T. ) ;
#218 = CYLINDRICAL_SURFACE ( 'NONE', #31, 0.06882860250000000235 ) ;
#219 = CARTESIAN_POINT ( 'NONE',  ( -0.1181100000000000066, 0.000000000000000000, 2.244094000000000033 ) ) ;
#220 = LINE ( 'NONE', #193, #140 ) ;
#221 = DIRECTION ( 'NONE',  ( -1.224646799147353207E-16, -0.000000000000000000, -1.000000000000000000 ) ) ;
#222 = LENGTH_MEASURE_WITH_UNIT ( LENGTH_MEASURE( 0.02539999999999999897 ), #256 );
#223 = CARTESIAN_POINT ( 'NONE',  ( 4.821446694711121291E-17, 0.000000000000000000, 0.3937009999999999676 ) ) ;
#224 = EDGE_CURVE ( 'NONE', #65, #284, #11, .T. ) ;
#225 = ORIENTED_EDGE ( 'NONE', *, *, #24, .T. ) ;
#226 =( GEOMETRIC_REPRESENTATION_CONTEXT ( 3 ) GLOBAL_UNCERTAINTY_ASSIGNED_CONTEXT ( ( #291 ) ) GLOBAL_UNIT_ASSIGNED_CONTEXT ( ( #51, #213, #90 ) ) REPRESENTATION_CONTEXT ( 'NONE', 'WORKASPACE' ) );
#227 = DIRECTION ( 'NONE',  ( -1.224646799147353207E-16, -0.000000000000000000, -1.000000000000000000 ) ) ;
#228 = ORIENTED_EDGE ( 'NONE', *, *, #87, .F. ) ;
#229 = CARTESIAN_POINT ( 'NONE',  ( 0.000000000000000000, 0.000000000000000000, 2.244094000000000033 ) ) ;
#230 = CARTESIAN_POINT ( 'NONE',  ( -0.1181100000000000066, 0.000000000000000000, 2.229093999999999465 ) ) ;
#231 = DIRECTION ( 'NONE',  ( 1.000000000000000000, 0.000000000000000000, 0.000000000000000000 ) ) ;
#232 = CARTESIAN_POINT ( 'NONE',  ( 1.032263699263193969E-33, 0.000000000000000000, 8.429072774141052587E-18 ) ) ;
#233 = AXIS2_PLACEMENT_3D ( 'NONE', #297, #138, #258 ) ;
#234 = FACE_OUTER_BOUND ( 'NONE', #43, .T. ) ;
#235 = DIRECTION ( 'NONE',  ( -1.224646799147353207E-16, -0.000000000000000000, -1.000000000000000000 ) ) ;
#236 = DIRECTION ( 'NONE',  ( -1.000000000000000000, 0.000000000000000000, 1.224646799147353454E-16 ) ) ;
#237 = CYLINDRICAL_SURFACE ( 'NONE', #57, 0.1181100000000000066 ) ;
#238 = CARTESIAN_POINT ( 'NONE',  ( 0.000000000000000000, 0.000000000000000000, 2.244094000000000033 ) ) ;
#239 = CIRCLE ( 'NONE', #41, 0.06882860250000000235 ) ;
#240 = AXIS2_PLACEMENT_3D ( 'NONE', #105, #177, #85 ) ;
#241 = CIRCLE ( 'NONE', #123, 0.1181100000000000066 ) ;
#242 =( NAMED_UNIT ( * ) SI_UNIT ( $, .STERADIAN. ) SOLID_ANGLE_UNIT ( ) );
#243 = EDGE_CURVE ( 'NONE', #194, #80, #64, .T. ) ;
#244 = CIRCLE ( 'NONE', #262, 0.06882860250000000235 ) ;
#245 = ORIENTED_EDGE ( 'NONE', *, *, #25, .F. ) ;
#246 = EDGE_CURVE ( 'NONE', #80, #67, #32, .T. ) ;
#247 = ORIENTED_EDGE ( 'NONE', *, *, #24, .F. ) ;
#248 = EDGE_CURVE ( 'NONE', #284, #65, #241, .T. ) ;
#249 = UNCERTAINTY_MEASURE_WITH_UNIT (LENGTH_MEASURE( 1.000000000000000082E-05 ), #205, 'distance_accuracy_value', 'NONE');
#250 = DIRECTION ( 'NONE',  ( 1.000000000000000000, 0.000000000000000000, 0.000000000000000000 ) ) ;
#251 = EDGE_LOOP ( 'NONE', ( #127, #63, #192, #155 ) ) ;
#252 = ORIENTED_EDGE ( 'NONE', *, *, #142, .T. ) ;
#253 =( CONVERSION_BASED_UNIT ( 'INCH', #274 ) LENGTH_UNIT ( ) NAMED_UNIT ( #10 ) );
#254 = DIRECTION ( 'NONE',  ( -1.224646799147353207E-16, -0.000000000000000000, -1.000000000000000000 ) ) ;
#255 = DIRECTION ( 'NONE',  ( 0.000000000000000000, 0.000000000000000000, 1.000000000000000000 ) ) ;
#256 =( LENGTH_UNIT ( ) NAMED_UNIT ( * ) SI_UNIT ( $, .METRE. ) );
#257 = MECHANICAL_DESIGN_GEOMETRIC_PRESENTATION_REPRESENTATION (  '', ( #5 ), #118 ) ;
#258 = DIRECTION ( 'NONE',  ( -1.000000000000000000, 0.000000000000000000, 0.000000000000000000 ) ) ;
#259 = ADVANCED_FACE ( 'NONE', ( #47 ), #237, .T. ) ;
#260 = PRODUCT ( 'Micro_AEMM-035-4', 'Micro_AEMM-035-4', '', ( #60 ) ) ;
#261 = DIRECTION ( 'NONE',  ( -1.224646799147353207E-16, -0.000000000000000000, -1.000000000000000000 ) ) ;
#262 = AXIS2_PLACEMENT_3D ( 'NONE', #232, #184, #236 ) ;
#263 = CIRCLE ( 'NONE', #168, 0.1031100000000002570 ) ;
#264 = DIRECTION ( 'NONE',  ( -1.224646799147353207E-16, -0.000000000000000000, -1.000000000000000000 ) ) ;
#265 = ORIENTED_EDGE ( 'NONE', *, *, #246, .T. ) ;
#266 = EDGE_CURVE ( 'NONE', #124, #39, #263, .T. ) ;
#267 = ORIENTED_EDGE ( 'NONE', *, *, #148, .T. ) ;
#268 = ORIENTED_EDGE ( 'NONE', *, *, #224, .F. ) ;
#269 = CARTESIAN_POINT ( 'NONE',  ( 8.244196035928968872E-17, 0.000000000000000000, 0.6731896936871021309 ) ) ;
#270 = EDGE_LOOP ( 'NONE', ( #281, #134, #20, #247 ) ) ;
#271 = AXIS2_PLACEMENT_3D ( 'NONE', #73, #208, #29 ) ;
#272 = ORIENTED_EDGE ( 'NONE', *, *, #150, .T. ) ;
#273 = CARTESIAN_POINT ( 'NONE',  ( 0.06882860250000000235, 8.429072774141052587E-18, 0.000000000000000000 ) ) ;
#274 = LENGTH_MEASURE_WITH_UNIT ( LENGTH_MEASURE( 0.02539999999999999897 ), #89 );
#275 = DIRECTION ( 'NONE',  ( 1.224646799147353207E-16, 0.000000000000000000, 1.000000000000000000 ) ) ;
#276 = AXIS2_PLACEMENT_3D ( 'NONE', #293, #160, #103 ) ;
#277 = DIRECTION ( 'NONE',  ( -0.000000000000000000, -0.000000000000000000, -1.000000000000000000 ) ) ;
#278 = CARTESIAN_POINT ( 'NONE',  ( -0.1031100000000002570, 0.000000000000000000, 2.244094000000000033 ) ) ;
#279 = AXIS2_PLACEMENT_3D ( 'NONE', #72, #255, #212 ) ;
#280 = PRODUCT_RELATED_PRODUCT_CATEGORY ( 'part', '', ( #260 ) ) ;
#281 = ORIENTED_EDGE ( 'NONE', *, *, #9, .T. ) ;
#282 = CONICAL_SURFACE ( 'NONE', #233, 0.1031100000000002570, 0.7853981633974318477 ) ;
#283 = DIRECTION ( 'NONE',  ( -0.000000000000000000, -0.000000000000000000, -1.000000000000000000 ) ) ;
#284 = VERTEX_POINT ( 'NONE', #28 ) ;
#285 = CONICAL_SURFACE ( 'NONE', #104, 0.06882860250000000235, 0.1745329251994338360 ) ;
#286 = COLOUR_RGB ( '',0.7921568627450980005, 0.8196078431372548767, 0.9333333333333333481 ) ;
#287 = DIRECTION ( 'NONE',  ( -0.1736481776669311639, 2.126576849575782392E-17, 0.9848077530122080203 ) ) ;
#288 = ORIENTED_EDGE ( 'NONE', *, *, #87, .T. ) ;
#289 = CARTESIAN_POINT ( 'NONE',  ( 0.06882860250000005786, 0.000000000000000000, 0.3937009999999999676 ) ) ;
#290 = ORIENTED_EDGE ( 'NONE', *, *, #109, .T. ) ;
#291 = UNCERTAINTY_MEASURE_WITH_UNIT (LENGTH_MEASURE( 1.000000000000000082E-05 ), #51, 'distance_accuracy_value', 'NONE');
#292 = FILL_AREA_STYLE_COLOUR ( '', #286 ) ;
#293 = CARTESIAN_POINT ( 'NONE',  ( 0.000000000000000000, 0.000000000000000000, 2.229093999999999465 ) ) ;
#294 = DIRECTION ( 'NONE',  ( 0.000000000000000000, 0.000000000000000000, -1.000000000000000000 ) ) ;
#295 = AXIS2_PLACEMENT_3D ( 'NONE', #269, #198, #133 ) ;
#296 = CARTESIAN_POINT ( 'NONE',  ( 1.032263699263193969E-33, 0.000000000000000000, 8.429072774141052587E-18 ) ) ;
#297 = CARTESIAN_POINT ( 'NONE',  ( 0.000000000000000000, 0.000000000000000000, 2.244094000000000033 ) ) ;
#298 = DIRECTION ( 'NONE',  ( -1.000000000000000000, 0.000000000000000000, 0.000000000000000000 ) ) ;
#299 = CARTESIAN_POINT ( 'NONE',  ( 4.821446694711121291E-17, 0.000000000000000000, 0.3937009999999999676 ) ) ;
ENDSEC;
END-ISO-10303-21;
