ISO-10303-21;
HEADER;
FILE_DESCRIPTION (( 'STEP AP214' ),
    '1' );
FILE_NAME ('23040.STEP',
    '2023-06-22T16:29:34',
    ( '' ),
    ( '' ),
    'SwSTEP 2.0',
    'SolidWorks 2023',
    '' );
FILE_SCHEMA (( 'AUTOMOTIVE_DESIGN' ));
ENDSEC;

DATA;
#1 = SURFACE_SIDE_STYLE ('',( #87 ) ) ;
#2 = DIMENSIONAL_EXPONENTS ( 1.000000000000000000, 0.000000000000000000, 0.000000000000000000, 0.000000000000000000, 0.000000000000000000, 0.000000000000000000, 0.000000000000000000 ) ;
#3 = AXIS2_PLACEMENT_3D ( 'NONE', #26, #255, #71 ) ;
#4 = ORIENTED_EDGE ( 'NONE', *, *, #136, .T. ) ;
#5 = COLOUR_RGB ( '',1.000000000000000000, 0.000000000000000000, 0.000000000000000000 ) ;
#6 = AXIS2_PLACEMENT_3D ( 'NONE', #100, #197, #290 ) ;
#7 = LINE ( 'NONE', #153, #276 ) ;
#8 = DIRECTION ( 'NONE',  ( -0.000000000000000000, -1.000000000000000000, -0.000000000000000000 ) ) ;
#9 =( NAMED_UNIT ( * ) PLANE_ANGLE_UNIT ( ) SI_UNIT ( $, .RADIAN. ) );
#10 = EDGE_LOOP ( 'NONE', ( #262, #4, #160, #92 ) ) ;
#11 =( NAMED_UNIT ( * ) PLANE_ANGLE_UNIT ( ) SI_UNIT ( $, .RADIAN. ) );
#12 = COLOUR_RGB ( '',0.7921568627450980005, 0.8196078431372548767, 0.9333333333333333481 ) ;
#13 = CARTESIAN_POINT ( 'NONE',  ( 0.000000000000000000, 0.3125000000000000000, -0.09374999999999998612 ) ) ;
#14 = DIRECTION ( 'NONE',  ( 1.000000000000000000, -3.628583108584750472E-17, 0.000000000000000000 ) ) ;
#15 = MECHANICAL_DESIGN_GEOMETRIC_PRESENTATION_REPRESENTATION (  '', ( #37 ), #198 ) ;
#16 = PRESENTATION_LAYER_ASSIGNMENT (  '', '', ( #307 ) ) ;
#17 = LENGTH_MEASURE_WITH_UNIT ( LENGTH_MEASURE( 0.02539999999999999897 ), #131 );
#18 = ADVANCED_FACE ( 'NONE', ( #144 ), #22, .T. ) ;
#19 = VECTOR ( 'NONE', #172, 39.37007874015748143 ) ;
#20 = LENGTH_MEASURE_WITH_UNIT ( LENGTH_MEASURE( 0.02539999999999999897 ), #168 );
#21 = CARTESIAN_POINT ( 'NONE',  ( -0.09374999999999988898, 2.000000000000000000, 0.000000000000000000 ) ) ;
#22 = CYLINDRICAL_SURFACE ( 'NONE', #217, 0.09374999999999998612 ) ;
#23 = ORIENTED_EDGE ( 'NONE', *, *, #42, .T. ) ;
#24 = FILL_AREA_STYLE ('',( #248 ) ) ;
#25 = SHAPE_DEFINITION_REPRESENTATION ( #221, #257 ) ;
#26 = CARTESIAN_POINT ( 'NONE',  ( 0.000000000000000000, 0.3125000000000000000, 0.000000000000000000 ) ) ;
#27 = SURFACE_STYLE_USAGE ( .BOTH. , #200 ) ;
#28 = LENGTH_MEASURE_WITH_UNIT ( LENGTH_MEASURE( 0.02539999999999999897 ), #51 );
#29 = FILL_AREA_STYLE_COLOUR ( '', #91 ) ;
#30 = SURFACE_STYLE_USAGE ( .BOTH. , #238 ) ;
#31 = UNCERTAINTY_MEASURE_WITH_UNIT (LENGTH_MEASURE( 1.000000000000000082E-05 ), #64, 'distance_accuracy_value', 'NONE');
#32 = PLANE ( 'NONE',  #6 ) ;
#33 = ORIENTED_EDGE ( 'NONE', *, *, #129, .F. ) ;
#34 = UNCERTAINTY_MEASURE_WITH_UNIT (LENGTH_MEASURE( 1.000000000000000082E-05 ), #137, 'distance_accuracy_value', 'NONE');
#35 = LENGTH_MEASURE_WITH_UNIT ( LENGTH_MEASURE( 0.02539999999999999897 ), #279 );
#36 = PRESENTATION_STYLE_ASSIGNMENT (( #88 ) ) ;
#37 = STYLED_ITEM ( 'NONE', ( #178 ), #18 ) ;
#38 = AXIS2_PLACEMENT_3D ( 'NONE', #169, #69, #274 ) ;
#39 = PRODUCT_RELATED_PRODUCT_CATEGORY ( 'part', '', ( #193 ) ) ;
#40 = ORIENTED_EDGE ( 'NONE', *, *, #289, .T. ) ;
#41 = PRESENTATION_LAYER_ASSIGNMENT (  '', '', ( #205 ) ) ;
#42 = EDGE_CURVE ( 'NONE', #78, #66, #90, .T. ) ;
#43 = ADVANCED_FACE ( 'NONE', ( #167 ), #145, .T. ) ;
#44 =( NAMED_UNIT ( * ) SI_UNIT ( $, .STERADIAN. ) SOLID_ANGLE_UNIT ( ) );
#45 = EDGE_CURVE ( 'NONE', #190, #282, #139, .T. ) ;
#46 = CIRCLE ( 'NONE', #223, 0.09374999999999991673 ) ;
#47 = LENGTH_MEASURE_WITH_UNIT ( LENGTH_MEASURE( 0.02539999999999999897 ), #166 );
#48 = SURFACE_STYLE_FILL_AREA ( #94 ) ;
#49 = FILL_AREA_STYLE ('',( #296 ) ) ;
#50 = FACE_OUTER_BOUND ( 'NONE', #301, .T. ) ;
#51 =( LENGTH_UNIT ( ) NAMED_UNIT ( * ) SI_UNIT ( $, .METRE. ) );
#52 = AXIS2_PLACEMENT_3D ( 'NONE', #277, #231, #240 ) ;
#53 = DIRECTION ( 'NONE',  ( -0.000000000000000000, -1.000000000000000000, -0.000000000000000000 ) ) ;
#54 = ORIENTED_EDGE ( 'NONE', *, *, #129, .T. ) ;
#55 = CARTESIAN_POINT ( 'NONE',  ( 1.148106374200643401E-17, 0.000000000000000000, 0.09374999999999998612 ) ) ;
#56 =( LENGTH_UNIT ( ) NAMED_UNIT ( * ) SI_UNIT ( $, .METRE. ) );
#57 = MECHANICAL_DESIGN_GEOMETRIC_PRESENTATION_REPRESENTATION (  '', ( #199 ), #287 ) ;
#58 = FACE_OUTER_BOUND ( 'NONE', #105, .T. ) ;
#59 = DIRECTION ( 'NONE',  ( 0.000000000000000000, -0.000000000000000000, 1.000000000000000000 ) ) ;
#60 = VERTEX_POINT ( 'NONE', #157 ) ;
#61 = APPLICATION_CONTEXT ( 'automotive_design' ) ;
#62 = MANIFOLD_SOLID_BREP ( 'Revolve - Cutting Edge', #119 ) ;
#63 = CIRCLE ( 'NONE', #133, 0.09375000000000001388 ) ;
#64 =( CONVERSION_BASED_UNIT ( 'INCH', #20 ) LENGTH_UNIT ( ) NAMED_UNIT ( #266 ) );
#65 = DIMENSIONAL_EXPONENTS ( 1.000000000000000000, 0.000000000000000000, 0.000000000000000000, 0.000000000000000000, 0.000000000000000000, 0.000000000000000000, 0.000000000000000000 ) ;
#66 = VERTEX_POINT ( 'NONE', #83 ) ;
#67 = DIRECTION ( 'NONE',  ( -0.000000000000000000, -1.000000000000000000, -0.000000000000000000 ) ) ;
#68 = COLOUR_RGB ( '',1.000000000000000000, 0.000000000000000000, 0.000000000000000000 ) ;
#69 = DIRECTION ( 'NONE',  ( -0.000000000000000000, -1.000000000000000000, -0.000000000000000000 ) ) ;
#70 = CARTESIAN_POINT ( 'NONE',  ( 0.000000000000000000, 0.000000000000000000, -0.09374999999999998612 ) ) ;
#71 = DIRECTION ( 'NONE',  ( -1.000000000000000000, 0.000000000000000000, 0.000000000000000000 ) ) ;
#72 = CARTESIAN_POINT ( 'NONE',  ( 0.000000000000000000, 0.3125000000000000000, 0.000000000000000000 ) ) ;
#73 = SURFACE_STYLE_FILL_AREA ( #104 ) ;
#74 = PRESENTATION_STYLE_ASSIGNMENT (( #27 ) ) ;
#75 = DIRECTION ( 'NONE',  ( 0.000000000000000000, 0.000000000000000000, 1.000000000000000000 ) ) ;
#76 = MECHANICAL_DESIGN_GEOMETRIC_PRESENTATION_REPRESENTATION (  '', ( #138 ), #263 ) ;
#77 = VECTOR ( 'NONE', #141, 39.37007874015748143 ) ;
#78 = VERTEX_POINT ( 'NONE', #154 ) ;
#79 =( LENGTH_UNIT ( ) NAMED_UNIT ( * ) SI_UNIT ( $, .METRE. ) );
#80 =( NAMED_UNIT ( * ) SI_UNIT ( $, .STERADIAN. ) SOLID_ANGLE_UNIT ( ) );
#81 = APPLICATION_CONTEXT ( 'automotive_design' ) ;
#82 = CYLINDRICAL_SURFACE ( 'NONE', #300, 0.09374999999999998612 ) ;
#83 = CARTESIAN_POINT ( 'NONE',  ( 1.148106374200643555E-17, 0.000000000000000000, 0.09375000000000001388 ) ) ;
#84 = AXIS2_PLACEMENT_3D ( 'NONE', #107, #186, #260 ) ;
#85 = PRODUCT_DEFINITION ( 'UNKNOWN', '', #258, #184 ) ;
#86 = ORIENTED_EDGE ( 'NONE', *, *, #220, .T. ) ;
#87 = SURFACE_STYLE_FILL_AREA ( #302 ) ;
#88 = SURFACE_STYLE_USAGE ( .BOTH. , #304 ) ;
#89 = ORIENTED_EDGE ( 'NONE', *, *, #220, .F. ) ;
#90 = CIRCLE ( 'NONE', #132, 0.09375000000000001388 ) ;
#91 = COLOUR_RGB ( '',1.000000000000000000, 0.000000000000000000, 0.000000000000000000 ) ;
#92 = ORIENTED_EDGE ( 'NONE', *, *, #45, .F. ) ;
#93 = DIMENSIONAL_EXPONENTS ( 1.000000000000000000, 0.000000000000000000, 0.000000000000000000, 0.000000000000000000, 0.000000000000000000, 0.000000000000000000, 0.000000000000000000 ) ;
#94 = FILL_AREA_STYLE ('',( #230 ) ) ;
#95 = CARTESIAN_POINT ( 'NONE',  ( 0.000000000000000000, 0.000000000000000000, 0.000000000000000000 ) ) ;
#96 = VECTOR ( 'NONE', #229, 39.37007874015748143 ) ;
#97 = ORIENTED_EDGE ( 'NONE', *, *, #110, .F. ) ;
#98 = ORIENTED_EDGE ( 'NONE', *, *, #261, .T. ) ;
#99 =( NAMED_UNIT ( * ) SI_UNIT ( $, .STERADIAN. ) SOLID_ANGLE_UNIT ( ) );
#100 = CARTESIAN_POINT ( 'NONE',  ( 0.000000000000000000, 0.000000000000000000, 0.000000000000000000 ) ) ;
#101 = DIRECTION ( 'NONE',  ( 3.628583108584750472E-17, 1.000000000000000000, -0.000000000000000000 ) ) ;
#102 = SURFACE_STYLE_FILL_AREA ( #49 ) ;
#103 = CARTESIAN_POINT ( 'NONE',  ( 6.123233995736766036E-17, 2.000000000000000000, 0.000000000000000000 ) ) ;
#104 = FILL_AREA_STYLE ('',( #29 ) ) ;
#105 = EDGE_LOOP ( 'NONE', ( #23, #86 ) ) ;
#106 = UNCERTAINTY_MEASURE_WITH_UNIT (LENGTH_MEASURE( 1.000000000000000082E-05 ), #111, 'distance_accuracy_value', 'NONE');
#107 = CARTESIAN_POINT ( 'NONE',  ( 0.000000000000000000, 0.3125000000000000000, 0.000000000000000000 ) ) ;
#108 = UNCERTAINTY_MEASURE_WITH_UNIT (LENGTH_MEASURE( 1.000000000000000082E-05 ), #128, 'distance_accuracy_value', 'NONE');
#109 = LENGTH_MEASURE_WITH_UNIT ( LENGTH_MEASURE( 0.02539999999999999897 ), #56 );
#110 = EDGE_CURVE ( 'NONE', #224, #243, #142, .T. ) ;
#111 =( CONVERSION_BASED_UNIT ( 'INCH', #17 ) LENGTH_UNIT ( ) NAMED_UNIT ( #165 ) );
#112 = CIRCLE ( 'NONE', #177, 0.09374999999999998612 ) ;
#113 = EDGE_LOOP ( 'NONE', ( #98, #216 ) ) ;
#114 = ADVANCED_FACE ( 'NONE', ( #183 ), #156, .F. ) ;
#115 = MECHANICAL_DESIGN_GEOMETRIC_PRESENTATION_REPRESENTATION (  '', ( #205 ), #125 ) ;
#116 = CARTESIAN_POINT ( 'NONE',  ( 0.000000000000000000, 0.000000000000000000, 0.000000000000000000 ) ) ;
#117 = PRESENTATION_STYLE_ASSIGNMENT (( #219 ) ) ;
#118 = ORIENTED_EDGE ( 'NONE', *, *, #261, .F. ) ;
#119 = CLOSED_SHELL ( 'NONE', ( #140, #43, #18, #122 ) ) ;
#120 = CIRCLE ( 'NONE', #3, 0.09374999999999998612 ) ;
#121 = EDGE_LOOP ( 'NONE', ( #189, #161 ) ) ;
#122 = ADVANCED_FACE ( 'NONE', ( #58 ), #32, .T. ) ;
#123 = ADVANCED_FACE ( 'NONE', ( #170 ), #272, .F. ) ;
#124 =( NAMED_UNIT ( * ) PLANE_ANGLE_UNIT ( ) SI_UNIT ( $, .RADIAN. ) );
#125 =( GEOMETRIC_REPRESENTATION_CONTEXT ( 3 ) GLOBAL_UNCERTAINTY_ASSIGNED_CONTEXT ( ( #34 ) ) GLOBAL_UNIT_ASSIGNED_CONTEXT ( ( #137, #203, #99 ) ) REPRESENTATION_CONTEXT ( 'NONE', 'WORKASPACE' ) );
#126 = DIRECTION ( 'NONE',  ( 3.628583108584750472E-17, 1.000000000000000000, -0.000000000000000000 ) ) ;
#127 = ORIENTED_EDGE ( 'NONE', *, *, #136, .F. ) ;
#128 =( CONVERSION_BASED_UNIT ( 'INCH', #28 ) LENGTH_UNIT ( ) NAMED_UNIT ( #65 ) );
#129 = EDGE_CURVE ( 'NONE', #60, #66, #278, .T. ) ;
#130 = SURFACE_STYLE_USAGE ( .BOTH. , #176 ) ;
#131 =( LENGTH_UNIT ( ) NAMED_UNIT ( * ) SI_UNIT ( $, .METRE. ) );
#132 = AXIS2_PLACEMENT_3D ( 'NONE', #95, #192, #288 ) ;
#133 = AXIS2_PLACEMENT_3D ( 'NONE', #171, #273, #254 ) ;
#134 = FILL_AREA_STYLE_COLOUR ( '', #12 ) ;
#135 = CARTESIAN_POINT ( 'NONE',  ( 6.123233995736766036E-17, 2.000000000000000000, 0.000000000000000000 ) ) ;
#136 = EDGE_CURVE ( 'NONE', #243, #224, #120, .T. ) ;
#137 =( CONVERSION_BASED_UNIT ( 'INCH', #35 ) LENGTH_UNIT ( ) NAMED_UNIT ( #2 ) );
#138 = STYLED_ITEM ( 'NONE', ( #36 ), #43 ) ;
#139 = CIRCLE ( 'NONE', #244, 0.09374999999999991673 ) ;
#140 = ADVANCED_FACE ( 'NONE', ( #173 ), #82, .T. ) ;
#141 = DIRECTION ( 'NONE',  ( 3.628583108584750472E-17, 1.000000000000000000, -0.000000000000000000 ) ) ;
#142 = CIRCLE ( 'NONE', #84, 0.09374999999999998612 ) ;
#143 = ORIENTED_EDGE ( 'NONE', *, *, #271, .F. ) ;
#144 = FACE_OUTER_BOUND ( 'NONE', #305, .T. ) ;
#145 = PLANE ( 'NONE',  #234 ) ;
#146 =( GEOMETRIC_REPRESENTATION_CONTEXT ( 3 ) GLOBAL_UNCERTAINTY_ASSIGNED_CONTEXT ( ( #298 ) ) GLOBAL_UNIT_ASSIGNED_CONTEXT ( ( #152, #9, #247 ) ) REPRESENTATION_CONTEXT ( 'NONE', 'WORKASPACE' ) );
#147 = LENGTH_MEASURE_WITH_UNIT ( LENGTH_MEASURE( 0.02539999999999999897 ), #79 );
#148 = LINE ( 'NONE', #70, #19 ) ;
#149 = DIRECTION ( 'NONE',  ( 0.000000000000000000, 0.000000000000000000, -1.000000000000000000 ) ) ;
#150 = CYLINDRICAL_SURFACE ( 'NONE', #52, 0.09374999999999995837 ) ;
#151 = MECHANICAL_DESIGN_GEOMETRIC_PRESENTATION_REPRESENTATION (  '', ( #285 ), #146 ) ;
#152 =( CONVERSION_BASED_UNIT ( 'INCH', #47 ) LENGTH_UNIT ( ) NAMED_UNIT ( #93 ) );
#153 = CARTESIAN_POINT ( 'NONE',  ( 0.09375000000000002776, 2.000000000000000000, 1.148106374200643092E-17 ) ) ;
#154 = CARTESIAN_POINT ( 'NONE',  ( 0.000000000000000000, 0.000000000000000000, -0.09375000000000001388 ) ) ;
#155 =( GEOMETRIC_REPRESENTATION_CONTEXT ( 3 ) GLOBAL_UNCERTAINTY_ASSIGNED_CONTEXT ( ( #108 ) ) GLOBAL_UNIT_ASSIGNED_CONTEXT ( ( #128, #11, #80 ) ) REPRESENTATION_CONTEXT ( 'NONE', 'WORKASPACE' ) );
#156 = PLANE ( 'NONE',  #218 ) ;
#157 = CARTESIAN_POINT ( 'NONE',  ( 1.148106374200643401E-17, 0.3125000000000000000, 0.09374999999999998612 ) ) ;
#158 = ORIENTED_EDGE ( 'NONE', *, *, #110, .T. ) ;
#159 = DIRECTION ( 'NONE',  ( 3.628583108584750472E-17, 1.000000000000000000, -0.000000000000000000 ) ) ;
#160 = ORIENTED_EDGE ( 'NONE', *, *, #271, .T. ) ;
#161 = ORIENTED_EDGE ( 'NONE', *, *, #162, .F. ) ;
#162 = EDGE_CURVE ( 'NONE', #60, #246, #191, .T. ) ;
#163 = COLOUR_RGB ( '',0.7921568627450980005, 0.8196078431372548767, 0.9333333333333333481 ) ;
#164 = ORIENTED_EDGE ( 'NONE', *, *, #242, .T. ) ;
#165 = DIMENSIONAL_EXPONENTS ( 1.000000000000000000, 0.000000000000000000, 0.000000000000000000, 0.000000000000000000, 0.000000000000000000, 0.000000000000000000, 0.000000000000000000 ) ;
#166 =( LENGTH_UNIT ( ) NAMED_UNIT ( * ) SI_UNIT ( $, .METRE. ) );
#167 = FACE_OUTER_BOUND ( 'NONE', #121, .T. ) ;
#168 =( LENGTH_UNIT ( ) NAMED_UNIT ( * ) SI_UNIT ( $, .METRE. ) );
#169 = CARTESIAN_POINT ( 'NONE',  ( 0.000000000000000000, 0.3125000000000000000, 0.000000000000000000 ) ) ;
#170 = FACE_OUTER_BOUND ( 'NONE', #194, .T. ) ;
#171 = CARTESIAN_POINT ( 'NONE',  ( 0.000000000000000000, 0.000000000000000000, 0.000000000000000000 ) ) ;
#172 = DIRECTION ( 'NONE',  ( -0.000000000000000000, -1.000000000000000000, -0.000000000000000000 ) ) ;
#173 = FACE_OUTER_BOUND ( 'NONE', #270, .T. ) ;
#174 = CARTESIAN_POINT ( 'NONE',  ( 0.09374999999999998612, 0.3125000000000000000, 1.148106374200643247E-17 ) ) ;
#175 = APPLICATION_PROTOCOL_DEFINITION ( 'draft international standard', 'automotive_design', 1998, #81 ) ;
#176 = SURFACE_SIDE_STYLE ('',( #73 ) ) ;
#177 = AXIS2_PLACEMENT_3D ( 'NONE', #72, #8, #179 ) ;
#178 = PRESENTATION_STYLE_ASSIGNMENT (( #195 ) ) ;
#179 = DIRECTION ( 'NONE',  ( 0.000000000000000000, 0.000000000000000000, -1.000000000000000000 ) ) ;
#180 = MANIFOLD_SOLID_BREP ( 'Revolve - Tool Body (Straight Shanked)', #267 ) ;
#181 = CARTESIAN_POINT ( 'NONE',  ( -0.09374999999999984734, 2.000000000000000000, 0.000000000000000000 ) ) ;
#182 = EDGE_CURVE ( 'NONE', #243, #190, #7, .T. ) ;
#183 = FACE_OUTER_BOUND ( 'NONE', #113, .T. ) ;
#184 = PRODUCT_DEFINITION_CONTEXT ( 'detailed design', #81, 'design' ) ;
#185 = PRESENTATION_LAYER_ASSIGNMENT (  '', '', ( #199 ) ) ;
#186 = DIRECTION ( 'NONE',  ( 3.628583108584750472E-17, 1.000000000000000000, -0.000000000000000000 ) ) ;
#187 = PRESENTATION_STYLE_ASSIGNMENT (( #30 ) ) ;
#188 =( NAMED_UNIT ( * ) SI_UNIT ( $, .STERADIAN. ) SOLID_ANGLE_UNIT ( ) );
#189 = ORIENTED_EDGE ( 'NONE', *, *, #242, .F. ) ;
#190 = VERTEX_POINT ( 'NONE', #202 ) ;
#191 = CIRCLE ( 'NONE', #38, 0.09374999999999998612 ) ;
#192 = DIRECTION ( 'NONE',  ( -0.000000000000000000, -1.000000000000000000, -0.000000000000000000 ) ) ;
#193 = PRODUCT ( '23040', '23040', '', ( #225 ) ) ;
#194 = EDGE_LOOP ( 'NONE', ( #97, #127 ) ) ;
#195 = SURFACE_STYLE_USAGE ( .BOTH. , #265 ) ;
#196 = CARTESIAN_POINT ( 'NONE',  ( 0.000000000000000000, 0.000000000000000000, 0.000000000000000000 ) ) ;
#197 = DIRECTION ( 'NONE',  ( 0.000000000000000000, -1.000000000000000000, -0.000000000000000000 ) ) ;
#198 =( GEOMETRIC_REPRESENTATION_CONTEXT ( 3 ) GLOBAL_UNCERTAINTY_ASSIGNED_CONTEXT ( ( #31 ) ) GLOBAL_UNIT_ASSIGNED_CONTEXT ( ( #64, #309, #44 ) ) REPRESENTATION_CONTEXT ( 'NONE', 'WORKASPACE' ) );
#199 = STYLED_ITEM ( 'NONE', ( #187 ), #62 ) ;
#200 = SURFACE_SIDE_STYLE ('',( #102 ) ) ;
#201 = DIRECTION ( 'NONE',  ( -1.000000000000000000, 3.628583108584750472E-17, 0.000000000000000000 ) ) ;
#202 = CARTESIAN_POINT ( 'NONE',  ( 0.09374999999999998612, 2.000000000000000000, 1.148106374200643247E-17 ) ) ;
#203 =( NAMED_UNIT ( * ) PLANE_ANGLE_UNIT ( ) SI_UNIT ( $, .RADIAN. ) );
#204 = ORIENTED_EDGE ( 'NONE', *, *, #289, .F. ) ;
#205 = STYLED_ITEM ( 'NONE', ( #233 ), #140 ) ;
#206 = CARTESIAN_POINT ( 'NONE',  ( 0.000000000000000000, 0.3125000000000000000, 0.000000000000000000 ) ) ;
#207 = CARTESIAN_POINT ( 'NONE',  ( 6.123233995736766036E-17, 2.000000000000000000, 0.000000000000000000 ) ) ;
#208 = CARTESIAN_POINT ( 'NONE',  ( 0.000000000000000000, 0.000000000000000000, 0.000000000000000000 ) ) ;
#209 = CARTESIAN_POINT ( 'NONE',  ( 6.171850957456204517E-35, 0.3125000000000000000, 0.000000000000000000 ) ) ;
#210 =( NAMED_UNIT ( * ) PLANE_ANGLE_UNIT ( ) SI_UNIT ( $, .RADIAN. ) );
#211 = LINE ( 'NONE', #21, #77 ) ;
#212 = SURFACE_STYLE_FILL_AREA ( #239 ) ;
#213 = MECHANICAL_DESIGN_GEOMETRIC_PRESENTATION_REPRESENTATION (  '', ( #307 ), #297 ) ;
#214 = FILL_AREA_STYLE_COLOUR ( '', #68 ) ;
#215 =( NAMED_UNIT ( * ) SI_UNIT ( $, .STERADIAN. ) SOLID_ANGLE_UNIT ( ) );
#216 = ORIENTED_EDGE ( 'NONE', *, *, #45, .T. ) ;
#217 = AXIS2_PLACEMENT_3D ( 'NONE', #116, #67, #222 ) ;
#218 = AXIS2_PLACEMENT_3D ( 'NONE', #259, #237, #14 ) ;
#219 = SURFACE_STYLE_USAGE ( .BOTH. , #1 ) ;
#220 = EDGE_CURVE ( 'NONE', #66, #78, #63, .T. ) ;
#221 = PRODUCT_DEFINITION_SHAPE ( 'NONE', 'NONE',  #85 ) ;
#222 = DIRECTION ( 'NONE',  ( 0.000000000000000000, 0.000000000000000000, -1.000000000000000000 ) ) ;
#223 = AXIS2_PLACEMENT_3D ( 'NONE', #207, #235, #303 ) ;
#224 = VERTEX_POINT ( 'NONE', #295 ) ;
#225 = PRODUCT_CONTEXT ( 'NONE', #61, 'mechanical' ) ;
#226 = DIRECTION ( 'NONE',  ( 3.628583108584750472E-17, 1.000000000000000000, -0.000000000000000000 ) ) ;
#227 = PRESENTATION_LAYER_ASSIGNMENT (  '', '', ( #285 ) ) ;
#228 =( NAMED_UNIT ( * ) SI_UNIT ( $, .STERADIAN. ) SOLID_ANGLE_UNIT ( ) );
#229 = DIRECTION ( 'NONE',  ( -0.000000000000000000, -1.000000000000000000, -0.000000000000000000 ) ) ;
#230 = FILL_AREA_STYLE_COLOUR ( '', #291 ) ;
#231 = DIRECTION ( 'NONE',  ( 3.628583108584750472E-17, 1.000000000000000000, -0.000000000000000000 ) ) ;
#232 = UNCERTAINTY_MEASURE_WITH_UNIT (LENGTH_MEASURE( 1.000000000000000082E-05 ), #283, 'distance_accuracy_value', 'NONE');
#233 = PRESENTATION_STYLE_ASSIGNMENT (( #130 ) ) ;
#234 = AXIS2_PLACEMENT_3D ( 'NONE', #206, #256, #59 ) ;
#235 = DIRECTION ( 'NONE',  ( 3.628583108584750472E-17, 1.000000000000000000, -0.000000000000000000 ) ) ;
#236 = UNCERTAINTY_MEASURE_WITH_UNIT (LENGTH_MEASURE( 1.000000000000000082E-05 ), #249, 'distance_accuracy_value', 'NONE');
#237 = DIRECTION ( 'NONE',  ( -3.628583108584750472E-17, -1.000000000000000000, 0.000000000000000000 ) ) ;
#238 = SURFACE_SIDE_STYLE ('',( #212 ) ) ;
#239 = FILL_AREA_STYLE ('',( #134 ) ) ;
#240 = DIRECTION ( 'NONE',  ( -1.000000000000000000, 0.000000000000000000, 0.000000000000000000 ) ) ;
#241 = DIMENSIONAL_EXPONENTS ( 1.000000000000000000, 0.000000000000000000, 0.000000000000000000, 0.000000000000000000, 0.000000000000000000, 0.000000000000000000, 0.000000000000000000 ) ;
#242 = EDGE_CURVE ( 'NONE', #246, #60, #112, .T. ) ;
#243 = VERTEX_POINT ( 'NONE', #174 ) ;
#244 = AXIS2_PLACEMENT_3D ( 'NONE', #135, #159, #299 ) ;
#245 = ADVANCED_FACE ( 'NONE', ( #50 ), #150, .T. ) ;
#246 = VERTEX_POINT ( 'NONE', #13 ) ;
#247 =( NAMED_UNIT ( * ) SI_UNIT ( $, .STERADIAN. ) SOLID_ANGLE_UNIT ( ) );
#248 = FILL_AREA_STYLE_COLOUR ( '', #5 ) ;
#249 =( CONVERSION_BASED_UNIT ( 'INCH', #147 ) LENGTH_UNIT ( ) NAMED_UNIT ( #308 ) );
#250 = DIRECTION ( 'NONE',  ( -1.000000000000000000, 0.000000000000000000, 0.000000000000000000 ) ) ;
#251 = DIRECTION ( 'NONE',  ( 1.000000000000000000, 0.000000000000000000, 0.000000000000000000 ) ) ;
#252 = AXIS2_PLACEMENT_3D ( 'NONE', #208, #75, #251 ) ;
#253 = APPLICATION_PROTOCOL_DEFINITION ( 'draft international standard', 'automotive_design', 1998, #61 ) ;
#254 = DIRECTION ( 'NONE',  ( 0.000000000000000000, 0.000000000000000000, -1.000000000000000000 ) ) ;
#255 = DIRECTION ( 'NONE',  ( 3.628583108584750472E-17, 1.000000000000000000, -0.000000000000000000 ) ) ;
#256 = DIRECTION ( 'NONE',  ( 0.000000000000000000, 1.000000000000000000, 0.000000000000000000 ) ) ;
#257 = ADVANCED_BREP_SHAPE_REPRESENTATION ( '23040', ( #62, #180, #252 ), #155 ) ;
#258 = PRODUCT_DEFINITION_FORMATION_WITH_SPECIFIED_SOURCE ( 'ANY', '', #193, .NOT_KNOWN. ) ;
#259 = CARTESIAN_POINT ( 'NONE',  ( 0.09374999999999998612, 2.000000000000000000, 0.000000000000000000 ) ) ;
#260 = DIRECTION ( 'NONE',  ( -1.000000000000000000, 0.000000000000000000, 0.000000000000000000 ) ) ;
#261 = EDGE_CURVE ( 'NONE', #282, #190, #46, .T. ) ;
#262 = ORIENTED_EDGE ( 'NONE', *, *, #182, .F. ) ;
#263 =( GEOMETRIC_REPRESENTATION_CONTEXT ( 3 ) GLOBAL_UNCERTAINTY_ASSIGNED_CONTEXT ( ( #232 ) ) GLOBAL_UNIT_ASSIGNED_CONTEXT ( ( #283, #210, #188 ) ) REPRESENTATION_CONTEXT ( 'NONE', 'WORKASPACE' ) );
#264 = ORIENTED_EDGE ( 'NONE', *, *, #182, .T. ) ;
#265 = SURFACE_SIDE_STYLE ('',( #48 ) ) ;
#266 = DIMENSIONAL_EXPONENTS ( 1.000000000000000000, 0.000000000000000000, 0.000000000000000000, 0.000000000000000000, 0.000000000000000000, 0.000000000000000000, 0.000000000000000000 ) ;
#267 = CLOSED_SHELL ( 'NONE', ( #245, #123, #294, #114 ) ) ;
#268 = PRESENTATION_LAYER_ASSIGNMENT (  '', '', ( #37 ) ) ;
#269 = AXIS2_PLACEMENT_3D ( 'NONE', #209, #226, #201 ) ;
#270 = EDGE_LOOP ( 'NONE', ( #164, #54, #284, #204 ) ) ;
#271 = EDGE_CURVE ( 'NONE', #224, #282, #211, .T. ) ;
#272 = PLANE ( 'NONE',  #269 ) ;
#273 = DIRECTION ( 'NONE',  ( -0.000000000000000000, -1.000000000000000000, -0.000000000000000000 ) ) ;
#274 = DIRECTION ( 'NONE',  ( 0.000000000000000000, 0.000000000000000000, -1.000000000000000000 ) ) ;
#275 = FACE_OUTER_BOUND ( 'NONE', #10, .T. ) ;
#276 = VECTOR ( 'NONE', #101, 39.37007874015748143 ) ;
#277 = CARTESIAN_POINT ( 'NONE',  ( 6.123233995736766036E-17, 2.000000000000000000, 0.000000000000000000 ) ) ;
#278 = LINE ( 'NONE', #55, #96 ) ;
#279 =( LENGTH_UNIT ( ) NAMED_UNIT ( * ) SI_UNIT ( $, .METRE. ) );
#280 =( NAMED_UNIT ( * ) PLANE_ANGLE_UNIT ( ) SI_UNIT ( $, .RADIAN. ) );
#281 = SURFACE_STYLE_FILL_AREA ( #24 ) ;
#282 = VERTEX_POINT ( 'NONE', #181 ) ;
#283 =( CONVERSION_BASED_UNIT ( 'INCH', #109 ) LENGTH_UNIT ( ) NAMED_UNIT ( #241 ) );
#284 = ORIENTED_EDGE ( 'NONE', *, *, #42, .F. ) ;
#285 = STYLED_ITEM ( 'NONE', ( #117 ), #122 ) ;
#286 = ORIENTED_EDGE ( 'NONE', *, *, #162, .T. ) ;
#287 =( GEOMETRIC_REPRESENTATION_CONTEXT ( 3 ) GLOBAL_UNCERTAINTY_ASSIGNED_CONTEXT ( ( #106 ) ) GLOBAL_UNIT_ASSIGNED_CONTEXT ( ( #111, #280, #215 ) ) REPRESENTATION_CONTEXT ( 'NONE', 'WORKASPACE' ) );
#288 = DIRECTION ( 'NONE',  ( 0.000000000000000000, 0.000000000000000000, -1.000000000000000000 ) ) ;
#289 = EDGE_CURVE ( 'NONE', #246, #78, #148, .T. ) ;
#290 = DIRECTION ( 'NONE',  ( 0.000000000000000000, 0.000000000000000000, -1.000000000000000000 ) ) ;
#291 = COLOUR_RGB ( '',1.000000000000000000, 0.000000000000000000, 0.000000000000000000 ) ;
#292 = AXIS2_PLACEMENT_3D ( 'NONE', #103, #126, #250 ) ;
#293 = CYLINDRICAL_SURFACE ( 'NONE', #292, 0.09374999999999995837 ) ;
#294 = ADVANCED_FACE ( 'NONE', ( #275 ), #293, .T. ) ;
#295 = CARTESIAN_POINT ( 'NONE',  ( -0.09374999999999998612, 0.3125000000000000000, 0.000000000000000000 ) ) ;
#296 = FILL_AREA_STYLE_COLOUR ( '', #163 ) ;
#297 =( GEOMETRIC_REPRESENTATION_CONTEXT ( 3 ) GLOBAL_UNCERTAINTY_ASSIGNED_CONTEXT ( ( #236 ) ) GLOBAL_UNIT_ASSIGNED_CONTEXT ( ( #249, #124, #228 ) ) REPRESENTATION_CONTEXT ( 'NONE', 'WORKASPACE' ) );
#298 = UNCERTAINTY_MEASURE_WITH_UNIT (LENGTH_MEASURE( 1.000000000000000082E-05 ), #152, 'distance_accuracy_value', 'NONE');
#299 = DIRECTION ( 'NONE',  ( -1.000000000000000000, 0.000000000000000000, 0.000000000000000000 ) ) ;
#300 = AXIS2_PLACEMENT_3D ( 'NONE', #196, #53, #149 ) ;
#301 = EDGE_LOOP ( 'NONE', ( #158, #264, #118, #143 ) ) ;
#302 = FILL_AREA_STYLE ('',( #214 ) ) ;
#303 = DIRECTION ( 'NONE',  ( -1.000000000000000000, 0.000000000000000000, 0.000000000000000000 ) ) ;
#304 = SURFACE_SIDE_STYLE ('',( #281 ) ) ;
#305 = EDGE_LOOP ( 'NONE', ( #33, #286, #40, #89 ) ) ;
#306 = PRESENTATION_LAYER_ASSIGNMENT (  '', '', ( #138 ) ) ;
#307 = STYLED_ITEM ( 'NONE', ( #74 ), #180 ) ;
#308 = DIMENSIONAL_EXPONENTS ( 1.000000000000000000, 0.000000000000000000, 0.000000000000000000, 0.000000000000000000, 0.000000000000000000, 0.000000000000000000, 0.000000000000000000 ) ;
#309 =( NAMED_UNIT ( * ) PLANE_ANGLE_UNIT ( ) SI_UNIT ( $, .RADIAN. ) );
ENDSEC;
END-ISO-10303-21;
