ISO-10303-21;
HEADER;
FILE_DESCRIPTION (( 'STEP AP214' ),
    '1' );
FILE_NAME ('59258.STEP',
    '2023-06-22T22:20:15',
    ( '' ),
    ( '' ),
    'SwSTEP 2.0',
    'SolidWorks 2023',
    '' );
FILE_SCHEMA (( 'AUTOMOTIVE_DESIGN' ));
ENDSEC;

DATA;
#1 = PRESENTATION_STYLE_ASSIGNMENT (( #105 ) ) ;
#2 = CARTESIAN_POINT ( 'NONE',  ( -0.1875000000000000555, 0.5000000000000001110, 0.000000000000000000 ) ) ;
#3 = LENGTH_MEASURE_WITH_UNIT ( LENGTH_MEASURE( 0.02539999999999999897 ), #143 );
#4 = PRESENTATION_STYLE_ASSIGNMENT (( #223 ) ) ;
#5 = DIRECTION ( 'NONE',  ( 8.164311994315692567E-17, 1.000000000000000000, -0.000000000000000000 ) ) ;
#6 = PLANE ( 'NONE',  #11 ) ;
#7 = PLANE ( 'NONE',  #263 ) ;
#8 = VERTEX_POINT ( 'NONE', #2 ) ;
#9 = PLANE ( 'NONE',  #305 ) ;
#10 = ADVANCED_FACE ( 'NONE', ( #186 ), #176, .T. ) ;
#11 = AXIS2_PLACEMENT_3D ( 'NONE', #106, #85, #278 ) ;
#12 = LINE ( 'NONE', #281, #90 ) ;
#13 = SURFACE_STYLE_FILL_AREA ( #182 ) ;
#14 = FACE_OUTER_BOUND ( 'NONE', #153, .T. ) ;
#15 = LENGTH_MEASURE_WITH_UNIT ( LENGTH_MEASURE( 0.02539999999999999897 ), #28 );
#16 = AXIS2_PLACEMENT_3D ( 'NONE', #51, #5, #60 ) ;
#17 = MECHANICAL_DESIGN_GEOMETRIC_PRESENTATION_REPRESENTATION (  '', ( #82 ), #56 ) ;
#18 = CARTESIAN_POINT ( 'NONE',  ( 0.000000000000000000, 0.000000000000000000, 0.000000000000000000 ) ) ;
#19 = VERTEX_POINT ( 'NONE', #126 ) ;
#20 = PRODUCT_DEFINITION ( 'UNKNOWN', '', #33, #136 ) ;
#21 = DIMENSIONAL_EXPONENTS ( 1.000000000000000000, 0.000000000000000000, 0.000000000000000000, 0.000000000000000000, 0.000000000000000000, 0.000000000000000000, 0.000000000000000000 ) ;
#22 = VERTEX_POINT ( 'NONE', #160 ) ;
#23 =( NAMED_UNIT ( * ) PLANE_ANGLE_UNIT ( ) SI_UNIT ( $, .RADIAN. ) );
#24 = ORIENTED_EDGE ( 'NONE', *, *, #104, .T. ) ;
#25 = CIRCLE ( 'NONE', #184, 0.1875000000000000555 ) ;
#26 = SURFACE_STYLE_FILL_AREA ( #175 ) ;
#27 = VERTEX_POINT ( 'NONE', #180 ) ;
#28 =( LENGTH_UNIT ( ) NAMED_UNIT ( * ) SI_UNIT ( $, .METRE. ) );
#29 = ORIENTED_EDGE ( 'NONE', *, *, #183, .T. ) ;
#30 = DIRECTION ( 'NONE',  ( 0.000000000000000000, 0.000000000000000000, -1.000000000000000000 ) ) ;
#31 = ORIENTED_EDGE ( 'NONE', *, *, #307, .F. ) ;
#32 = MECHANICAL_DESIGN_GEOMETRIC_PRESENTATION_REPRESENTATION (  '', ( #131 ), #203 ) ;
#33 = PRODUCT_DEFINITION_FORMATION_WITH_SPECIFIED_SOURCE ( 'ANY', '', #67, .NOT_KNOWN. ) ;
#34 =( CONVERSION_BASED_UNIT ( 'INCH', #3 ) LENGTH_UNIT ( ) NAMED_UNIT ( #21 ) );
#35 = CARTESIAN_POINT ( 'NONE',  ( 0.1875000000000000555, 2.000000000000000000, 0.000000000000000000 ) ) ;
#36 = ORIENTED_EDGE ( 'NONE', *, *, #232, .T. ) ;
#37 = ORIENTED_EDGE ( 'NONE', *, *, #123, .F. ) ;
#38 = SURFACE_SIDE_STYLE ('',( #59 ) ) ;
#39 = AXIS2_PLACEMENT_3D ( 'NONE', #299, #189, #295 ) ;
#40 = FILL_AREA_STYLE ('',( #139 ) ) ;
#41 = CARTESIAN_POINT ( 'NONE',  ( 2.296212748401288034E-17, 0.5000000000000000000, 0.1875000000000000555 ) ) ;
#42 =( NAMED_UNIT ( * ) PLANE_ANGLE_UNIT ( ) SI_UNIT ( $, .RADIAN. ) );
#43 = DIMENSIONAL_EXPONENTS ( 1.000000000000000000, 0.000000000000000000, 0.000000000000000000, 0.000000000000000000, 0.000000000000000000, 0.000000000000000000, 0.000000000000000000 ) ;
#44 = SURFACE_STYLE_USAGE ( .BOTH. , #98 ) ;
#45 = ORIENTED_EDGE ( 'NONE', *, *, #70, .F. ) ;
#46 = COLOUR_RGB ( '',0.7921568627450980005, 0.8196078431372548767, 0.9333333333333333481 ) ;
#47 = DIRECTION ( 'NONE',  ( 0.000000000000000000, -0.000000000000000000, 1.000000000000000000 ) ) ;
#48 = EDGE_CURVE ( 'NONE', #83, #292, #55, .T. ) ;
#49 = MECHANICAL_DESIGN_GEOMETRIC_PRESENTATION_REPRESENTATION (  '', ( #221 ), #234 ) ;
#50 = FILL_AREA_STYLE ('',( #298 ) ) ;
#51 = CARTESIAN_POINT ( 'NONE',  ( 1.224646799147353700E-16, 2.000000000000000000, 0.000000000000000000 ) ) ;
#52 = DIRECTION ( 'NONE',  ( 0.000000000000000000, 0.000000000000000000, -1.000000000000000000 ) ) ;
#53 = SURFACE_STYLE_FILL_AREA ( #50 ) ;
#54 = LINE ( 'NONE', #225, #178 ) ;
#55 = CIRCLE ( 'NONE', #140, 0.1875000000000000278 ) ;
#56 =( GEOMETRIC_REPRESENTATION_CONTEXT ( 3 ) GLOBAL_UNCERTAINTY_ASSIGNED_CONTEXT ( ( #84 ) ) GLOBAL_UNIT_ASSIGNED_CONTEXT ( ( #119, #42, #214 ) ) REPRESENTATION_CONTEXT ( 'NONE', 'WORKASPACE' ) );
#57 = DIRECTION ( 'NONE',  ( -0.000000000000000000, -1.000000000000000000, -0.000000000000000000 ) ) ;
#58 = CARTESIAN_POINT ( 'NONE',  ( 0.000000000000000000, 0.000000000000000000, -0.1875000000000000278 ) ) ;
#59 = SURFACE_STYLE_FILL_AREA ( #40 ) ;
#60 = DIRECTION ( 'NONE',  ( -1.000000000000000000, 0.000000000000000000, 0.000000000000000000 ) ) ;
#61 = DIRECTION ( 'NONE',  ( 0.000000000000000000, 0.000000000000000000, -1.000000000000000000 ) ) ;
#62 =( LENGTH_UNIT ( ) NAMED_UNIT ( * ) SI_UNIT ( $, .METRE. ) );
#63 = CARTESIAN_POINT ( 'NONE',  ( 0.000000000000000000, 0.5000000000000001110, 0.000000000000000000 ) ) ;
#64 = FILL_AREA_STYLE ('',( #133 ) ) ;
#65 = STYLED_ITEM ( 'NONE', ( #4 ), #303 ) ;
#66 = UNCERTAINTY_MEASURE_WITH_UNIT (LENGTH_MEASURE( 1.000000000000000082E-05 ), #78, 'distance_accuracy_value', 'NONE');
#67 = PRODUCT ( '59258', '59258', '', ( #91 ) ) ;
#68 = CARTESIAN_POINT ( 'NONE',  ( 0.000000000000000000, 0.5000000000000000000, 0.000000000000000000 ) ) ;
#69 = DIRECTION ( 'NONE',  ( 1.000000000000000000, 0.000000000000000000, 0.000000000000000000 ) ) ;
#70 = EDGE_CURVE ( 'NONE', #128, #252, #177, .T. ) ;
#71 = STYLED_ITEM ( 'NONE', ( #174 ), #248 ) ;
#72 = FACE_OUTER_BOUND ( 'NONE', #138, .T. ) ;
#73 = ORIENTED_EDGE ( 'NONE', *, *, #290, .F. ) ;
#74 = CLOSED_SHELL ( 'NONE', ( #268, #173, #10, #275 ) ) ;
#75 = PRESENTATION_LAYER_ASSIGNMENT (  '', '', ( #82 ) ) ;
#76 = PRESENTATION_LAYER_ASSIGNMENT (  '', '', ( #243 ) ) ;
#77 =( LENGTH_UNIT ( ) NAMED_UNIT ( * ) SI_UNIT ( $, .METRE. ) );
#78 =( CONVERSION_BASED_UNIT ( 'INCH', #127 ) LENGTH_UNIT ( ) NAMED_UNIT ( #147 ) );
#79 = EDGE_LOOP ( 'NONE', ( #45, #254 ) ) ;
#80 = FACE_OUTER_BOUND ( 'NONE', #273, .T. ) ;
#81 = FACE_OUTER_BOUND ( 'NONE', #79, .T. ) ;
#82 = STYLED_ITEM ( 'NONE', ( #95 ), #247 ) ;
#83 = VERTEX_POINT ( 'NONE', #58 ) ;
#84 = UNCERTAINTY_MEASURE_WITH_UNIT (LENGTH_MEASURE( 1.000000000000000082E-05 ), #119, 'distance_accuracy_value', 'NONE');
#85 = DIRECTION ( 'NONE',  ( 8.164311994315692567E-17, 1.000000000000000000, -0.000000000000000000 ) ) ;
#86 = CARTESIAN_POINT ( 'NONE',  ( 1.224646799147353700E-16, 2.000000000000000000, 0.000000000000000000 ) ) ;
#87 =( NAMED_UNIT ( * ) PLANE_ANGLE_UNIT ( ) SI_UNIT ( $, .RADIAN. ) );
#88 = SURFACE_STYLE_USAGE ( .BOTH. , #38 ) ;
#89 = CYLINDRICAL_SURFACE ( 'NONE', #308, 0.1874999999999999722 ) ;
#90 = VECTOR ( 'NONE', #211, 39.37007874015748143 ) ;
#91 = PRODUCT_CONTEXT ( 'NONE', #283, 'mechanical' ) ;
#92 = CYLINDRICAL_SURFACE ( 'NONE', #120, 0.1875000000000000555 ) ;
#93 = UNCERTAINTY_MEASURE_WITH_UNIT (LENGTH_MEASURE( 1.000000000000000082E-05 ), #145, 'distance_accuracy_value', 'NONE');
#94 = ADVANCED_FACE ( 'NONE', ( #80 ), #9, .T. ) ;
#95 = PRESENTATION_STYLE_ASSIGNMENT (( #44 ) ) ;
#96 = CLOSED_SHELL ( 'NONE', ( #247, #240, #303, #94 ) ) ;
#97 = UNCERTAINTY_MEASURE_WITH_UNIT (LENGTH_MEASURE( 1.000000000000000082E-05 ), #187, 'distance_accuracy_value', 'NONE');
#98 = SURFACE_SIDE_STYLE ('',( #114 ) ) ;
#99 = PRESENTATION_LAYER_ASSIGNMENT (  '', '', ( #71 ) ) ;
#100 = DIMENSIONAL_EXPONENTS ( 1.000000000000000000, 0.000000000000000000, 0.000000000000000000, 0.000000000000000000, 0.000000000000000000, 0.000000000000000000, 0.000000000000000000 ) ;
#101 = SURFACE_STYLE_USAGE ( .BOTH. , #179 ) ;
#102 = DIRECTION ( 'NONE',  ( -0.000000000000000000, -1.000000000000000000, -0.000000000000000000 ) ) ;
#103 = DIRECTION ( 'NONE',  ( 8.164311994315692567E-17, 1.000000000000000000, -0.000000000000000000 ) ) ;
#104 = EDGE_CURVE ( 'NONE', #22, #27, #284, .T. ) ;
#105 = SURFACE_STYLE_USAGE ( .BOTH. , #219 ) ;
#106 = CARTESIAN_POINT ( 'NONE',  ( 6.248999094424416107E-34, 0.5000000000000000000, 0.000000000000000000 ) ) ;
#107 =( NAMED_UNIT ( * ) PLANE_ANGLE_UNIT ( ) SI_UNIT ( $, .RADIAN. ) );
#108 = DIRECTION ( 'NONE',  ( 8.164311994315692567E-17, 1.000000000000000000, -0.000000000000000000 ) ) ;
#109 = COLOUR_RGB ( '',1.000000000000000000, 0.000000000000000000, 0.000000000000000000 ) ;
#110 = DIRECTION ( 'NONE',  ( -0.000000000000000000, -1.000000000000000000, -0.000000000000000000 ) ) ;
#111 = DIRECTION ( 'NONE',  ( -1.000000000000000000, 0.000000000000000000, 0.000000000000000000 ) ) ;
#112 = CIRCLE ( 'NONE', #39, 0.1875000000000000278 ) ;
#113 = PRODUCT_DEFINITION_SHAPE ( 'NONE', 'NONE',  #20 ) ;
#114 = SURFACE_STYLE_FILL_AREA ( #198 ) ;
#115 = CIRCLE ( 'NONE', #287, 0.1875000000000000555 ) ;
#116 = LENGTH_MEASURE_WITH_UNIT ( LENGTH_MEASURE( 0.02539999999999999897 ), #279 );
#117 = EDGE_CURVE ( 'NONE', #19, #22, #54, .T. ) ;
#118 = DIMENSIONAL_EXPONENTS ( 1.000000000000000000, 0.000000000000000000, 0.000000000000000000, 0.000000000000000000, 0.000000000000000000, 0.000000000000000000, 0.000000000000000000 ) ;
#119 =( CONVERSION_BASED_UNIT ( 'INCH', #168 ) LENGTH_UNIT ( ) NAMED_UNIT ( #43 ) );
#120 = AXIS2_PLACEMENT_3D ( 'NONE', #215, #251, #52 ) ;
#121 = EDGE_LOOP ( 'NONE', ( #217, #24 ) ) ;
#122 = APPLICATION_CONTEXT ( 'automotive_design' ) ;
#123 = EDGE_CURVE ( 'NONE', #19, #8, #141, .T. ) ;
#124 = ADVANCED_BREP_SHAPE_REPRESENTATION ( '59258', ( #248, #150, #193 ), #235 ) ;
#125 = DIMENSIONAL_EXPONENTS ( 1.000000000000000000, 0.000000000000000000, 0.000000000000000000, 0.000000000000000000, 0.000000000000000000, 0.000000000000000000, 0.000000000000000000 ) ;
#126 = CARTESIAN_POINT ( 'NONE',  ( 0.1875000000000000555, 0.5000000000000001110, 2.296212748401287109E-17 ) ) ;
#127 = LENGTH_MEASURE_WITH_UNIT ( LENGTH_MEASURE( 0.02539999999999999897 ), #218 );
#128 = VERTEX_POINT ( 'NONE', #261 ) ;
#129 = CARTESIAN_POINT ( 'NONE',  ( 1.224646799147353700E-16, 2.000000000000000000, 0.000000000000000000 ) ) ;
#130 = DIRECTION ( 'NONE',  ( -1.000000000000000000, 0.000000000000000000, 0.000000000000000000 ) ) ;
#131 = STYLED_ITEM ( 'NONE', ( #159 ), #240 ) ;
#132 =( GEOMETRIC_REPRESENTATION_CONTEXT ( 3 ) GLOBAL_UNCERTAINTY_ASSIGNED_CONTEXT ( ( #194 ) ) GLOBAL_UNIT_ASSIGNED_CONTEXT ( ( #161, #236, #229 ) ) REPRESENTATION_CONTEXT ( 'NONE', 'WORKASPACE' ) );
#133 = FILL_AREA_STYLE_COLOUR ( '', #109 ) ;
#134 = ORIENTED_EDGE ( 'NONE', *, *, #48, .F. ) ;
#135 =( NAMED_UNIT ( * ) PLANE_ANGLE_UNIT ( ) SI_UNIT ( $, .RADIAN. ) );
#136 = PRODUCT_DEFINITION_CONTEXT ( 'detailed design', #122, 'design' ) ;
#137 = CARTESIAN_POINT ( 'NONE',  ( 0.000000000000000000, 0.5000000000000000000, 0.000000000000000000 ) ) ;
#138 = EDGE_LOOP ( 'NONE', ( #245, #171, #134, #73 ) ) ;
#139 = FILL_AREA_STYLE_COLOUR ( '', #46 ) ;
#140 = AXIS2_PLACEMENT_3D ( 'NONE', #270, #102, #204 ) ;
#141 = CIRCLE ( 'NONE', #151, 0.1875000000000000555 ) ;
#142 = UNCERTAINTY_MEASURE_WITH_UNIT (LENGTH_MEASURE( 1.000000000000000082E-05 ), #34, 'distance_accuracy_value', 'NONE');
#143 =( LENGTH_UNIT ( ) NAMED_UNIT ( * ) SI_UNIT ( $, .METRE. ) );
#144 = CARTESIAN_POINT ( 'NONE',  ( 2.296212748401288034E-17, 0.000000000000000000, 0.1875000000000000555 ) ) ;
#145 =( CONVERSION_BASED_UNIT ( 'INCH', #116 ) LENGTH_UNIT ( ) NAMED_UNIT ( #216 ) );
#146 =( GEOMETRIC_REPRESENTATION_CONTEXT ( 3 ) GLOBAL_UNCERTAINTY_ASSIGNED_CONTEXT ( ( #66 ) ) GLOBAL_UNIT_ASSIGNED_CONTEXT ( ( #78, #23, #192 ) ) REPRESENTATION_CONTEXT ( 'NONE', 'WORKASPACE' ) );
#147 = DIMENSIONAL_EXPONENTS ( 1.000000000000000000, 0.000000000000000000, 0.000000000000000000, 0.000000000000000000, 0.000000000000000000, 0.000000000000000000, 0.000000000000000000 ) ;
#148 = MECHANICAL_DESIGN_GEOMETRIC_PRESENTATION_REPRESENTATION (  '', ( #243 ), #267 ) ;
#149 = ORIENTED_EDGE ( 'NONE', *, *, #195, .F. ) ;
#150 = MANIFOLD_SOLID_BREP ( 'Revolve - Tool Body (Straight Shanked)', #74 ) ;
#151 = AXIS2_PLACEMENT_3D ( 'NONE', #256, #108, #157 ) ;
#152 = FACE_OUTER_BOUND ( 'NONE', #265, .T. ) ;
#153 = EDGE_LOOP ( 'NONE', ( #258, #29, #210, #197 ) ) ;
#154 = EDGE_LOOP ( 'NONE', ( #199, #220, #158, #306 ) ) ;
#155 = DIRECTION ( 'NONE',  ( -0.000000000000000000, -1.000000000000000000, -0.000000000000000000 ) ) ;
#156 = EDGE_LOOP ( 'NONE', ( #149, #37 ) ) ;
#157 = DIRECTION ( 'NONE',  ( -1.000000000000000000, 0.000000000000000000, 0.000000000000000000 ) ) ;
#158 = ORIENTED_EDGE ( 'NONE', *, *, #200, .T. ) ;
#159 = PRESENTATION_STYLE_ASSIGNMENT (( #274 ) ) ;
#160 = CARTESIAN_POINT ( 'NONE',  ( 0.1875000000000000555, 2.000000000000000000, 2.296212748401287109E-17 ) ) ;
#161 =( CONVERSION_BASED_UNIT ( 'INCH', #205 ) LENGTH_UNIT ( ) NAMED_UNIT ( #118 ) );
#162 = PLANE ( 'NONE',  #213 ) ;
#163 = AXIS2_PLACEMENT_3D ( 'NONE', #250, #201, #231 ) ;
#164 = MECHANICAL_DESIGN_GEOMETRIC_PRESENTATION_REPRESENTATION (  '', ( #71 ), #146 ) ;
#165 =( NAMED_UNIT ( * ) SI_UNIT ( $, .STERADIAN. ) SOLID_ANGLE_UNIT ( ) );
#166 = AXIS2_PLACEMENT_3D ( 'NONE', #269, #155, #253 ) ;
#167 = DIRECTION ( 'NONE',  ( -1.000000000000000000, 0.000000000000000000, 0.000000000000000000 ) ) ;
#168 = LENGTH_MEASURE_WITH_UNIT ( LENGTH_MEASURE( 0.02539999999999999897 ), #196 );
#169 = APPLICATION_PROTOCOL_DEFINITION ( 'draft international standard', 'automotive_design', 1998, #122 ) ;
#170 = DIRECTION ( 'NONE',  ( 0.000000000000000000, 1.000000000000000000, 0.000000000000000000 ) ) ;
#171 = ORIENTED_EDGE ( 'NONE', *, *, #291, .T. ) ;
#172 = PRESENTATION_LAYER_ASSIGNMENT (  '', '', ( #131 ) ) ;
#173 = ADVANCED_FACE ( 'NONE', ( #206 ), #6, .F. ) ;
#174 = PRESENTATION_STYLE_ASSIGNMENT (( #101 ) ) ;
#175 = FILL_AREA_STYLE ('',( #309 ) ) ;
#176 = CYLINDRICAL_SURFACE ( 'NONE', #16, 0.1874999999999999722 ) ;
#177 = CIRCLE ( 'NONE', #163, 0.1875000000000000555 ) ;
#178 = VECTOR ( 'NONE', #228, 39.37007874015748143 ) ;
#179 = SURFACE_SIDE_STYLE ('',( #26 ) ) ;
#180 = CARTESIAN_POINT ( 'NONE',  ( -0.1874999999999997780, 2.000000000000000000, 0.000000000000000000 ) ) ;
#181 = SURFACE_SIDE_STYLE ('',( #276 ) ) ;
#182 = FILL_AREA_STYLE ('',( #259 ) ) ;
#183 = EDGE_CURVE ( 'NONE', #252, #128, #115, .T. ) ;
#184 = AXIS2_PLACEMENT_3D ( 'NONE', #63, #237, #233 ) ;
#185 = CYLINDRICAL_SURFACE ( 'NONE', #166, 0.1875000000000000555 ) ;
#186 = FACE_OUTER_BOUND ( 'NONE', #154, .T. ) ;
#187 =( CONVERSION_BASED_UNIT ( 'INCH', #15 ) LENGTH_UNIT ( ) NAMED_UNIT ( #100 ) );
#188 = DIRECTION ( 'NONE',  ( 1.000000000000000000, -8.164311994315692567E-17, 0.000000000000000000 ) ) ;
#189 = DIRECTION ( 'NONE',  ( -0.000000000000000000, -1.000000000000000000, -0.000000000000000000 ) ) ;
#190 = DIRECTION ( 'NONE',  ( 8.164311994315692567E-17, 1.000000000000000000, -0.000000000000000000 ) ) ;
#191 = MECHANICAL_DESIGN_GEOMETRIC_PRESENTATION_REPRESENTATION (  '', ( #65 ), #132 ) ;
#192 =( NAMED_UNIT ( * ) SI_UNIT ( $, .STERADIAN. ) SOLID_ANGLE_UNIT ( ) );
#193 = AXIS2_PLACEMENT_3D ( 'NONE', #18, #300, #69 ) ;
#194 = UNCERTAINTY_MEASURE_WITH_UNIT (LENGTH_MEASURE( 1.000000000000000082E-05 ), #161, 'distance_accuracy_value', 'NONE');
#195 = EDGE_CURVE ( 'NONE', #8, #19, #25, .T. ) ;
#196 =( LENGTH_UNIT ( ) NAMED_UNIT ( * ) SI_UNIT ( $, .METRE. ) );
#197 = ORIENTED_EDGE ( 'NONE', *, *, #232, .F. ) ;
#198 = FILL_AREA_STYLE ('',( #242 ) ) ;
#199 = ORIENTED_EDGE ( 'NONE', *, *, #117, .F. ) ;
#200 = EDGE_CURVE ( 'NONE', #8, #27, #12, .T. ) ;
#201 = DIRECTION ( 'NONE',  ( -0.000000000000000000, -1.000000000000000000, -0.000000000000000000 ) ) ;
#202 = COLOUR_RGB ( '',1.000000000000000000, 0.000000000000000000, 0.000000000000000000 ) ;
#203 =( GEOMETRIC_REPRESENTATION_CONTEXT ( 3 ) GLOBAL_UNCERTAINTY_ASSIGNED_CONTEXT ( ( #97 ) ) GLOBAL_UNIT_ASSIGNED_CONTEXT ( ( #187, #87, #165 ) ) REPRESENTATION_CONTEXT ( 'NONE', 'WORKASPACE' ) );
#204 = DIRECTION ( 'NONE',  ( 0.000000000000000000, 0.000000000000000000, -1.000000000000000000 ) ) ;
#205 = LENGTH_MEASURE_WITH_UNIT ( LENGTH_MEASURE( 0.02539999999999999897 ), #62 );
#206 = FACE_OUTER_BOUND ( 'NONE', #156, .T. ) ;
#207 = UNCERTAINTY_MEASURE_WITH_UNIT (LENGTH_MEASURE( 1.000000000000000082E-05 ), #227, 'distance_accuracy_value', 'NONE');
#208 = AXIS2_PLACEMENT_3D ( 'NONE', #129, #304, #167 ) ;
#209 = DIRECTION ( 'NONE',  ( -8.164311994315692567E-17, -1.000000000000000000, 0.000000000000000000 ) ) ;
#210 = ORIENTED_EDGE ( 'NONE', *, *, #290, .T. ) ;
#211 = DIRECTION ( 'NONE',  ( 8.164311994315692567E-17, 1.000000000000000000, -0.000000000000000000 ) ) ;
#212 = CARTESIAN_POINT ( 'NONE',  ( 0.000000000000000000, 0.000000000000000000, 0.000000000000000000 ) ) ;
#213 = AXIS2_PLACEMENT_3D ( 'NONE', #68, #170, #47 ) ;
#214 =( NAMED_UNIT ( * ) SI_UNIT ( $, .STERADIAN. ) SOLID_ANGLE_UNIT ( ) );
#215 = CARTESIAN_POINT ( 'NONE',  ( 0.000000000000000000, 0.000000000000000000, 0.000000000000000000 ) ) ;
#216 = DIMENSIONAL_EXPONENTS ( 1.000000000000000000, 0.000000000000000000, 0.000000000000000000, 0.000000000000000000, 0.000000000000000000, 0.000000000000000000, 0.000000000000000000 ) ;
#217 = ORIENTED_EDGE ( 'NONE', *, *, #307, .T. ) ;
#218 =( LENGTH_UNIT ( ) NAMED_UNIT ( * ) SI_UNIT ( $, .METRE. ) );
#219 = SURFACE_SIDE_STYLE ('',( #53 ) ) ;
#220 = ORIENTED_EDGE ( 'NONE', *, *, #123, .T. ) ;
#221 = STYLED_ITEM ( 'NONE', ( #293 ), #150 ) ;
#222 = SURFACE_SIDE_STYLE ('',( #13 ) ) ;
#223 = SURFACE_STYLE_USAGE ( .BOTH. , #181 ) ;
#224 = ORIENTED_EDGE ( 'NONE', *, *, #117, .T. ) ;
#225 = CARTESIAN_POINT ( 'NONE',  ( 0.1875000000000001110, 2.000000000000000000, 2.296212748401286801E-17 ) ) ;
#226 = PRODUCT_RELATED_PRODUCT_CATEGORY ( 'part', '', ( #67 ) ) ;
#227 =( CONVERSION_BASED_UNIT ( 'INCH', #294 ) LENGTH_UNIT ( ) NAMED_UNIT ( #125 ) );
#228 = DIRECTION ( 'NONE',  ( 8.164311994315692567E-17, 1.000000000000000000, -0.000000000000000000 ) ) ;
#229 =( NAMED_UNIT ( * ) SI_UNIT ( $, .STERADIAN. ) SOLID_ANGLE_UNIT ( ) );
#230 = CARTESIAN_POINT ( 'NONE',  ( 2.296212748401287726E-17, 0.000000000000000000, 0.1875000000000000278 ) ) ;
#231 = DIRECTION ( 'NONE',  ( 0.000000000000000000, 0.000000000000000000, -1.000000000000000000 ) ) ;
#232 = EDGE_CURVE ( 'NONE', #292, #83, #112, .T. ) ;
#233 = DIRECTION ( 'NONE',  ( -1.000000000000000000, 0.000000000000000000, 0.000000000000000000 ) ) ;
#234 =( GEOMETRIC_REPRESENTATION_CONTEXT ( 3 ) GLOBAL_UNCERTAINTY_ASSIGNED_CONTEXT ( ( #142 ) ) GLOBAL_UNIT_ASSIGNED_CONTEXT ( ( #34, #135, #271 ) ) REPRESENTATION_CONTEXT ( 'NONE', 'WORKASPACE' ) );
#235 =( GEOMETRIC_REPRESENTATION_CONTEXT ( 3 ) GLOBAL_UNCERTAINTY_ASSIGNED_CONTEXT ( ( #93 ) ) GLOBAL_UNIT_ASSIGNED_CONTEXT ( ( #145, #285, #241 ) ) REPRESENTATION_CONTEXT ( 'NONE', 'WORKASPACE' ) );
#236 =( NAMED_UNIT ( * ) PLANE_ANGLE_UNIT ( ) SI_UNIT ( $, .RADIAN. ) );
#237 = DIRECTION ( 'NONE',  ( 8.164311994315692567E-17, 1.000000000000000000, -0.000000000000000000 ) ) ;
#238 = DIRECTION ( 'NONE',  ( -0.000000000000000000, -1.000000000000000000, -0.000000000000000000 ) ) ;
#239 = COLOUR_RGB ( '',0.7921568627450980005, 0.8196078431372548767, 0.9333333333333333481 ) ;
#240 = ADVANCED_FACE ( 'NONE', ( #81 ), #162, .T. ) ;
#241 =( NAMED_UNIT ( * ) SI_UNIT ( $, .STERADIAN. ) SOLID_ANGLE_UNIT ( ) );
#242 = FILL_AREA_STYLE_COLOUR ( '', #255 ) ;
#243 = STYLED_ITEM ( 'NONE', ( #1 ), #94 ) ;
#244 = PRESENTATION_LAYER_ASSIGNMENT (  '', '', ( #65 ) ) ;
#245 = ORIENTED_EDGE ( 'NONE', *, *, #70, .T. ) ;
#246 = ORIENTED_EDGE ( 'NONE', *, *, #195, .T. ) ;
#247 = ADVANCED_FACE ( 'NONE', ( #72 ), #92, .T. ) ;
#248 = MANIFOLD_SOLID_BREP ( 'Revolve - Cutting Edge', #96 ) ;
#249 = VECTOR ( 'NONE', #238, 39.37007874015748143 ) ;
#250 = CARTESIAN_POINT ( 'NONE',  ( 0.000000000000000000, 0.5000000000000000000, 0.000000000000000000 ) ) ;
#251 = DIRECTION ( 'NONE',  ( -0.000000000000000000, -1.000000000000000000, -0.000000000000000000 ) ) ;
#252 = VERTEX_POINT ( 'NONE', #41 ) ;
#253 = DIRECTION ( 'NONE',  ( 0.000000000000000000, 0.000000000000000000, -1.000000000000000000 ) ) ;
#254 = ORIENTED_EDGE ( 'NONE', *, *, #183, .F. ) ;
#255 = COLOUR_RGB ( '',1.000000000000000000, 0.000000000000000000, 0.000000000000000000 ) ;
#256 = CARTESIAN_POINT ( 'NONE',  ( 0.000000000000000000, 0.5000000000000001110, 0.000000000000000000 ) ) ;
#257 = CARTESIAN_POINT ( 'NONE',  ( 1.224646799147353700E-16, 2.000000000000000000, 0.000000000000000000 ) ) ;
#258 = ORIENTED_EDGE ( 'NONE', *, *, #291, .F. ) ;
#259 = FILL_AREA_STYLE_COLOUR ( '', #288 ) ;
#260 = FACE_OUTER_BOUND ( 'NONE', #121, .T. ) ;
#261 = CARTESIAN_POINT ( 'NONE',  ( 0.000000000000000000, 0.5000000000000000000, -0.1875000000000000555 ) ) ;
#262 = SHAPE_DEFINITION_REPRESENTATION ( #113, #124 ) ;
#263 = AXIS2_PLACEMENT_3D ( 'NONE', #35, #209, #188 ) ;
#264 = AXIS2_PLACEMENT_3D ( 'NONE', #86, #103, #130 ) ;
#265 = EDGE_LOOP ( 'NONE', ( #246, #224, #31, #266 ) ) ;
#266 = ORIENTED_EDGE ( 'NONE', *, *, #200, .F. ) ;
#267 =( GEOMETRIC_REPRESENTATION_CONTEXT ( 3 ) GLOBAL_UNCERTAINTY_ASSIGNED_CONTEXT ( ( #207 ) ) GLOBAL_UNIT_ASSIGNED_CONTEXT ( ( #227, #107, #296 ) ) REPRESENTATION_CONTEXT ( 'NONE', 'WORKASPACE' ) );
#268 = ADVANCED_FACE ( 'NONE', ( #152 ), #89, .T. ) ;
#269 = CARTESIAN_POINT ( 'NONE',  ( 0.000000000000000000, 0.000000000000000000, 0.000000000000000000 ) ) ;
#270 = CARTESIAN_POINT ( 'NONE',  ( 0.000000000000000000, 0.000000000000000000, 0.000000000000000000 ) ) ;
#271 =( NAMED_UNIT ( * ) SI_UNIT ( $, .STERADIAN. ) SOLID_ANGLE_UNIT ( ) );
#272 = CARTESIAN_POINT ( 'NONE',  ( 0.000000000000000000, 0.000000000000000000, -0.1875000000000000555 ) ) ;
#273 = EDGE_LOOP ( 'NONE', ( #277, #36 ) ) ;
#274 = SURFACE_STYLE_USAGE ( .BOTH. , #222 ) ;
#275 = ADVANCED_FACE ( 'NONE', ( #260 ), #7, .F. ) ;
#276 = SURFACE_STYLE_FILL_AREA ( #64 ) ;
#277 = ORIENTED_EDGE ( 'NONE', *, *, #48, .T. ) ;
#278 = DIRECTION ( 'NONE',  ( -1.000000000000000000, 8.164311994315692567E-17, 0.000000000000000000 ) ) ;
#279 =( LENGTH_UNIT ( ) NAMED_UNIT ( * ) SI_UNIT ( $, .METRE. ) );
#280 = LINE ( 'NONE', #272, #297 ) ;
#281 = CARTESIAN_POINT ( 'NONE',  ( -0.1874999999999998335, 2.000000000000000000, 0.000000000000000000 ) ) ;
#282 = LINE ( 'NONE', #144, #249 ) ;
#283 = APPLICATION_CONTEXT ( 'automotive_design' ) ;
#284 = CIRCLE ( 'NONE', #208, 0.1874999999999999167 ) ;
#285 =( NAMED_UNIT ( * ) PLANE_ANGLE_UNIT ( ) SI_UNIT ( $, .RADIAN. ) );
#286 = APPLICATION_PROTOCOL_DEFINITION ( 'draft international standard', 'automotive_design', 1998, #283 ) ;
#287 = AXIS2_PLACEMENT_3D ( 'NONE', #137, #110, #61 ) ;
#288 = COLOUR_RGB ( '',1.000000000000000000, 0.000000000000000000, 0.000000000000000000 ) ;
#289 = CIRCLE ( 'NONE', #264, 0.1874999999999999167 ) ;
#290 = EDGE_CURVE ( 'NONE', #128, #83, #280, .T. ) ;
#291 = EDGE_CURVE ( 'NONE', #252, #292, #282, .T. ) ;
#292 = VERTEX_POINT ( 'NONE', #230 ) ;
#293 = PRESENTATION_STYLE_ASSIGNMENT (( #88 ) ) ;
#294 = LENGTH_MEASURE_WITH_UNIT ( LENGTH_MEASURE( 0.02539999999999999897 ), #77 );
#295 = DIRECTION ( 'NONE',  ( 0.000000000000000000, 0.000000000000000000, -1.000000000000000000 ) ) ;
#296 =( NAMED_UNIT ( * ) SI_UNIT ( $, .STERADIAN. ) SOLID_ANGLE_UNIT ( ) );
#297 = VECTOR ( 'NONE', #57, 39.37007874015748143 ) ;
#298 = FILL_AREA_STYLE_COLOUR ( '', #202 ) ;
#299 = CARTESIAN_POINT ( 'NONE',  ( 0.000000000000000000, 0.000000000000000000, 0.000000000000000000 ) ) ;
#300 = DIRECTION ( 'NONE',  ( 0.000000000000000000, 0.000000000000000000, 1.000000000000000000 ) ) ;
#301 = DIRECTION ( 'NONE',  ( 0.000000000000000000, -1.000000000000000000, -0.000000000000000000 ) ) ;
#302 = PRESENTATION_LAYER_ASSIGNMENT (  '', '', ( #221 ) ) ;
#303 = ADVANCED_FACE ( 'NONE', ( #14 ), #185, .T. ) ;
#304 = DIRECTION ( 'NONE',  ( 8.164311994315692567E-17, 1.000000000000000000, -0.000000000000000000 ) ) ;
#305 = AXIS2_PLACEMENT_3D ( 'NONE', #212, #301, #30 ) ;
#306 = ORIENTED_EDGE ( 'NONE', *, *, #104, .F. ) ;
#307 = EDGE_CURVE ( 'NONE', #27, #22, #289, .T. ) ;
#308 = AXIS2_PLACEMENT_3D ( 'NONE', #257, #190, #111 ) ;
#309 = FILL_AREA_STYLE_COLOUR ( '', #239 ) ;
ENDSEC;
END-ISO-10303-21;
