ISO-10303-21;
HEADER;
FILE_DESCRIPTION (( 'STEP AP214' ),
    '1' );
FILE_NAME ('Micro_RDA-60.STEP',
    '2021-08-31T16:59:01',
    ( '' ),
    ( '' ),
    'SwSTEP 2.0',
    'SolidWorks 2020',
    '' );
FILE_SCHEMA (( 'AUTOMOTIVE_DESIGN' ));
ENDSEC;

DATA;
#1 = LINE ( 'NONE', #96, #68 ) ;
#2 = VECTOR ( 'NONE', #279, 39.37007874015748143 ) ;
#3 = EDGE_CURVE ( 'NONE', #234, #222, #297, .T. ) ;
#4 = CYLINDRICAL_SURFACE ( 'NONE', #204, 0.1248750000000000276 ) ;
#5 = LINE ( 'NONE', #257, #100 ) ;
#6 = LINE ( 'NONE', #98, #184 ) ;
#7 = ORIENTED_EDGE ( 'NONE', *, *, #43, .F. ) ;
#8 = ADVANCED_FACE ( 'NONE', ( #25 ), #293, .T. ) ;
#9 = PLANE ( 'NONE',  #270 ) ;
#10 = CONICAL_SURFACE ( 'NONE', #41, 0.1248750000000000276, 0.1745329251994337805 ) ;
#11 = DIRECTION ( 'NONE',  ( 0.0000000000000000000, 0.0000000000000000000, 1.000000000000000000 ) ) ;
#12 = DIRECTION ( 'NONE',  ( -1.224646799147353207E-16, -0.0000000000000000000, -1.000000000000000000 ) ) ;
#13 = MANIFOLD_SOLID_BREP ( 'Cut-Revolve1', #119 ) ;
#14 = AXIS2_PLACEMENT_3D ( 'NONE', #246, #12, #18 ) ;
#15 = ORIENTED_EDGE ( 'NONE', *, *, #106, .F. ) ;
#16 = PRODUCT_CONTEXT ( 'NONE', #229, 'mechanical' ) ;
#17 = CARTESIAN_POINT ( 'NONE',  ( -0.1248749999999999999, 0.0000000000000000000, 3.058555380870514950E-17 ) ) ;
#18 = DIRECTION ( 'NONE',  ( -1.000000000000000000, 0.0000000000000000000, 1.224646799147353207E-16 ) ) ;
#19 = CARTESIAN_POINT ( 'NONE',  ( 0.0000000000000000000, 0.0000000000000000000, 1.984999999999999432 ) ) ;
#20 = VERTEX_POINT ( 'NONE', #101 ) ;
#21 = DIRECTION ( 'NONE',  ( 1.000000000000000000, 0.0000000000000000000, 0.0000000000000000000 ) ) ;
#22 = EDGE_LOOP ( 'NONE', ( #159, #130, #44, #116 ) ) ;
#23 = CIRCLE ( 'NONE', #175, 0.1248750000000000276 ) ;
#24 = UNCERTAINTY_MEASURE_WITH_UNIT (LENGTH_MEASURE( 1.000000000000000082E-05 ), #139, 'distance_accuracy_value', 'NONE');
#25 = FACE_OUTER_BOUND ( 'NONE', #247, .T. ) ;
#26 = ORIENTED_EDGE ( 'NONE', *, *, #205, .F. ) ;
#27 = ADVANCED_FACE ( 'NONE', ( #201 ), #4, .T. ) ;
#28 =( CONVERSION_BASED_UNIT ( 'INCH', #48 ) LENGTH_UNIT ( ) NAMED_UNIT ( #177 ) );
#29 = CARTESIAN_POINT ( 'NONE',  ( 0.0000000000000000000, 0.0000000000000000000, 2.000000000000000000 ) ) ;
#30 = CIRCLE ( 'NONE', #209, 0.1099999999999996397 ) ;
#31 = FACE_OUTER_BOUND ( 'NONE', #196, .T. ) ;
#32 = EDGE_CURVE ( 'NONE', #222, #234, #23, .T. ) ;
#33 = LINE ( 'NONE', #35, #228 ) ;
#34 = EDGE_LOOP ( 'NONE', ( #182, #170, #137, #169 ) ) ;
#35 = CARTESIAN_POINT ( 'NONE',  ( -0.1250000000000000000, 0.0000000000000000000, 2.000000000000000000 ) ) ;
#36 = CONICAL_SURFACE ( 'NONE', #251, 0.1248750000000000276, 0.1745329251994337805 ) ;
#37 = DIRECTION ( 'NONE',  ( 1.000000000000000000, 0.0000000000000000000, 0.0000000000000000000 ) ) ;
#38 = CARTESIAN_POINT ( 'NONE',  ( 0.0000000000000000000, 0.0000000000000000000, 2.000000000000000000 ) ) ;
#39 = PRODUCT_DEFINITION_SHAPE ( 'NONE', 'NONE',  #250 ) ;
#40 = VERTEX_POINT ( 'NONE', #112 ) ;
#41 = AXIS2_PLACEMENT_3D ( 'NONE', #244, #286, #151 ) ;
#42 = DIRECTION ( 'NONE',  ( -0.0000000000000000000, -0.0000000000000000000, -1.000000000000000000 ) ) ;
#43 = EDGE_CURVE ( 'NONE', #40, #20, #30, .T. ) ;
#44 = ORIENTED_EDGE ( 'NONE', *, *, #238, .F. ) ;
#45 = VECTOR ( 'NONE', #69, 39.37007874015748143 ) ;
#46 = VECTOR ( 'NONE', #57, 39.37007874015748143 ) ;
#47 = ORIENTED_EDGE ( 'NONE', *, *, #106, .T. ) ;
#48 = LENGTH_MEASURE_WITH_UNIT ( LENGTH_MEASURE( 0.02539999999999999897 ), #195 );
#49 = ORIENTED_EDGE ( 'NONE', *, *, #3, .F. ) ;
#50 = DIRECTION ( 'NONE',  ( -1.224646799147353207E-16, -0.0000000000000000000, -1.000000000000000000 ) ) ;
#51 = ORIENTED_EDGE ( 'NONE', *, *, #138, .T. ) ;
#52 = DIRECTION ( 'NONE',  ( 1.000000000000000000, 0.0000000000000000000, 0.0000000000000000000 ) ) ;
#53 =( GEOMETRIC_REPRESENTATION_CONTEXT ( 3 ) GLOBAL_UNCERTAINTY_ASSIGNED_CONTEXT ( ( #24 ) ) GLOBAL_UNIT_ASSIGNED_CONTEXT ( ( #139, #160, #249 ) ) REPRESENTATION_CONTEXT ( 'NONE', 'WORKASPACE' ) );
#54 = DIRECTION ( 'NONE',  ( -1.000000000000000000, 0.0000000000000000000, 1.224646799147353207E-16 ) ) ;
#55 = CARTESIAN_POINT ( 'NONE',  ( 0.1248750000000001109, 0.0000000000000000000, 0.7500000000000001110 ) ) ;
#56 = EDGE_LOOP ( 'NONE', ( #178, #72, #143, #173 ) ) ;
#57 = DIRECTION ( 'NONE',  ( 0.1736481776669312749, 0.0000000000000000000, 0.9848077530122077983 ) ) ;
#58 = AXIS2_PLACEMENT_3D ( 'NONE', #253, #299, #94 ) ;
#59 = PRODUCT ( 'Micro_RDA-60', 'Micro_RDA-60', '', ( #16 ) ) ;
#60 = APPLICATION_PROTOCOL_DEFINITION ( 'draft international standard', 'automotive_design', 1998, #229 ) ;
#61 = FILL_AREA_STYLE ('',( #271 ) ) ;
#62 = ORIENTED_EDGE ( 'NONE', *, *, #214, .F. ) ;
#63 = SURFACE_STYLE_FILL_AREA ( #61 ) ;
#64 = DIRECTION ( 'NONE',  ( -1.000000000000000000, 0.0000000000000000000, 0.0000000000000000000 ) ) ;
#65 =( NAMED_UNIT ( * ) PLANE_ANGLE_UNIT ( ) SI_UNIT ( $, .RADIAN. ) );
#66 = UNCERTAINTY_MEASURE_WITH_UNIT (LENGTH_MEASURE( 1.000000000000000082E-05 ), #28, 'distance_accuracy_value', 'NONE');
#67 = COLOUR_RGB ( '',0.7921568627450980005, 0.8196078431372548767, 0.9333333333333333481 ) ;
#68 = VECTOR ( 'NONE', #239, 39.37007874015748854 ) ;
#69 = DIRECTION ( 'NONE',  ( -0.7071067811865434649, 0.0000000000000000000, -0.7071067811865515695 ) ) ;
#70 = ORIENTED_EDGE ( 'NONE', *, *, #80, .F. ) ;
#71 = AXIS2_PLACEMENT_3D ( 'NONE', #197, #179, #73 ) ;
#72 = ORIENTED_EDGE ( 'NONE', *, *, #205, .T. ) ;
#73 = DIRECTION ( 'NONE',  ( -1.000000000000000000, 0.0000000000000000000, 1.224646799147353454E-16 ) ) ;
#74 = DIRECTION ( 'NONE',  ( 1.224646799147353207E-16, 0.0000000000000000000, 1.000000000000000000 ) ) ;
#75 = CARTESIAN_POINT ( 'NONE',  ( 1.872825028598994811E-33, 0.0000000000000000000, 1.529277690435257475E-17 ) ) ;
#76 = AXIS2_PLACEMENT_3D ( 'NONE', #19, #89, #163 ) ;
#77 = DIRECTION ( 'NONE',  ( -0.0000000000000000000, -0.0000000000000000000, -1.000000000000000000 ) ) ;
#78 = ORIENTED_EDGE ( 'NONE', *, *, #80, .T. ) ;
#79 = CARTESIAN_POINT ( 'NONE',  ( 0.1248750000000000276, 1.529277690435257783E-17, -1.529277690435257783E-17 ) ) ;
#80 = EDGE_CURVE ( 'NONE', #92, #171, #86, .T. ) ;
#81 = DIRECTION ( 'NONE',  ( 1.000000000000000000, 0.0000000000000000000, 0.0000000000000000000 ) ) ;
#82 = CIRCLE ( 'NONE', #71, 0.1248749999999999999 ) ;
#83 = LINE ( 'NONE', #268, #157 ) ;
#84 = VERTEX_POINT ( 'NONE', #17 ) ;
#85 = EDGE_LOOP ( 'NONE', ( #255, #133 ) ) ;
#86 = CIRCLE ( 'NONE', #76, 0.1250000000000000000 ) ;
#87 = FILL_AREA_STYLE_COLOUR ( '', #67 ) ;
#88 = DIRECTION ( 'NONE',  ( -1.000000000000000000, 0.0000000000000000000, 0.0000000000000000000 ) ) ;
#89 = DIRECTION ( 'NONE',  ( 0.0000000000000000000, 0.0000000000000000000, -1.000000000000000000 ) ) ;
#90 = PRODUCT_RELATED_PRODUCT_CATEGORY ( 'part', '', ( #59 ) ) ;
#91 = CIRCLE ( 'NONE', #265, 0.1250000000000000000 ) ;
#92 = VERTEX_POINT ( 'NONE', #295 ) ;
#93 = EDGE_CURVE ( 'NONE', #20, #92, #83, .T. ) ;
#94 = DIRECTION ( 'NONE',  ( 1.000000000000000000, 0.0000000000000000000, 0.0000000000000000000 ) ) ;
#95 = EDGE_LOOP ( 'NONE', ( #120, #242, #245, #104 ) ) ;
#96 = CARTESIAN_POINT ( 'NONE',  ( -0.1248749999999999444, 1.529277690435257783E-17, 0.7500000000000001110 ) ) ;
#97 = DIRECTION ( 'NONE',  ( 0.0000000000000000000, 0.0000000000000000000, 1.000000000000000000 ) ) ;
#98 = CARTESIAN_POINT ( 'NONE',  ( 0.1250000000000000000, 1.530808498934191509E-17, 2.000000000000000000 ) ) ;
#99 = DIRECTION ( 'NONE',  ( 0.0000000000000000000, 0.0000000000000000000, 1.000000000000000000 ) ) ;
#100 = VECTOR ( 'NONE', #50, 39.37007874015748143 ) ;
#101 = CARTESIAN_POINT ( 'NONE',  ( 0.1099999999999996397, 1.438959988998137757E-17, 2.000000000000000000 ) ) ;
#102 = CARTESIAN_POINT ( 'NONE',  ( 0.0000000000000000000, 0.0000000000000000000, 2.000000000000000000 ) ) ;
#103 = ORIENTED_EDGE ( 'NONE', *, *, #43, .T. ) ;
#104 = ORIENTED_EDGE ( 'NONE', *, *, #176, .F. ) ;
#105 = CONICAL_SURFACE ( 'NONE', #275, 0.1099999999999996397, 0.7853981633974426169 ) ;
#106 = EDGE_CURVE ( 'NONE', #40, #171, #115, .T. ) ;
#107 = CYLINDRICAL_SURFACE ( 'NONE', #285, 0.1250000000000000000 ) ;
#108 = EDGE_LOOP ( 'NONE', ( #203, #111, #213, #15 ) ) ;
#109 = AXIS2_PLACEMENT_3D ( 'NONE', #187, #189, #210 ) ;
#110 = CIRCLE ( 'NONE', #58, 0.1250000000000000000 ) ;
#111 = ORIENTED_EDGE ( 'NONE', *, *, #93, .T. ) ;
#112 = CARTESIAN_POINT ( 'NONE',  ( -0.1099999999999996397, 0.0000000000000000000, 2.000000000000000000 ) ) ;
#113 = EDGE_CURVE ( 'NONE', #240, #123, #110, .T. ) ;
#114 = PRESENTATION_LAYER_ASSIGNMENT (  '', '', ( #131 ) ) ;
#115 = LINE ( 'NONE', #276, #45 ) ;
#116 = ORIENTED_EDGE ( 'NONE', *, *, #243, .F. ) ;
#117 = APPLICATION_CONTEXT ( 'automotive_design' ) ;
#118 = DIRECTION ( 'NONE',  ( 0.7071067811865434649, 8.659560562354883554E-17, -0.7071067811865515695 ) ) ;
#119 = CLOSED_SHELL ( 'NONE', ( #290, #141, #155, #280, #8, #147, #287, #273, #27, #190 ) ) ;
#120 = ORIENTED_EDGE ( 'NONE', *, *, #192, .F. ) ;
#121 = FACE_OUTER_BOUND ( 'NONE', #85, .T. ) ;
#122 = CARTESIAN_POINT ( 'NONE',  ( 0.0000000000000000000, 0.0000000000000000000, 1.984999999999999432 ) ) ;
#123 = VERTEX_POINT ( 'NONE', #191 ) ;
#124 = DIRECTION ( 'NONE',  ( -0.0000000000000000000, -0.0000000000000000000, -1.000000000000000000 ) ) ;
#125 = EDGE_CURVE ( 'NONE', #234, #240, #1, .T. ) ;
#126 = DIRECTION ( 'NONE',  ( 0.0000000000000000000, 0.0000000000000000000, -1.000000000000000000 ) ) ;
#127 = CIRCLE ( 'NONE', #199, 0.1248749999999999999 ) ;
#128 = DIRECTION ( 'NONE',  ( -1.224646799147353207E-16, -0.0000000000000000000, -1.000000000000000000 ) ) ;
#129 = FACE_OUTER_BOUND ( 'NONE', #233, .T. ) ;
#130 = ORIENTED_EDGE ( 'NONE', *, *, #192, .T. ) ;
#131 = STYLED_ITEM ( 'NONE', ( #181 ), #142 ) ;
#132 = AXIS2_PLACEMENT_3D ( 'NONE', #291, #289, #81 ) ;
#133 = ORIENTED_EDGE ( 'NONE', *, *, #176, .T. ) ;
#134 = FACE_OUTER_BOUND ( 'NONE', #22, .T. ) ;
#135 = DIRECTION ( 'NONE',  ( 0.0000000000000000000, 0.0000000000000000000, 1.000000000000000000 ) ) ;
#136 = LENGTH_MEASURE_WITH_UNIT ( LENGTH_MEASURE( 0.02539999999999999897 ), #154 );
#137 = ORIENTED_EDGE ( 'NONE', *, *, #232, .T. ) ;
#138 = EDGE_CURVE ( 'NONE', #171, #240, #33, .T. ) ;
#139 =( CONVERSION_BASED_UNIT ( 'INCH', #248 ) LENGTH_UNIT ( ) NAMED_UNIT ( #258 ) );
#140 = AXIS2_PLACEMENT_3D ( 'NONE', #224, #97, #223 ) ;
#141 = ADVANCED_FACE ( 'NONE', ( #31 ), #10, .T. ) ;
#142 = ADVANCED_BREP_SHAPE_REPRESENTATION ( 'Micro_RDA-60', ( #13, #132 ), #53 ) ;
#143 = ORIENTED_EDGE ( 'NONE', *, *, #113, .F. ) ;
#144 = CARTESIAN_POINT ( 'NONE',  ( 9.184850993605150903E-17, 0.0000000000000000000, 0.7500000000000001110 ) ) ;
#145 = DIRECTION ( 'NONE',  ( -1.000000000000000000, 0.0000000000000000000, 0.0000000000000000000 ) ) ;
#146 = CARTESIAN_POINT ( 'NONE',  ( -0.1248749999999999444, 1.530043094684724646E-17, 0.7500000000000001110 ) ) ;
#147 = ADVANCED_FACE ( 'NONE', ( #221 ), #9, .T. ) ;
#148 = DIRECTION ( 'NONE',  ( -1.224646799147353207E-16, -0.0000000000000000000, -1.000000000000000000 ) ) ;
#149 =( NAMED_UNIT ( * ) SI_UNIT ( $, .STERADIAN. ) SOLID_ANGLE_UNIT ( ) );
#150 = ORIENTED_EDGE ( 'NONE', *, *, #93, .F. ) ;
#151 = DIRECTION ( 'NONE',  ( 1.000000000000000000, 0.0000000000000000000, 0.0000000000000000000 ) ) ;
#152 = AXIS2_PLACEMENT_3D ( 'NONE', #272, #207, #88 ) ;
#153 = DIRECTION ( 'NONE',  ( -1.000000000000000000, 0.0000000000000000000, 0.0000000000000000000 ) ) ;
#154 =( LENGTH_UNIT ( ) NAMED_UNIT ( * ) SI_UNIT ( $, .METRE. ) );
#155 = ADVANCED_FACE ( 'NONE', ( #235 ), #236, .T. ) ;
#156 = SURFACE_SIDE_STYLE ('',( #63 ) ) ;
#157 = VECTOR ( 'NONE', #118, 39.37007874015748143 ) ;
#158 =( GEOMETRIC_REPRESENTATION_CONTEXT ( 3 ) GLOBAL_UNCERTAINTY_ASSIGNED_CONTEXT ( ( #294 ) ) GLOBAL_UNIT_ASSIGNED_CONTEXT ( ( #226, #65, #227 ) ) REPRESENTATION_CONTEXT ( 'NONE', 'WORKASPACE' ) );
#159 = ORIENTED_EDGE ( 'NONE', *, *, #3, .T. ) ;
#160 =( NAMED_UNIT ( * ) PLANE_ANGLE_UNIT ( ) SI_UNIT ( $, .RADIAN. ) );
#161 = PRODUCT_DEFINITION_CONTEXT ( 'detailed design', #117, 'design' ) ;
#162 = DIRECTION ( 'NONE',  ( 0.0000000000000000000, 0.0000000000000000000, -1.000000000000000000 ) ) ;
#163 = DIRECTION ( 'NONE',  ( 1.000000000000000000, 0.0000000000000000000, 0.0000000000000000000 ) ) ;
#164 = SURFACE_SIDE_STYLE ('',( #211 ) ) ;
#165 =( GEOMETRIC_REPRESENTATION_CONTEXT ( 3 ) GLOBAL_UNCERTAINTY_ASSIGNED_CONTEXT ( ( #66 ) ) GLOBAL_UNIT_ASSIGNED_CONTEXT ( ( #28, #215, #149 ) ) REPRESENTATION_CONTEXT ( 'NONE', 'WORKASPACE' ) );
#166 = PRESENTATION_STYLE_ASSIGNMENT (( #296 ) ) ;
#167 = PRODUCT_DEFINITION_FORMATION_WITH_SPECIFIED_SOURCE ( 'ANY', '', #59, .NOT_KNOWN. ) ;
#168 = EDGE_CURVE ( 'NONE', #171, #92, #91, .T. ) ;
#169 = ORIENTED_EDGE ( 'NONE', *, *, #214, .T. ) ;
#170 = ORIENTED_EDGE ( 'NONE', *, *, #32, .F. ) ;
#171 = VERTEX_POINT ( 'NONE', #200 ) ;
#172 = CARTESIAN_POINT ( 'NONE',  ( -0.1249999999999999167, 0.0000000000000000000, 0.7507089102274521197 ) ) ;
#173 = ORIENTED_EDGE ( 'NONE', *, *, #138, .F. ) ;
#174 = DIRECTION ( 'NONE',  ( 1.000000000000000000, 0.0000000000000000000, 0.0000000000000000000 ) ) ;
#175 = AXIS2_PLACEMENT_3D ( 'NONE', #144, #283, #64 ) ;
#176 = EDGE_CURVE ( 'NONE', #219, #84, #127, .T. ) ;
#177 = DIMENSIONAL_EXPONENTS ( 1.000000000000000000, 0.0000000000000000000, 0.0000000000000000000, 0.0000000000000000000, 0.0000000000000000000, 0.0000000000000000000, 0.0000000000000000000 ) ;
#178 = ORIENTED_EDGE ( 'NONE', *, *, #168, .T. ) ;
#179 = DIRECTION ( 'NONE',  ( -1.224646799147353207E-16, -0.0000000000000000000, -1.000000000000000000 ) ) ;
#180 = AXIS2_PLACEMENT_3D ( 'NONE', #198, #128, #202 ) ;
#181 = PRESENTATION_STYLE_ASSIGNMENT (( #208 ) ) ;
#182 = ORIENTED_EDGE ( 'NONE', *, *, #125, .F. ) ;
#183 = SHAPE_DEFINITION_REPRESENTATION ( #39, #142 ) ;
#184 = VECTOR ( 'NONE', #77, 39.37007874015748143 ) ;
#185 = EDGE_CURVE ( 'NONE', #20, #40, #292, .T. ) ;
#186 =( LENGTH_UNIT ( ) NAMED_UNIT ( * ) SI_UNIT ( $, .METRE. ) );
#187 = CARTESIAN_POINT ( 'NONE',  ( 9.184850993605150903E-17, 0.0000000000000000000, 0.7500000000000001110 ) ) ;
#188 = CARTESIAN_POINT ( 'NONE',  ( 0.0000000000000000000, 0.0000000000000000000, 2.000000000000000000 ) ) ;
#189 = DIRECTION ( 'NONE',  ( -1.224646799147353207E-16, -0.0000000000000000000, -1.000000000000000000 ) ) ;
#190 = ADVANCED_FACE ( 'NONE', ( #121 ), #237, .F. ) ;
#191 = CARTESIAN_POINT ( 'NONE',  ( 0.1250000000000000833, 1.530808498934192433E-17, 0.7507089102274521197 ) ) ;
#192 = EDGE_CURVE ( 'NONE', #222, #219, #194, .T. ) ;
#193 = MECHANICAL_DESIGN_GEOMETRIC_PRESENTATION_REPRESENTATION (  '', ( #231 ), #165 ) ;
#194 = LINE ( 'NONE', #79, #2 ) ;
#195 =( LENGTH_UNIT ( ) NAMED_UNIT ( * ) SI_UNIT ( $, .METRE. ) );
#196 = EDGE_LOOP ( 'NONE', ( #49, #217, #230, #252 ) ) ;
#197 = CARTESIAN_POINT ( 'NONE',  ( 1.872825028598994811E-33, 0.0000000000000000000, 1.529277690435257475E-17 ) ) ;
#198 = CARTESIAN_POINT ( 'NONE',  ( 9.193532640014470902E-17, 0.0000000000000000000, 0.7507089102274521197 ) ) ;
#199 = AXIS2_PLACEMENT_3D ( 'NONE', #75, #148, #241 ) ;
#200 = CARTESIAN_POINT ( 'NONE',  ( -0.1250000000000000000, 0.0000000000000000000, 1.984999999999999432 ) ) ;
#201 = FACE_OUTER_BOUND ( 'NONE', #95, .T. ) ;
#202 = DIRECTION ( 'NONE',  ( 1.000000000000000000, 0.0000000000000000000, 0.0000000000000000000 ) ) ;
#203 = ORIENTED_EDGE ( 'NONE', *, *, #185, .F. ) ;
#204 = AXIS2_PLACEMENT_3D ( 'NONE', #260, #266, #54 ) ;
#205 = EDGE_CURVE ( 'NONE', #92, #123, #6, .T. ) ;
#206 = DIRECTION ( 'NONE',  ( -1.000000000000000000, 0.0000000000000000000, 0.0000000000000000000 ) ) ;
#207 = DIRECTION ( 'NONE',  ( -0.0000000000000000000, -0.0000000000000000000, -1.000000000000000000 ) ) ;
#208 = SURFACE_STYLE_USAGE ( .BOTH. , #156 ) ;
#209 = AXIS2_PLACEMENT_3D ( 'NONE', #188, #135, #21 ) ;
#210 = DIRECTION ( 'NONE',  ( -1.000000000000000000, 0.0000000000000000000, 0.0000000000000000000 ) ) ;
#211 = SURFACE_STYLE_FILL_AREA ( #274 ) ;
#212 = CIRCLE ( 'NONE', #180, 0.1250000000000000000 ) ;
#213 = ORIENTED_EDGE ( 'NONE', *, *, #168, .F. ) ;
#214 = EDGE_CURVE ( 'NONE', #123, #240, #212, .T. ) ;
#215 =( NAMED_UNIT ( * ) PLANE_ANGLE_UNIT ( ) SI_UNIT ( $, .RADIAN. ) );
#216 = AXIS2_PLACEMENT_3D ( 'NONE', #29, #11, #37 ) ;
#217 = ORIENTED_EDGE ( 'NONE', *, *, #125, .T. ) ;
#218 = FACE_OUTER_BOUND ( 'NONE', #34, .T. ) ;
#219 = VERTEX_POINT ( 'NONE', #263 ) ;
#220 = DIRECTION ( 'NONE',  ( 0.0000000000000000000, 0.0000000000000000000, -1.000000000000000000 ) ) ;
#221 = FACE_OUTER_BOUND ( 'NONE', #278, .T. ) ;
#222 = VERTEX_POINT ( 'NONE', #288 ) ;
#223 = DIRECTION ( 'NONE',  ( 1.000000000000000000, 0.0000000000000000000, -0.0000000000000000000 ) ) ;
#224 = CARTESIAN_POINT ( 'NONE',  ( 0.0000000000000000000, 0.0000000000000000000, 0.0000000000000000000 ) ) ;
#225 = CARTESIAN_POINT ( 'NONE',  ( 0.0000000000000000000, 0.0000000000000000000, 2.000000000000000000 ) ) ;
#226 =( CONVERSION_BASED_UNIT ( 'INCH', #136 ) LENGTH_UNIT ( ) NAMED_UNIT ( #281 ) );
#227 =( NAMED_UNIT ( * ) SI_UNIT ( $, .STERADIAN. ) SOLID_ANGLE_UNIT ( ) );
#228 = VECTOR ( 'NONE', #124, 39.37007874015748143 ) ;
#229 = APPLICATION_CONTEXT ( 'automotive_design' ) ;
#230 = ORIENTED_EDGE ( 'NONE', *, *, #113, .T. ) ;
#231 = STYLED_ITEM ( 'NONE', ( #166 ), #13 ) ;
#232 = EDGE_CURVE ( 'NONE', #222, #123, #284, .T. ) ;
#233 = EDGE_LOOP ( 'NONE', ( #150, #7, #47, #70 ) ) ;
#234 = VERTEX_POINT ( 'NONE', #146 ) ;
#235 = FACE_OUTER_BOUND ( 'NONE', #108, .T. ) ;
#236 = CONICAL_SURFACE ( 'NONE', #254, 0.1099999999999996397, 0.7853981633974426169 ) ;
#237 = PLANE ( 'NONE',  #140 ) ;
#238 = EDGE_CURVE ( 'NONE', #84, #219, #82, .T. ) ;
#239 = DIRECTION ( 'NONE',  ( -0.1736481776669310528, 2.126576849575781776E-17, 0.9848077530122080203 ) ) ;
#240 = VERTEX_POINT ( 'NONE', #172 ) ;
#241 = DIRECTION ( 'NONE',  ( -1.000000000000000000, 0.0000000000000000000, 1.224646799147353454E-16 ) ) ;
#242 = ORIENTED_EDGE ( 'NONE', *, *, #32, .T. ) ;
#243 = EDGE_CURVE ( 'NONE', #234, #84, #5, .T. ) ;
#244 = CARTESIAN_POINT ( 'NONE',  ( 9.184850993605150903E-17, 0.0000000000000000000, 0.7500000000000001110 ) ) ;
#245 = ORIENTED_EDGE ( 'NONE', *, *, #243, .T. ) ;
#246 = CARTESIAN_POINT ( 'NONE',  ( 0.0000000000000000000, 0.0000000000000000000, 0.0000000000000000000 ) ) ;
#247 = EDGE_LOOP ( 'NONE', ( #26, #78, #51, #62 ) ) ;
#248 = LENGTH_MEASURE_WITH_UNIT ( LENGTH_MEASURE( 0.02539999999999999897 ), #186 );
#249 =( NAMED_UNIT ( * ) SI_UNIT ( $, .STERADIAN. ) SOLID_ANGLE_UNIT ( ) );
#250 = PRODUCT_DEFINITION ( 'UNKNOWN', '', #167, #161 ) ;
#251 = AXIS2_PLACEMENT_3D ( 'NONE', #282, #74, #174 ) ;
#252 = ORIENTED_EDGE ( 'NONE', *, *, #232, .F. ) ;
#253 = CARTESIAN_POINT ( 'NONE',  ( 9.193532640014470902E-17, 0.0000000000000000000, 0.7507089102274521197 ) ) ;
#254 = AXIS2_PLACEMENT_3D ( 'NONE', #102, #220, #145 ) ;
#255 = ORIENTED_EDGE ( 'NONE', *, *, #238, .T. ) ;
#256 = ORIENTED_EDGE ( 'NONE', *, *, #185, .T. ) ;
#257 = CARTESIAN_POINT ( 'NONE',  ( -0.1248750000000000276, 0.0000000000000000000, 1.529277690435257783E-17 ) ) ;
#258 = DIMENSIONAL_EXPONENTS ( 1.000000000000000000, 0.0000000000000000000, 0.0000000000000000000, 0.0000000000000000000, 0.0000000000000000000, 0.0000000000000000000, 0.0000000000000000000 ) ;
#259 = FACE_OUTER_BOUND ( 'NONE', #56, .T. ) ;
#260 = CARTESIAN_POINT ( 'NONE',  ( 0.0000000000000000000, 0.0000000000000000000, 0.0000000000000000000 ) ) ;
#261 = COLOUR_RGB ( '',0.7921568627450980005, 0.8196078431372548767, 0.9333333333333333481 ) ;
#262 = CARTESIAN_POINT ( 'NONE',  ( 0.0000000000000000000, 0.0000000000000000000, 2.000000000000000000 ) ) ;
#263 = CARTESIAN_POINT ( 'NONE',  ( 0.1248749999999999999, 1.529277690435257475E-17, 1.895600338963814870E-33 ) ) ;
#264 = DIRECTION ( 'NONE',  ( 1.000000000000000000, 0.0000000000000000000, -0.0000000000000000000 ) ) ;
#265 = AXIS2_PLACEMENT_3D ( 'NONE', #122, #126, #52 ) ;
#266 = DIRECTION ( 'NONE',  ( -1.224646799147353207E-16, -0.0000000000000000000, -1.000000000000000000 ) ) ;
#267 = CYLINDRICAL_SURFACE ( 'NONE', #14, 0.1248750000000000276 ) ;
#268 = CARTESIAN_POINT ( 'NONE',  ( 0.1099999999999996397, 1.347111479062084158E-17, 2.000000000000000000 ) ) ;
#269 = APPLICATION_PROTOCOL_DEFINITION ( 'draft international standard', 'automotive_design', 1998, #117 ) ;
#270 = AXIS2_PLACEMENT_3D ( 'NONE', #262, #99, #264 ) ;
#271 = FILL_AREA_STYLE_COLOUR ( '', #261 ) ;
#272 = CARTESIAN_POINT ( 'NONE',  ( 0.0000000000000000000, 0.0000000000000000000, 2.000000000000000000 ) ) ;
#273 = ADVANCED_FACE ( 'NONE', ( #218 ), #36, .T. ) ;
#274 = FILL_AREA_STYLE ('',( #87 ) ) ;
#275 = AXIS2_PLACEMENT_3D ( 'NONE', #38, #162, #206 ) ;
#276 = CARTESIAN_POINT ( 'NONE',  ( -0.1099999999999996397, 0.0000000000000000000, 2.000000000000000000 ) ) ;
#277 = PRESENTATION_LAYER_ASSIGNMENT (  '', '', ( #231 ) ) ;
#278 = EDGE_LOOP ( 'NONE', ( #103, #256 ) ) ;
#279 = DIRECTION ( 'NONE',  ( -1.224646799147353207E-16, -0.0000000000000000000, -1.000000000000000000 ) ) ;
#280 = ADVANCED_FACE ( 'NONE', ( #259 ), #107, .T. ) ;
#281 = DIMENSIONAL_EXPONENTS ( 1.000000000000000000, 0.0000000000000000000, 0.0000000000000000000, 0.0000000000000000000, 0.0000000000000000000, 0.0000000000000000000, 0.0000000000000000000 ) ;
#282 = CARTESIAN_POINT ( 'NONE',  ( 9.184850993605150903E-17, 0.0000000000000000000, 0.7500000000000001110 ) ) ;
#283 = DIRECTION ( 'NONE',  ( -1.224646799147353207E-16, -0.0000000000000000000, -1.000000000000000000 ) ) ;
#284 = LINE ( 'NONE', #55, #46 ) ;
#285 = AXIS2_PLACEMENT_3D ( 'NONE', #225, #42, #153 ) ;
#286 = DIRECTION ( 'NONE',  ( 1.224646799147353207E-16, 0.0000000000000000000, 1.000000000000000000 ) ) ;
#287 = ADVANCED_FACE ( 'NONE', ( #129 ), #105, .T. ) ;
#288 = CARTESIAN_POINT ( 'NONE',  ( 0.1248750000000001109, 0.0000000000000000000, 0.7500000000000001110 ) ) ;
#289 = DIRECTION ( 'NONE',  ( 0.0000000000000000000, 0.0000000000000000000, 1.000000000000000000 ) ) ;
#290 = ADVANCED_FACE ( 'NONE', ( #134 ), #267, .T. ) ;
#291 = CARTESIAN_POINT ( 'NONE',  ( 0.0000000000000000000, 0.0000000000000000000, 0.0000000000000000000 ) ) ;
#292 = CIRCLE ( 'NONE', #216, 0.1099999999999996397 ) ;
#293 = CYLINDRICAL_SURFACE ( 'NONE', #152, 0.1250000000000000000 ) ;
#294 = UNCERTAINTY_MEASURE_WITH_UNIT (LENGTH_MEASURE( 1.000000000000000082E-05 ), #226, 'distance_accuracy_value', 'NONE');
#295 = CARTESIAN_POINT ( 'NONE',  ( 0.1250000000000000000, 1.530808498934191509E-17, 1.984999999999999432 ) ) ;
#296 = SURFACE_STYLE_USAGE ( .BOTH. , #164 ) ;
#297 = CIRCLE ( 'NONE', #109, 0.1248750000000000276 ) ;
#298 = MECHANICAL_DESIGN_GEOMETRIC_PRESENTATION_REPRESENTATION (  '', ( #131 ), #158 ) ;
#299 = DIRECTION ( 'NONE',  ( -1.224646799147353207E-16, -0.0000000000000000000, -1.000000000000000000 ) ) ;
ENDSEC;
END-ISO-10303-21;
