ISO-10303-21;
HEADER;
FILE_DESCRIPTION (( 'STEP AP214' ),
    '1' );
FILE_NAME ('Micro_KC-187-550-125.STEP',
    '2021-09-03T19:21:03',
    ( '' ),
    ( '' ),
    'SwSTEP 2.0',
    'SolidWorks 2020',
    '' );
FILE_SCHEMA (( 'AUTOMOTIVE_DESIGN' ));
ENDSEC;

DATA;
#1 = DIRECTION ( 'NONE',  ( -0.0000000000000000000, -0.0000000000000000000, -1.000000000000000000 ) ) ;
#2 = VECTOR ( 'NONE', #160, 39.37007874015748143 ) ;
#3 = FACE_OUTER_BOUND ( 'NONE', #205, .T. ) ;
#4 = EDGE_CURVE ( 'NONE', #212, #292, #189, .T. ) ;
#5 = ADVANCED_BREP_SHAPE_REPRESENTATION ( 'Micro_KC-187-550-125', ( #174, #70 ), #268 ) ;
#6 = AXIS2_PLACEMENT_3D ( 'NONE', #176, #284, #310 ) ;
#7 = DIRECTION ( 'NONE',  ( -1.000000000000000000, 0.0000000000000000000, 0.0000000000000000000 ) ) ;
#8 = VERTEX_POINT ( 'NONE', #275 ) ;
#9 = FACE_OUTER_BOUND ( 'NONE', #379, .T. ) ;
#10 =( NAMED_UNIT ( * ) SI_UNIT ( $, .STERADIAN. ) SOLID_ANGLE_UNIT ( ) );
#11 = CIRCLE ( 'NONE', #163, 0.09375000000000001388 ) ;
#12 = CARTESIAN_POINT ( 'NONE',  ( 0.0000000000000000000, 0.0000000000000000000, 0.5500000000000000444 ) ) ;
#13 = ORIENTED_EDGE ( 'NONE', *, *, #32, .T. ) ;
#14 = DIRECTION ( 'NONE',  ( -0.0000000000000000000, -0.0000000000000000000, -1.000000000000000000 ) ) ;
#15 = EDGE_CURVE ( 'NONE', #374, #208, #226, .T. ) ;
#16 =( GEOMETRIC_REPRESENTATION_CONTEXT ( 3 ) GLOBAL_UNCERTAINTY_ASSIGNED_CONTEXT ( ( #177 ) ) GLOBAL_UNIT_ASSIGNED_CONTEXT ( ( #76, #114, #10 ) ) REPRESENTATION_CONTEXT ( 'NONE', 'WORKASPACE' ) );
#17 = ORIENTED_EDGE ( 'NONE', *, *, #376, .F. ) ;
#18 = DIRECTION ( 'NONE',  ( 0.0000000000000000000, 0.0000000000000000000, 1.000000000000000000 ) ) ;
#19 = CARTESIAN_POINT ( 'NONE',  ( 0.0000000000000000000, 0.0000000000000000000, 0.0000000000000000000 ) ) ;
#20 = ORIENTED_EDGE ( 'NONE', *, *, #86, .T. ) ;
#21 = DIRECTION ( 'NONE',  ( 0.0000000000000000000, 0.0000000000000000000, -1.000000000000000000 ) ) ;
#22 = VERTEX_POINT ( 'NONE', #352 ) ;
#23 = DIRECTION ( 'NONE',  ( 0.0000000000000000000, 0.0000000000000000000, 1.000000000000000000 ) ) ;
#24 = CARTESIAN_POINT ( 'NONE',  ( -0.04500000000000003303, 0.0000000000000000000, 0.0000000000000000000 ) ) ;
#25 =( GEOMETRIC_REPRESENTATION_CONTEXT ( 3 ) GLOBAL_UNCERTAINTY_ASSIGNED_CONTEXT ( ( #181 ) ) GLOBAL_UNIT_ASSIGNED_CONTEXT ( ( #341, #46, #43 ) ) REPRESENTATION_CONTEXT ( 'NONE', 'WORKASPACE' ) );
#26 = ORIENTED_EDGE ( 'NONE', *, *, #32, .F. ) ;
#27 = CARTESIAN_POINT ( 'NONE',  ( 0.0000000000000000000, 0.0000000000000000000, 0.0000000000000000000 ) ) ;
#28 = CARTESIAN_POINT ( 'NONE',  ( 0.09375000000000001388, 1.148106374200643863E-17, 2.000000000000000000 ) ) ;
#29 = DIRECTION ( 'NONE',  ( 1.000000000000000000, 0.0000000000000000000, -0.0000000000000000000 ) ) ;
#30 = ORIENTED_EDGE ( 'NONE', *, *, #319, .F. ) ;
#31 = LINE ( 'NONE', #190, #331 ) ;
#32 = EDGE_CURVE ( 'NONE', #232, #289, #324, .T. ) ;
#33 = CONICAL_SURFACE ( 'NONE', #121, 0.04500000000000006772, 0.7853981633974512766 ) ;
#34 = LINE ( 'NONE', #104, #278 ) ;
#35 = EDGE_CURVE ( 'NONE', #348, #289, #34, .T. ) ;
#36 = AXIS2_PLACEMENT_3D ( 'NONE', #69, #359, #224 ) ;
#37 = PRESENTATION_LAYER_ASSIGNMENT (  '', '', ( #267 ) ) ;
#38 = CARTESIAN_POINT ( 'NONE',  ( 0.0000000000000000000, 0.0000000000000000000, 2.000000000000000000 ) ) ;
#39 = DIRECTION ( 'NONE',  ( -0.7071067811865463515, 0.0000000000000000000, -0.7071067811865486830 ) ) ;
#40 = APPLICATION_PROTOCOL_DEFINITION ( 'draft international standard', 'automotive_design', 1998, #59 ) ;
#41 = VECTOR ( 'NONE', #96, 39.37007874015748143 ) ;
#42 = FACE_OUTER_BOUND ( 'NONE', #241, .T. ) ;
#43 =( NAMED_UNIT ( * ) SI_UNIT ( $, .STERADIAN. ) SOLID_ANGLE_UNIT ( ) );
#44 = EDGE_CURVE ( 'NONE', #289, #309, #62, .T. ) ;
#45 = APPLICATION_PROTOCOL_DEFINITION ( 'draft international standard', 'automotive_design', 1998, #156 ) ;
#46 =( NAMED_UNIT ( * ) PLANE_ANGLE_UNIT ( ) SI_UNIT ( $, .RADIAN. ) );
#47 = ORIENTED_EDGE ( 'NONE', *, *, #365, .F. ) ;
#48 = DIRECTION ( 'NONE',  ( 1.000000000000000000, 0.0000000000000000000, -0.0000000000000000000 ) ) ;
#49 = CIRCLE ( 'NONE', #173, 0.07874999999999980627 ) ;
#50 = CARTESIAN_POINT ( 'NONE',  ( -0.04500000000000006772, 8.495987169084768714E-18, 0.5500000000000000444 ) ) ;
#51 = AXIS2_PLACEMENT_3D ( 'NONE', #371, #122, #75 ) ;
#52 = ORIENTED_EDGE ( 'NONE', *, *, #198, .F. ) ;
#53 = DIRECTION ( 'NONE',  ( -0.7071067811865496822, 8.659560562354959975E-17, 0.7071067811865454633 ) ) ;
#54 = ADVANCED_FACE ( 'NONE', ( #3 ), #33, .T. ) ;
#55 = EDGE_LOOP ( 'NONE', ( #30, #295, #220, #125 ) ) ;
#56 = DIRECTION ( 'NONE',  ( 1.000000000000000000, 0.0000000000000000000, 0.0000000000000000000 ) ) ;
#57 = ORIENTED_EDGE ( 'NONE', *, *, #180, .T. ) ;
#58 = FACE_OUTER_BOUND ( 'NONE', #251, .T. ) ;
#59 = APPLICATION_CONTEXT ( 'automotive_design' ) ;
#60 = VECTOR ( 'NONE', #269, 39.37007874015748143 ) ;
#61 = ORIENTED_EDGE ( 'NONE', *, *, #308, .F. ) ;
#62 = LINE ( 'NONE', #136, #41 ) ;
#63 = DIRECTION ( 'NONE',  ( 0.0000000000000000000, 0.0000000000000000000, 1.000000000000000000 ) ) ;
#64 = ADVANCED_FACE ( 'NONE', ( #9 ), #219, .T. ) ;
#65 = LINE ( 'NONE', #24, #60 ) ;
#66 = CYLINDRICAL_SURFACE ( 'NONE', #218, 0.04500000000000003303 ) ;
#67 = STYLED_ITEM ( 'NONE', ( #197 ), #174 ) ;
#68 = ADVANCED_FACE ( 'NONE', ( #332 ), #356, .T. ) ;
#69 = CARTESIAN_POINT ( 'NONE',  ( 0.0000000000000000000, 0.0000000000000000000, 2.000000000000000000 ) ) ;
#70 = AXIS2_PLACEMENT_3D ( 'NONE', #107, #72, #288 ) ;
#71 = DIRECTION ( 'NONE',  ( 0.7071067811865496822, 0.0000000000000000000, 0.7071067811865454633 ) ) ;
#72 = DIRECTION ( 'NONE',  ( 0.0000000000000000000, 0.0000000000000000000, 1.000000000000000000 ) ) ;
#73 = EDGE_CURVE ( 'NONE', #232, #292, #195, .T. ) ;
#74 = FILL_AREA_STYLE_COLOUR ( '', #291 ) ;
#75 = DIRECTION ( 'NONE',  ( -1.000000000000000000, 0.0000000000000000000, 0.0000000000000000000 ) ) ;
#76 =( CONVERSION_BASED_UNIT ( 'INCH', #357 ) LENGTH_UNIT ( ) NAMED_UNIT ( #250 ) );
#77 = CARTESIAN_POINT ( 'NONE',  ( 0.0000000000000000000, 0.0000000000000000000, 2.000000000000000000 ) ) ;
#78 = CIRCLE ( 'NONE', #243, 0.09375000000000001388 ) ;
#79 = FACE_OUTER_BOUND ( 'NONE', #307, .T. ) ;
#80 = FACE_OUTER_BOUND ( 'NONE', #302, .T. ) ;
#81 = ORIENTED_EDGE ( 'NONE', *, *, #180, .F. ) ;
#82 = SURFACE_STYLE_FILL_AREA ( #199 ) ;
#83 = DIRECTION ( 'NONE',  ( 1.000000000000000000, 0.0000000000000000000, 0.0000000000000000000 ) ) ;
#84 = ORIENTED_EDGE ( 'NONE', *, *, #198, .T. ) ;
#85 = CARTESIAN_POINT ( 'NONE',  ( -0.09375000000000001388, 0.0000000000000000000, 0.5987499999999996714 ) ) ;
#86 = EDGE_CURVE ( 'NONE', #348, #266, #49, .T. ) ;
#87 = CARTESIAN_POINT ( 'NONE',  ( 0.0000000000000000000, 0.0000000000000000000, 0.1250000000000000000 ) ) ;
#88 = ORIENTED_EDGE ( 'NONE', *, *, #44, .T. ) ;
#89 = ORIENTED_EDGE ( 'NONE', *, *, #184, .F. ) ;
#90 = CARTESIAN_POINT ( 'NONE',  ( 0.09375000000000001388, 1.148106374200643863E-17, 2.000000000000000000 ) ) ;
#91 = PRODUCT_DEFINITION_CONTEXT ( 'detailed design', #156, 'design' ) ;
#92 = EDGE_LOOP ( 'NONE', ( #89, #299 ) ) ;
#93 = FACE_OUTER_BOUND ( 'NONE', #377, .T. ) ;
#94 = AXIS2_PLACEMENT_3D ( 'NONE', #304, #191, #336 ) ;
#95 = CIRCLE ( 'NONE', #305, 0.04500000000000006772 ) ;
#96 = DIRECTION ( 'NONE',  ( -0.0000000000000000000, -0.0000000000000000000, -1.000000000000000000 ) ) ;
#97 = CARTESIAN_POINT ( 'NONE',  ( 0.07874999999999980627, 1.056257864264590573E-17, 2.000000000000000000 ) ) ;
#98 = DIRECTION ( 'NONE',  ( -1.000000000000000000, 0.0000000000000000000, 0.0000000000000000000 ) ) ;
#99 = CARTESIAN_POINT ( 'NONE',  ( 0.07874999999999980627, 9.644093543285380530E-18, 2.000000000000000000 ) ) ;
#100 = CARTESIAN_POINT ( 'NONE',  ( 0.04500000000000003303, 5.510910596163093407E-18, 0.0000000000000000000 ) ) ;
#101 = EDGE_CURVE ( 'NONE', #266, #232, #244, .T. ) ;
#102 = MECHANICAL_DESIGN_GEOMETRIC_PRESENTATION_REPRESENTATION (  '', ( #267 ), #16 ) ;
#103 = CIRCLE ( 'NONE', #148, 0.04500000000000000527 ) ;
#104 = CARTESIAN_POINT ( 'NONE',  ( -0.07874999999999980627, 0.0000000000000000000, 2.000000000000000000 ) ) ;
#105 = ADVANCED_FACE ( 'NONE', ( #281 ), #66, .T. ) ;
#106 = CARTESIAN_POINT ( 'NONE',  ( 0.04500000000000006772, 0.0000000000000000000, 0.5500000000000000444 ) ) ;
#107 = CARTESIAN_POINT ( 'NONE',  ( 0.0000000000000000000, 0.0000000000000000000, 0.0000000000000000000 ) ) ;
#108 = PRODUCT_DEFINITION_SHAPE ( 'NONE', 'NONE',  #345 ) ;
#109 = SURFACE_SIDE_STYLE ('',( #82 ) ) ;
#110 = ADVANCED_FACE ( 'NONE', ( #80 ), #260, .T. ) ;
#111 = CIRCLE ( 'NONE', #51, 0.04500000000000006772 ) ;
#112 = DIRECTION ( 'NONE',  ( -1.000000000000000000, 0.0000000000000000000, 0.0000000000000000000 ) ) ;
#113 = ORIENTED_EDGE ( 'NONE', *, *, #308, .T. ) ;
#114 =( NAMED_UNIT ( * ) PLANE_ANGLE_UNIT ( ) SI_UNIT ( $, .RADIAN. ) );
#115 = DIRECTION ( 'NONE',  ( 0.0000000000000000000, 0.0000000000000000000, -1.000000000000000000 ) ) ;
#116 = EDGE_LOOP ( 'NONE', ( #237, #203, #355, #47 ) ) ;
#117 = LINE ( 'NONE', #90, #286 ) ;
#118 = DIRECTION ( 'NONE',  ( -1.000000000000000000, 0.0000000000000000000, 0.0000000000000000000 ) ) ;
#119 = EDGE_CURVE ( 'NONE', #272, #347, #221, .T. ) ;
#120 = FACE_OUTER_BOUND ( 'NONE', #235, .T. ) ;
#121 = AXIS2_PLACEMENT_3D ( 'NONE', #215, #282, #166 ) ;
#122 = DIRECTION ( 'NONE',  ( -0.0000000000000000000, -0.0000000000000000000, -1.000000000000000000 ) ) ;
#123 = CONICAL_SURFACE ( 'NONE', #168, 0.07874999999999980627, 0.7853981633974466137 ) ;
#124 = LENGTH_MEASURE_WITH_UNIT ( LENGTH_MEASURE( 0.02539999999999999897 ), #277 );
#125 = ORIENTED_EDGE ( 'NONE', *, *, #265, .T. ) ;
#126 = CARTESIAN_POINT ( 'NONE',  ( 0.09375000000000001388, 0.0000000000000000000, 0.1250000000000000000 ) ) ;
#127 = ORIENTED_EDGE ( 'NONE', *, *, #86, .F. ) ;
#128 = DIRECTION ( 'NONE',  ( 1.000000000000000000, 0.0000000000000000000, 0.0000000000000000000 ) ) ;
#129 = ORIENTED_EDGE ( 'NONE', *, *, #4, .F. ) ;
#130 = PLANE ( 'NONE',  #346 ) ;
#131 = PRODUCT_DEFINITION_FORMATION_WITH_SPECIFIED_SOURCE ( 'ANY', '', #141, .NOT_KNOWN. ) ;
#132 = DIRECTION ( 'NONE',  ( -1.000000000000000000, 0.0000000000000000000, 0.0000000000000000000 ) ) ;
#133 = ADVANCED_FACE ( 'NONE', ( #42 ), #362, .T. ) ;
#134 = DIRECTION ( 'NONE',  ( -0.0000000000000000000, -0.0000000000000000000, -1.000000000000000000 ) ) ;
#135 = CIRCLE ( 'NONE', #206, 0.09375000000000001388 ) ;
#136 = CARTESIAN_POINT ( 'NONE',  ( -0.09375000000000001388, 0.0000000000000000000, 2.000000000000000000 ) ) ;
#137 = ORIENTED_EDGE ( 'NONE', *, *, #145, .T. ) ;
#138 = ADVANCED_FACE ( 'NONE', ( #79 ), #373, .T. ) ;
#139 = FILL_AREA_STYLE_COLOUR ( '', #214 ) ;
#140 = DIRECTION ( 'NONE',  ( -0.0000000000000000000, -0.0000000000000000000, -1.000000000000000000 ) ) ;
#141 = PRODUCT ( 'Micro_KC-187-550-125', 'Micro_KC-187-550-125', '', ( #283 ) ) ;
#142 = AXIS2_PLACEMENT_3D ( 'NONE', #298, #1, #56 ) ;
#143 = PRESENTATION_STYLE_ASSIGNMENT (( #201 ) ) ;
#144 = SURFACE_SIDE_STYLE ('',( #234 ) ) ;
#145 = EDGE_CURVE ( 'NONE', #292, #309, #236, .T. ) ;
#146 = DIRECTION ( 'NONE',  ( -0.0000000000000000000, -0.0000000000000000000, -1.000000000000000000 ) ) ;
#147 = DIRECTION ( 'NONE',  ( -0.0000000000000000000, -0.0000000000000000000, -1.000000000000000000 ) ) ;
#148 = AXIS2_PLACEMENT_3D ( 'NONE', #87, #273, #98 ) ;
#149 = DIRECTION ( 'NONE',  ( -1.000000000000000000, 0.0000000000000000000, 0.0000000000000000000 ) ) ;
#150 = VERTEX_POINT ( 'NONE', #50 ) ;
#151 = DIRECTION ( 'NONE',  ( 0.0000000000000000000, 0.0000000000000000000, 1.000000000000000000 ) ) ;
#152 = ORIENTED_EDGE ( 'NONE', *, *, #223, .F. ) ;
#153 = CARTESIAN_POINT ( 'NONE',  ( 0.04500000000000000527, 5.510910596163092637E-18, 0.1250000000000000000 ) ) ;
#154 = EDGE_LOOP ( 'NONE', ( #57, #322, #230, #17 ) ) ;
#155 = DIRECTION ( 'NONE',  ( 1.000000000000000000, 0.0000000000000000000, 0.0000000000000000000 ) ) ;
#156 = APPLICATION_CONTEXT ( 'automotive_design' ) ;
#157 = MECHANICAL_DESIGN_GEOMETRIC_PRESENTATION_REPRESENTATION (  '', ( #67 ), #25 ) ;
#158 = ORIENTED_EDGE ( 'NONE', *, *, #101, .F. ) ;
#159 = DIRECTION ( 'NONE',  ( -1.000000000000000000, 0.0000000000000000000, 0.0000000000000000000 ) ) ;
#160 = DIRECTION ( 'NONE',  ( -0.0000000000000000000, -0.0000000000000000000, -1.000000000000000000 ) ) ;
#161 = DIRECTION ( 'NONE',  ( -0.0000000000000000000, -0.0000000000000000000, -1.000000000000000000 ) ) ;
#162 = DIRECTION ( 'NONE',  ( -0.0000000000000000000, -0.0000000000000000000, -1.000000000000000000 ) ) ;
#163 = AXIS2_PLACEMENT_3D ( 'NONE', #296, #21, #262 ) ;
#164 = ADVANCED_FACE ( 'NONE', ( #368 ), #364, .T. ) ;
#165 =( NAMED_UNIT ( * ) PLANE_ANGLE_UNIT ( ) SI_UNIT ( $, .RADIAN. ) );
#166 = DIRECTION ( 'NONE',  ( 1.000000000000000000, 0.0000000000000000000, 0.0000000000000000000 ) ) ;
#167 = AXIS2_PLACEMENT_3D ( 'NONE', #301, #140, #132 ) ;
#168 = AXIS2_PLACEMENT_3D ( 'NONE', #211, #351, #159 ) ;
#169 = ADVANCED_FACE ( 'NONE', ( #172 ), #294, .T. ) ;
#170 = DIRECTION ( 'NONE',  ( 0.0000000000000000000, 0.0000000000000000000, 1.000000000000000000 ) ) ;
#171 = ORIENTED_EDGE ( 'NONE', *, *, #247, .T. ) ;
#172 = FACE_OUTER_BOUND ( 'NONE', #344, .T. ) ;
#173 = AXIS2_PLACEMENT_3D ( 'NONE', #38, #170, #328 ) ;
#174 = MANIFOLD_SOLID_BREP ( 'Cut-Revolve1', #240 ) ;
#175 =( NAMED_UNIT ( * ) SI_UNIT ( $, .STERADIAN. ) SOLID_ANGLE_UNIT ( ) );
#176 = CARTESIAN_POINT ( 'NONE',  ( 0.0000000000000000000, 0.0000000000000000000, 2.000000000000000000 ) ) ;
#177 = UNCERTAINTY_MEASURE_WITH_UNIT (LENGTH_MEASURE( 1.000000000000000082E-05 ), #76, 'distance_accuracy_value', 'NONE');
#178 = LINE ( 'NONE', #378, #192 ) ;
#179 = DIRECTION ( 'NONE',  ( -0.0000000000000000000, -0.0000000000000000000, -1.000000000000000000 ) ) ;
#180 = EDGE_CURVE ( 'NONE', #150, #212, #95, .T. ) ;
#181 = UNCERTAINTY_MEASURE_WITH_UNIT (LENGTH_MEASURE( 1.000000000000000082E-05 ), #341, 'distance_accuracy_value', 'NONE');
#182 = ORIENTED_EDGE ( 'NONE', *, *, #209, .F. ) ;
#183 = CARTESIAN_POINT ( 'NONE',  ( -0.09375000000000001388, 0.0000000000000000000, 0.1250000000000000000 ) ) ;
#184 = EDGE_CURVE ( 'NONE', #208, #374, #78, .T. ) ;
#185 = DIRECTION ( 'NONE',  ( -0.0000000000000000000, -0.0000000000000000000, -1.000000000000000000 ) ) ;
#186 = CIRCLE ( 'NONE', #222, 0.09375000000000001388 ) ;
#187 = ORIENTED_EDGE ( 'NONE', *, *, #265, .F. ) ;
#188 = CARTESIAN_POINT ( 'NONE',  ( 0.0000000000000000000, 0.0000000000000000000, 0.0000000000000000000 ) ) ;
#189 = LINE ( 'NONE', #106, #314 ) ;
#190 = CARTESIAN_POINT ( 'NONE',  ( -0.09375000000000001388, 0.0000000000000000000, 2.000000000000000000 ) ) ;
#191 = DIRECTION ( 'NONE',  ( 0.0000000000000000000, 0.0000000000000000000, -1.000000000000000000 ) ) ;
#192 = VECTOR ( 'NONE', #53, 39.37007874015748143 ) ;
#193 = LINE ( 'NONE', #100, #300 ) ;
#194 = EDGE_CURVE ( 'NONE', #347, #272, #103, .T. ) ;
#195 = LINE ( 'NONE', #28, #2 ) ;
#196 = ORIENTED_EDGE ( 'NONE', *, *, #376, .T. ) ;
#197 = PRESENTATION_STYLE_ASSIGNMENT (( #361 ) ) ;
#198 = EDGE_CURVE ( 'NONE', #212, #150, #111, .T. ) ;
#199 = FILL_AREA_STYLE ('',( #139 ) ) ;
#200 = DIRECTION ( 'NONE',  ( -1.000000000000000000, 0.0000000000000000000, 0.0000000000000000000 ) ) ;
#201 = SURFACE_STYLE_USAGE ( .BOTH. , #109 ) ;
#202 = DIRECTION ( 'NONE',  ( 1.000000000000000000, 0.0000000000000000000, 0.0000000000000000000 ) ) ;
#203 = ORIENTED_EDGE ( 'NONE', *, *, #319, .T. ) ;
#204 = CARTESIAN_POINT ( 'NONE',  ( 0.0000000000000000000, 0.0000000000000000000, 0.0000000000000000000 ) ) ;
#205 = EDGE_LOOP ( 'NONE', ( #61, #52, #369, #137 ) ) ;
#206 = AXIS2_PLACEMENT_3D ( 'NONE', #188, #18, #155 ) ;
#207 = CARTESIAN_POINT ( 'NONE',  ( -0.04500000000000000527, 0.0000000000000000000, 0.1250000000000000000 ) ) ;
#208 = VERTEX_POINT ( 'NONE', #183 ) ;
#209 = EDGE_CURVE ( 'NONE', #212, #272, #193, .T. ) ;
#210 = ORIENTED_EDGE ( 'NONE', *, *, #44, .F. ) ;
#211 = CARTESIAN_POINT ( 'NONE',  ( 0.0000000000000000000, 0.0000000000000000000, 2.000000000000000000 ) ) ;
#212 = VERTEX_POINT ( 'NONE', #321 ) ;
#213 = DIRECTION ( 'NONE',  ( 0.0000000000000000000, 0.0000000000000000000, 1.000000000000000000 ) ) ;
#214 = COLOUR_RGB ( '',0.7921568627450980005, 0.8196078431372548767, 0.9333333333333333481 ) ;
#215 = CARTESIAN_POINT ( 'NONE',  ( 0.0000000000000000000, 0.0000000000000000000, 0.5500000000000000444 ) ) ;
#216 = FACE_OUTER_BOUND ( 'NONE', #92, .T. ) ;
#217 = DIRECTION ( 'NONE',  ( 0.7071067811865463515, 8.659560562354916834E-17, -0.7071067811865486830 ) ) ;
#218 = AXIS2_PLACEMENT_3D ( 'NONE', #204, #258, #263 ) ;
#219 = CYLINDRICAL_SURFACE ( 'NONE', #167, 0.09375000000000001388 ) ;
#220 = ORIENTED_EDGE ( 'NONE', *, *, #365, .T. ) ;
#221 = CIRCLE ( 'NONE', #276, 0.04500000000000000527 ) ;
#222 = AXIS2_PLACEMENT_3D ( 'NONE', #327, #375, #128 ) ;
#223 = EDGE_CURVE ( 'NONE', #289, #232, #11, .T. ) ;
#224 = DIRECTION ( 'NONE',  ( -1.000000000000000000, 0.0000000000000000000, 0.0000000000000000000 ) ) ;
#225 = LENGTH_MEASURE_WITH_UNIT ( LENGTH_MEASURE( 0.02539999999999999897 ), #256 );
#226 = CIRCLE ( 'NONE', #285, 0.09375000000000001388 ) ;
#227 = CIRCLE ( 'NONE', #142, 0.09375000000000001388 ) ;
#228 = DIRECTION ( 'NONE',  ( -1.000000000000000000, 0.0000000000000000000, 0.0000000000000000000 ) ) ;
#229 = EDGE_CURVE ( 'NONE', #309, #292, #227, .T. ) ;
#230 = ORIENTED_EDGE ( 'NONE', *, *, #194, .F. ) ;
#231 = CARTESIAN_POINT ( 'NONE',  ( 0.0000000000000000000, 0.0000000000000000000, 0.1250000000000000000 ) ) ;
#232 = VERTEX_POINT ( 'NONE', #293 ) ;
#233 = FACE_BOUND ( 'NONE', #297, .T. ) ;
#234 = SURFACE_STYLE_FILL_AREA ( #257 ) ;
#235 = EDGE_LOOP ( 'NONE', ( #158, #127, #320, #26 ) ) ;
#236 = CIRCLE ( 'NONE', #306, 0.09375000000000001388 ) ;
#237 = ORIENTED_EDGE ( 'NONE', *, *, #184, .T. ) ;
#238 = ORIENTED_EDGE ( 'NONE', *, *, #119, .T. ) ;
#239 = CARTESIAN_POINT ( 'NONE',  ( 0.09375000000000001388, 1.148106374200643863E-17, 0.5987499999999996714 ) ) ;
#240 = CLOSED_SHELL ( 'NONE', ( #164, #105, #138, #110, #64, #133, #360, #330, #54, #169, #274, #259, #68 ) ) ;
#241 = EDGE_LOOP ( 'NONE', ( #363, #13, #88, #270 ) ) ;
#242 = AXIS2_PLACEMENT_3D ( 'NONE', #77, #115, #200 ) ;
#243 = AXIS2_PLACEMENT_3D ( 'NONE', #290, #14, #149 ) ;
#244 = LINE ( 'NONE', #99, #372 ) ;
#245 = EDGE_CURVE ( 'NONE', #8, #22, #135, .T. ) ;
#246 =( CONVERSION_BASED_UNIT ( 'INCH', #124 ) LENGTH_UNIT ( ) NAMED_UNIT ( #337 ) );
#247 = EDGE_CURVE ( 'NONE', #266, #348, #358, .T. ) ;
#248 = AXIS2_PLACEMENT_3D ( 'NONE', #287, #179, #112 ) ;
#249 = ORIENTED_EDGE ( 'NONE', *, *, #229, .T. ) ;
#250 = DIMENSIONAL_EXPONENTS ( 1.000000000000000000, 0.0000000000000000000, 0.0000000000000000000, 0.0000000000000000000, 0.0000000000000000000, 0.0000000000000000000, 0.0000000000000000000 ) ;
#251 = EDGE_LOOP ( 'NONE', ( #20, #171 ) ) ;
#252 = DIMENSIONAL_EXPONENTS ( 1.000000000000000000, 0.0000000000000000000, 0.0000000000000000000, 0.0000000000000000000, 0.0000000000000000000, 0.0000000000000000000, 0.0000000000000000000 ) ;
#253 =( LENGTH_UNIT ( ) NAMED_UNIT ( * ) SI_UNIT ( $, .METRE. ) );
#254 = AXIS2_PLACEMENT_3D ( 'NONE', #19, #146, #118 ) ;
#255 = SHAPE_DEFINITION_REPRESENTATION ( #108, #5 ) ;
#256 =( LENGTH_UNIT ( ) NAMED_UNIT ( * ) SI_UNIT ( $, .METRE. ) );
#257 = FILL_AREA_STYLE ('',( #74 ) ) ;
#258 = DIRECTION ( 'NONE',  ( -0.0000000000000000000, -0.0000000000000000000, -1.000000000000000000 ) ) ;
#259 = ADVANCED_FACE ( 'NONE', ( #93 ), #130, .F. ) ;
#260 = CONICAL_SURFACE ( 'NONE', #242, 0.07874999999999980627, 0.7853981633974466137 ) ;
#261 = ORIENTED_EDGE ( 'NONE', *, *, #119, .F. ) ;
#262 = DIRECTION ( 'NONE',  ( 1.000000000000000000, 0.0000000000000000000, 0.0000000000000000000 ) ) ;
#263 = DIRECTION ( 'NONE',  ( -1.000000000000000000, 0.0000000000000000000, 0.0000000000000000000 ) ) ;
#264 = ORIENTED_EDGE ( 'NONE', *, *, #73, .T. ) ;
#265 = EDGE_CURVE ( 'NONE', #22, #8, #186, .T. ) ;
#266 = VERTEX_POINT ( 'NONE', #97 ) ;
#267 = STYLED_ITEM ( 'NONE', ( #143 ), #5 ) ;
#268 =( GEOMETRIC_REPRESENTATION_CONTEXT ( 3 ) GLOBAL_UNCERTAINTY_ASSIGNED_CONTEXT ( ( #333 ) ) GLOBAL_UNIT_ASSIGNED_CONTEXT ( ( #246, #165, #175 ) ) REPRESENTATION_CONTEXT ( 'NONE', 'WORKASPACE' ) );
#269 = DIRECTION ( 'NONE',  ( -0.0000000000000000000, -0.0000000000000000000, -1.000000000000000000 ) ) ;
#270 = ORIENTED_EDGE ( 'NONE', *, *, #145, .F. ) ;
#271 = CARTESIAN_POINT ( 'NONE',  ( 0.0000000000000000000, 0.0000000000000000000, 2.000000000000000000 ) ) ;
#272 = VERTEX_POINT ( 'NONE', #153 ) ;
#273 = DIRECTION ( 'NONE',  ( -0.0000000000000000000, -0.0000000000000000000, -1.000000000000000000 ) ) ;
#274 = ADVANCED_FACE ( 'NONE', ( #233, #216 ), #370, .T. ) ;
#275 = CARTESIAN_POINT ( 'NONE',  ( 0.09375000000000001388, 1.148106374200643863E-17, 0.0000000000000000000 ) ) ;
#276 = AXIS2_PLACEMENT_3D ( 'NONE', #231, #339, #311 ) ;
#277 =( LENGTH_UNIT ( ) NAMED_UNIT ( * ) SI_UNIT ( $, .METRE. ) );
#278 = VECTOR ( 'NONE', #39, 39.37007874015748143 ) ;
#279 = PRESENTATION_LAYER_ASSIGNMENT (  '', '', ( #67 ) ) ;
#280 = CARTESIAN_POINT ( 'NONE',  ( 0.0000000000000000000, 0.0000000000000000000, 0.1250000000000000000 ) ) ;
#281 = FACE_OUTER_BOUND ( 'NONE', #154, .T. ) ;
#282 = DIRECTION ( 'NONE',  ( 0.0000000000000000000, 0.0000000000000000000, 1.000000000000000000 ) ) ;
#283 = PRODUCT_CONTEXT ( 'NONE', #59, 'mechanical' ) ;
#284 = DIRECTION ( 'NONE',  ( -0.0000000000000000000, -0.0000000000000000000, -1.000000000000000000 ) ) ;
#285 = AXIS2_PLACEMENT_3D ( 'NONE', #280, #161, #7 ) ;
#286 = VECTOR ( 'NONE', #185, 39.37007874015748143 ) ;
#287 = CARTESIAN_POINT ( 'NONE',  ( 0.0000000000000000000, 0.0000000000000000000, 2.000000000000000000 ) ) ;
#288 = DIRECTION ( 'NONE',  ( 1.000000000000000000, 0.0000000000000000000, 0.0000000000000000000 ) ) ;
#289 = VERTEX_POINT ( 'NONE', #349 ) ;
#290 = CARTESIAN_POINT ( 'NONE',  ( 0.0000000000000000000, 0.0000000000000000000, 0.1250000000000000000 ) ) ;
#291 = COLOUR_RGB ( '',0.7921568627450980005, 0.8196078431372548767, 0.9333333333333333481 ) ;
#292 = VERTEX_POINT ( 'NONE', #239 ) ;
#293 = CARTESIAN_POINT ( 'NONE',  ( 0.09375000000000001388, 1.148106374200643863E-17, 1.984999999999999654 ) ) ;
#294 = CYLINDRICAL_SURFACE ( 'NONE', #254, 0.04500000000000003303 ) ;
#295 = ORIENTED_EDGE ( 'NONE', *, *, #15, .T. ) ;
#296 = CARTESIAN_POINT ( 'NONE',  ( 0.0000000000000000000, 0.0000000000000000000, 1.984999999999999654 ) ) ;
#297 = EDGE_LOOP ( 'NONE', ( #342, #238 ) ) ;
#298 = CARTESIAN_POINT ( 'NONE',  ( 0.0000000000000000000, 0.0000000000000000000, 0.5987499999999996714 ) ) ;
#299 = ORIENTED_EDGE ( 'NONE', *, *, #15, .F. ) ;
#300 = VECTOR ( 'NONE', #134, 39.37007874015748143 ) ;
#301 = CARTESIAN_POINT ( 'NONE',  ( 0.0000000000000000000, 0.0000000000000000000, 2.000000000000000000 ) ) ;
#302 = EDGE_LOOP ( 'NONE', ( #325, #354, #152, #317 ) ) ;
#303 = DIRECTION ( 'NONE',  ( 1.000000000000000000, 0.0000000000000000000, -0.0000000000000000000 ) ) ;
#304 = CARTESIAN_POINT ( 'NONE',  ( 0.0000000000000000000, 0.0000000000000000000, 1.984999999999999654 ) ) ;
#305 = AXIS2_PLACEMENT_3D ( 'NONE', #12, #147, #228 ) ;
#306 = AXIS2_PLACEMENT_3D ( 'NONE', #338, #315, #202 ) ;
#307 = EDGE_LOOP ( 'NONE', ( #81, #113, #249, #129 ) ) ;
#308 = EDGE_CURVE ( 'NONE', #150, #309, #178, .T. ) ;
#309 = VERTEX_POINT ( 'NONE', #85 ) ;
#310 = DIRECTION ( 'NONE',  ( -1.000000000000000000, 0.0000000000000000000, 0.0000000000000000000 ) ) ;
#311 = DIRECTION ( 'NONE',  ( -1.000000000000000000, 0.0000000000000000000, 0.0000000000000000000 ) ) ;
#312 = CARTESIAN_POINT ( 'NONE',  ( 0.0000000000000000000, 0.0000000000000000000, 0.5500000000000000444 ) ) ;
#313 = ORIENTED_EDGE ( 'NONE', *, *, #245, .F. ) ;
#314 = VECTOR ( 'NONE', #71, 39.37007874015748143 ) ;
#315 = DIRECTION ( 'NONE',  ( -0.0000000000000000000, -0.0000000000000000000, -1.000000000000000000 ) ) ;
#316 = AXIS2_PLACEMENT_3D ( 'NONE', #312, #343, #83 ) ;
#317 = ORIENTED_EDGE ( 'NONE', *, *, #35, .F. ) ;
#318 = PLANE ( 'NONE',  #326 ) ;
#319 = EDGE_CURVE ( 'NONE', #374, #8, #117, .T. ) ;
#320 = ORIENTED_EDGE ( 'NONE', *, *, #35, .T. ) ;
#321 = CARTESIAN_POINT ( 'NONE',  ( 0.04500000000000006772, 0.0000000000000000000, 0.5500000000000000444 ) ) ;
#322 = ORIENTED_EDGE ( 'NONE', *, *, #209, .T. ) ;
#323 = CARTESIAN_POINT ( 'NONE',  ( -0.07874999999999980627, 0.0000000000000000000, 2.000000000000000000 ) ) ;
#324 = CIRCLE ( 'NONE', #94, 0.09375000000000001388 ) ;
#325 = ORIENTED_EDGE ( 'NONE', *, *, #247, .F. ) ;
#326 = AXIS2_PLACEMENT_3D ( 'NONE', #271, #63, #303 ) ;
#327 = CARTESIAN_POINT ( 'NONE',  ( 0.0000000000000000000, 0.0000000000000000000, 0.0000000000000000000 ) ) ;
#328 = DIRECTION ( 'NONE',  ( 1.000000000000000000, 0.0000000000000000000, 0.0000000000000000000 ) ) ;
#329 = CARTESIAN_POINT ( 'NONE',  ( 0.09375000000000001388, 1.148106374200643863E-17, 0.1250000000000000000 ) ) ;
#330 = ADVANCED_FACE ( 'NONE', ( #120 ), #123, .T. ) ;
#331 = VECTOR ( 'NONE', #162, 39.37007874015748143 ) ;
#332 = FACE_OUTER_BOUND ( 'NONE', #55, .T. ) ;
#333 = UNCERTAINTY_MEASURE_WITH_UNIT (LENGTH_MEASURE( 1.000000000000000082E-05 ), #246, 'distance_accuracy_value', 'NONE');
#334 = AXIS2_PLACEMENT_3D ( 'NONE', #126, #151, #48 ) ;
#335 = ORIENTED_EDGE ( 'NONE', *, *, #229, .F. ) ;
#336 = DIRECTION ( 'NONE',  ( 1.000000000000000000, 0.0000000000000000000, 0.0000000000000000000 ) ) ;
#337 = DIMENSIONAL_EXPONENTS ( 1.000000000000000000, 0.0000000000000000000, 0.0000000000000000000, 0.0000000000000000000, 0.0000000000000000000, 0.0000000000000000000, 0.0000000000000000000 ) ;
#338 = CARTESIAN_POINT ( 'NONE',  ( 0.0000000000000000000, 0.0000000000000000000, 0.5987499999999996714 ) ) ;
#339 = DIRECTION ( 'NONE',  ( -0.0000000000000000000, -0.0000000000000000000, -1.000000000000000000 ) ) ;
#340 = AXIS2_PLACEMENT_3D ( 'NONE', #367, #23, #353 ) ;
#341 =( CONVERSION_BASED_UNIT ( 'INCH', #225 ) LENGTH_UNIT ( ) NAMED_UNIT ( #252 ) );
#342 = ORIENTED_EDGE ( 'NONE', *, *, #194, .T. ) ;
#343 = DIRECTION ( 'NONE',  ( 0.0000000000000000000, 0.0000000000000000000, 1.000000000000000000 ) ) ;
#344 = EDGE_LOOP ( 'NONE', ( #182, #84, #196, #261 ) ) ;
#345 = PRODUCT_DEFINITION ( 'UNKNOWN', '', #131, #91 ) ;
#346 = AXIS2_PLACEMENT_3D ( 'NONE', #27, #213, #29 ) ;
#347 = VERTEX_POINT ( 'NONE', #207 ) ;
#348 = VERTEX_POINT ( 'NONE', #323 ) ;
#349 = CARTESIAN_POINT ( 'NONE',  ( -0.09375000000000001388, 0.0000000000000000000, 1.984999999999999654 ) ) ;
#350 = PRODUCT_RELATED_PRODUCT_CATEGORY ( 'part', '', ( #141 ) ) ;
#351 = DIRECTION ( 'NONE',  ( 0.0000000000000000000, 0.0000000000000000000, -1.000000000000000000 ) ) ;
#352 = CARTESIAN_POINT ( 'NONE',  ( -0.09375000000000001388, 0.0000000000000000000, 0.0000000000000000000 ) ) ;
#353 = DIRECTION ( 'NONE',  ( 1.000000000000000000, 0.0000000000000000000, 0.0000000000000000000 ) ) ;
#354 = ORIENTED_EDGE ( 'NONE', *, *, #101, .T. ) ;
#355 = ORIENTED_EDGE ( 'NONE', *, *, #245, .T. ) ;
#356 = CYLINDRICAL_SURFACE ( 'NONE', #36, 0.09375000000000001388 ) ;
#357 = LENGTH_MEASURE_WITH_UNIT ( LENGTH_MEASURE( 0.02539999999999999897 ), #253 );
#358 = CIRCLE ( 'NONE', #340, 0.07874999999999980627 ) ;
#359 = DIRECTION ( 'NONE',  ( -0.0000000000000000000, -0.0000000000000000000, -1.000000000000000000 ) ) ;
#360 = ADVANCED_FACE ( 'NONE', ( #58 ), #318, .T. ) ;
#361 = SURFACE_STYLE_USAGE ( .BOTH. , #144 ) ;
#362 = CYLINDRICAL_SURFACE ( 'NONE', #6, 0.09375000000000001388 ) ;
#363 = ORIENTED_EDGE ( 'NONE', *, *, #73, .F. ) ;
#364 = CYLINDRICAL_SURFACE ( 'NONE', #248, 0.09375000000000001388 ) ;
#365 = EDGE_CURVE ( 'NONE', #208, #22, #31, .T. ) ;
#366 = ORIENTED_EDGE ( 'NONE', *, *, #223, .T. ) ;
#367 = CARTESIAN_POINT ( 'NONE',  ( 0.0000000000000000000, 0.0000000000000000000, 2.000000000000000000 ) ) ;
#368 = FACE_OUTER_BOUND ( 'NONE', #116, .T. ) ;
#369 = ORIENTED_EDGE ( 'NONE', *, *, #4, .T. ) ;
#370 = PLANE ( 'NONE',  #334 ) ;
#371 = CARTESIAN_POINT ( 'NONE',  ( 0.0000000000000000000, 0.0000000000000000000, 0.5500000000000000444 ) ) ;
#372 = VECTOR ( 'NONE', #217, 39.37007874015748143 ) ;
#373 = CONICAL_SURFACE ( 'NONE', #316, 0.04500000000000006772, 0.7853981633974512766 ) ;
#374 = VERTEX_POINT ( 'NONE', #329 ) ;
#375 = DIRECTION ( 'NONE',  ( 0.0000000000000000000, 0.0000000000000000000, 1.000000000000000000 ) ) ;
#376 = EDGE_CURVE ( 'NONE', #150, #347, #65, .T. ) ;
#377 = EDGE_LOOP ( 'NONE', ( #187, #313 ) ) ;
#378 = CARTESIAN_POINT ( 'NONE',  ( -0.04500000000000006772, 5.510910596163098030E-18, 0.5500000000000000444 ) ) ;
#379 = EDGE_LOOP ( 'NONE', ( #366, #264, #335, #210 ) ) ;
ENDSEC;
END-ISO-10303-21;
