ISO-10303-21;
HEADER;
FILE_DESCRIPTION (( 'STEP AP214' ),
    '1' );
FILE_NAME ('30512W.STEP',
    '2023-06-22T18:35:20',
    ( '' ),
    ( '' ),
    'SwSTEP 2.0',
    'SolidWorks 2023',
    '' );
FILE_SCHEMA (( 'AUTOMOTIVE_DESIGN' ));
ENDSEC;

DATA;
#1 = DIRECTION ( 'NONE',  ( -1.000000000000000000, -3.061616997868386099E-17, 0.000000000000000000 ) ) ;
#2 = ORIENTED_EDGE ( 'NONE', *, *, #282, .T. ) ;
#3 = EDGE_CURVE ( 'NONE', #228, #49, #195, .T. ) ;
#4 = VECTOR ( 'NONE', #35, 39.37007874015748143 ) ;
#5 = CIRCLE ( 'NONE', #73, 0.2500000000000000555 ) ;
#6 = DIRECTION ( 'NONE',  ( -1.000000000000000000, 0.000000000000000000, 0.000000000000000000 ) ) ;
#7 = CARTESIAN_POINT ( 'NONE',  ( -0.2500000000000000000, 1.000000000000000000, 0.000000000000000000 ) ) ;
#8 =( GEOMETRIC_REPRESENTATION_CONTEXT ( 3 ) GLOBAL_UNCERTAINTY_ASSIGNED_CONTEXT ( ( #285 ) ) GLOBAL_UNIT_ASSIGNED_CONTEXT ( ( #114, #91, #288 ) ) REPRESENTATION_CONTEXT ( 'NONE', 'WORKASPACE' ) );
#9 = CARTESIAN_POINT ( 'NONE',  ( 7.582401355855259480E-33, 1.000000000000000000, 0.000000000000000000 ) ) ;
#10 = ADVANCED_FACE ( 'NONE', ( #250 ), #160, .T. ) ;
#11 = DIRECTION ( 'NONE',  ( -0.000000000000000000, -1.000000000000000000, -0.000000000000000000 ) ) ;
#12 = DIRECTION ( 'NONE',  ( -1.000000000000000000, 0.000000000000000000, 0.000000000000000000 ) ) ;
#13 = FACE_OUTER_BOUND ( 'NONE', #167, .T. ) ;
#14 = CLOSED_SHELL ( 'NONE', ( #171, #238, #220, #38 ) ) ;
#15 =( NAMED_UNIT ( * ) SI_UNIT ( $, .STERADIAN. ) SOLID_ANGLE_UNIT ( ) );
#16 = COLOUR_RGB ( '',1.000000000000000000, 0.000000000000000000, 0.000000000000000000 ) ;
#17 = FILL_AREA_STYLE ('',( #214 ) ) ;
#18 = SURFACE_STYLE_USAGE ( .BOTH. , #37 ) ;
#19 = ORIENTED_EDGE ( 'NONE', *, *, #156, .T. ) ;
#20 = ORIENTED_EDGE ( 'NONE', *, *, #106, .T. ) ;
#21 = AXIS2_PLACEMENT_3D ( 'NONE', #52, #82, #208 ) ;
#22 =( GEOMETRIC_REPRESENTATION_CONTEXT ( 3 ) GLOBAL_UNCERTAINTY_ASSIGNED_CONTEXT ( ( #296 ) ) GLOBAL_UNIT_ASSIGNED_CONTEXT ( ( #74, #158, #25 ) ) REPRESENTATION_CONTEXT ( 'NONE', 'WORKASPACE' ) );
#23 = PLANE ( 'NONE',  #169 ) ;
#24 = ORIENTED_EDGE ( 'NONE', *, *, #156, .F. ) ;
#25 =( NAMED_UNIT ( * ) SI_UNIT ( $, .STERADIAN. ) SOLID_ANGLE_UNIT ( ) );
#26 = ORIENTED_EDGE ( 'NONE', *, *, #272, .F. ) ;
#27 = PRESENTATION_LAYER_ASSIGNMENT (  '', '', ( #209 ) ) ;
#28 = COLOUR_RGB ( '',0.7921568627450980005, 0.8196078431372548767, 0.9333333333333333481 ) ;
#29 = PRESENTATION_STYLE_ASSIGNMENT (( #56 ) ) ;
#30 = DIRECTION ( 'NONE',  ( -3.061616997868386099E-17, 1.000000000000000000, -0.000000000000000000 ) ) ;
#31 = CLOSED_SHELL ( 'NONE', ( #188, #62, #10, #176 ) ) ;
#32 = UNCERTAINTY_MEASURE_WITH_UNIT (LENGTH_MEASURE( 1.000000000000000082E-05 ), #34, 'distance_accuracy_value', 'NONE');
#33 =( NAMED_UNIT ( * ) PLANE_ANGLE_UNIT ( ) SI_UNIT ( $, .RADIAN. ) );
#34 =( CONVERSION_BASED_UNIT ( 'INCH', #216 ) LENGTH_UNIT ( ) NAMED_UNIT ( #303 ) );
#35 = DIRECTION ( 'NONE',  ( -3.061616997868386099E-17, 1.000000000000000000, -0.000000000000000000 ) ) ;
#36 = AXIS2_PLACEMENT_3D ( 'NONE', #271, #177, #295 ) ;
#37 = SURFACE_SIDE_STYLE ('',( #180 ) ) ;
#38 = ADVANCED_FACE ( 'NONE', ( #191 ), #260, .F. ) ;
#39 = SURFACE_STYLE_USAGE ( .BOTH. , #278 ) ;
#40 = DIMENSIONAL_EXPONENTS ( 1.000000000000000000, 0.000000000000000000, 0.000000000000000000, 0.000000000000000000, 0.000000000000000000, 0.000000000000000000, 0.000000000000000000 ) ;
#41 = LINE ( 'NONE', #119, #236 ) ;
#42 = ORIENTED_EDGE ( 'NONE', *, *, #253, .F. ) ;
#43 = AXIS2_PLACEMENT_3D ( 'NONE', #202, #122, #140 ) ;
#44 = EDGE_CURVE ( 'NONE', #49, #228, #213, .T. ) ;
#45 = CARTESIAN_POINT ( 'NONE',  ( 3.061616997868383018E-17, 1.000000000000000000, 0.2500000000000000000 ) ) ;
#46 = FILL_AREA_STYLE ('',( #309 ) ) ;
#47 = PRODUCT_DEFINITION_SHAPE ( 'NONE', 'NONE',  #302 ) ;
#48 = PRODUCT_RELATED_PRODUCT_CATEGORY ( 'part', '', ( #144 ) ) ;
#49 = VERTEX_POINT ( 'NONE', #57 ) ;
#50 = ORIENTED_EDGE ( 'NONE', *, *, #58, .T. ) ;
#51 = MECHANICAL_DESIGN_GEOMETRIC_PRESENTATION_REPRESENTATION (  '', ( #139 ), #108 ) ;
#52 = CARTESIAN_POINT ( 'NONE',  ( 0.000000000000000000, 1.000000000000000000, 0.000000000000000000 ) ) ;
#53 = CARTESIAN_POINT ( 'NONE',  ( 0.000000000000000000, 1.000000000000000000, 0.000000000000000000 ) ) ;
#54 = MECHANICAL_DESIGN_GEOMETRIC_PRESENTATION_REPRESENTATION (  '', ( #116 ), #306 ) ;
#55 =( CONVERSION_BASED_UNIT ( 'INCH', #78 ) LENGTH_UNIT ( ) NAMED_UNIT ( #246 ) );
#56 = SURFACE_STYLE_USAGE ( .BOTH. , #233 ) ;
#57 = CARTESIAN_POINT ( 'NONE',  ( 0.000000000000000000, 1.000000000000000000, -0.2500000000000000000 ) ) ;
#58 = EDGE_CURVE ( 'NONE', #117, #124, #218, .T. ) ;
#59 = FILL_AREA_STYLE_COLOUR ( '', #16 ) ;
#60 = AXIS2_PLACEMENT_3D ( 'NONE', #150, #230, #193 ) ;
#61 = SURFACE_STYLE_USAGE ( .BOTH. , #245 ) ;
#62 = ADVANCED_FACE ( 'NONE', ( #234 ), #264, .T. ) ;
#63 = LINE ( 'NONE', #157, #4 ) ;
#64 = VECTOR ( 'NONE', #105, 39.37007874015748143 ) ;
#65 = DIMENSIONAL_EXPONENTS ( 1.000000000000000000, 0.000000000000000000, 0.000000000000000000, 0.000000000000000000, 0.000000000000000000, 0.000000000000000000, 0.000000000000000000 ) ;
#66 = DIRECTION ( 'NONE',  ( -1.000000000000000000, 0.000000000000000000, 0.000000000000000000 ) ) ;
#67 = VERTEX_POINT ( 'NONE', #126 ) ;
#68 = DIRECTION ( 'NONE',  ( -0.000000000000000000, -1.000000000000000000, -0.000000000000000000 ) ) ;
#69 = ORIENTED_EDGE ( 'NONE', *, *, #106, .F. ) ;
#70 = CARTESIAN_POINT ( 'NONE',  ( -6.123233995736772199E-17, 3.000000000000000444, 0.000000000000000000 ) ) ;
#71 = ORIENTED_EDGE ( 'NONE', *, *, #212, .T. ) ;
#72 = COLOUR_RGB ( '',1.000000000000000000, 0.000000000000000000, 0.000000000000000000 ) ;
#73 = AXIS2_PLACEMENT_3D ( 'NONE', #70, #138, #221 ) ;
#74 =( CONVERSION_BASED_UNIT ( 'INCH', #255 ) LENGTH_UNIT ( ) NAMED_UNIT ( #65 ) );
#75 = VERTEX_POINT ( 'NONE', #207 ) ;
#76 = DIRECTION ( 'NONE',  ( 0.000000000000000000, 0.000000000000000000, 1.000000000000000000 ) ) ;
#77 = VERTEX_POINT ( 'NONE', #7 ) ;
#78 = LENGTH_MEASURE_WITH_UNIT ( LENGTH_MEASURE( 0.02539999999999999897 ), #262 );
#79 = FILL_AREA_STYLE ('',( #289 ) ) ;
#80 = MECHANICAL_DESIGN_GEOMETRIC_PRESENTATION_REPRESENTATION (  '', ( #209 ), #241 ) ;
#81 = SHAPE_DEFINITION_REPRESENTATION ( #47, #294 ) ;
#82 = DIRECTION ( 'NONE',  ( 0.000000000000000000, 1.000000000000000000, 0.000000000000000000 ) ) ;
#83 = DIRECTION ( 'NONE',  ( -0.000000000000000000, -1.000000000000000000, -0.000000000000000000 ) ) ;
#84 = PRODUCT_DEFINITION_CONTEXT ( 'detailed design', #121, 'design' ) ;
#85 = COLOUR_RGB ( '',0.7921568627450980005, 0.8196078431372548767, 0.9333333333333333481 ) ;
#86 =( CONVERSION_BASED_UNIT ( 'INCH', #174 ) LENGTH_UNIT ( ) NAMED_UNIT ( #135 ) );
#87 =( CONVERSION_BASED_UNIT ( 'INCH', #155 ) LENGTH_UNIT ( ) NAMED_UNIT ( #40 ) );
#88 = PRESENTATION_STYLE_ASSIGNMENT (( #297 ) ) ;
#89 = SURFACE_STYLE_FILL_AREA ( #17 ) ;
#90 = AXIS2_PLACEMENT_3D ( 'NONE', #251, #276, #182 ) ;
#91 =( NAMED_UNIT ( * ) PLANE_ANGLE_UNIT ( ) SI_UNIT ( $, .RADIAN. ) );
#92 = ORIENTED_EDGE ( 'NONE', *, *, #44, .F. ) ;
#93 = PRESENTATION_LAYER_ASSIGNMENT (  '', '', ( #139 ) ) ;
#94 = FACE_OUTER_BOUND ( 'NONE', #257, .T. ) ;
#95 =( LENGTH_UNIT ( ) NAMED_UNIT ( * ) SI_UNIT ( $, .METRE. ) );
#96 = FILL_AREA_STYLE ('',( #137 ) ) ;
#97 = SURFACE_SIDE_STYLE ('',( #308 ) ) ;
#98 = ORIENTED_EDGE ( 'NONE', *, *, #103, .T. ) ;
#99 = MECHANICAL_DESIGN_GEOMETRIC_PRESENTATION_REPRESENTATION (  '', ( #205 ), #259 ) ;
#100 = DIRECTION ( 'NONE',  ( 0.000000000000000000, 0.000000000000000000, -1.000000000000000000 ) ) ;
#101 = PRESENTATION_LAYER_ASSIGNMENT (  '', '', ( #112 ) ) ;
#102 = CARTESIAN_POINT ( 'NONE',  ( 0.000000000000000000, 0.000000000000000000, 0.000000000000000000 ) ) ;
#103 = EDGE_CURVE ( 'NONE', #67, #283, #168, .T. ) ;
#104 = DIRECTION ( 'NONE',  ( -0.000000000000000000, -1.000000000000000000, -0.000000000000000000 ) ) ;
#105 = DIRECTION ( 'NONE',  ( -3.061616997868386099E-17, 1.000000000000000000, -0.000000000000000000 ) ) ;
#106 = EDGE_CURVE ( 'NONE', #75, #77, #298, .T. ) ;
#107 =( LENGTH_UNIT ( ) NAMED_UNIT ( * ) SI_UNIT ( $, .METRE. ) );
#108 =( GEOMETRIC_REPRESENTATION_CONTEXT ( 3 ) GLOBAL_UNCERTAINTY_ASSIGNED_CONTEXT ( ( #32 ) ) GLOBAL_UNIT_ASSIGNED_CONTEXT ( ( #34, #132, #15 ) ) REPRESENTATION_CONTEXT ( 'NONE', 'WORKASPACE' ) );
#109 = CYLINDRICAL_SURFACE ( 'NONE', #179, 0.2500000000000000555 ) ;
#110 = DIRECTION ( 'NONE',  ( -1.000000000000000000, 0.000000000000000000, 0.000000000000000000 ) ) ;
#111 = AXIS2_PLACEMENT_3D ( 'NONE', #149, #291, #6 ) ;
#112 = STYLED_ITEM ( 'NONE', ( #256 ), #301 ) ;
#113 = PRESENTATION_STYLE_ASSIGNMENT (( #61 ) ) ;
#114 =( CONVERSION_BASED_UNIT ( 'INCH', #189 ) LENGTH_UNIT ( ) NAMED_UNIT ( #219 ) );
#115 = ORIENTED_EDGE ( 'NONE', *, *, #215, .F. ) ;
#116 = STYLED_ITEM ( 'NONE', ( #29 ), #62 ) ;
#117 = VERTEX_POINT ( 'NONE', #263 ) ;
#118 = PRODUCT_DEFINITION_FORMATION_WITH_SPECIFIED_SOURCE ( 'ANY', '', #144, .NOT_KNOWN. ) ;
#119 = CARTESIAN_POINT ( 'NONE',  ( 3.061616997868383018E-17, 0.000000000000000000, 0.2500000000000000000 ) ) ;
#120 = EDGE_CURVE ( 'NONE', #75, #117, #152, .T. ) ;
#121 = APPLICATION_CONTEXT ( 'automotive_design' ) ;
#122 = DIRECTION ( 'NONE',  ( -0.000000000000000000, -1.000000000000000000, -0.000000000000000000 ) ) ;
#123 = FILL_AREA_STYLE ('',( #142 ) ) ;
#124 = VERTEX_POINT ( 'NONE', #287 ) ;
#125 =( NAMED_UNIT ( * ) SI_UNIT ( $, .STERADIAN. ) SOLID_ANGLE_UNIT ( ) );
#126 = CARTESIAN_POINT ( 'NONE',  ( 0.000000000000000000, 0.000000000000000000, -0.2500000000000000000 ) ) ;
#127 =( NAMED_UNIT ( * ) PLANE_ANGLE_UNIT ( ) SI_UNIT ( $, .RADIAN. ) );
#128 = AXIS2_PLACEMENT_3D ( 'NONE', #148, #83, #100 ) ;
#129 = CARTESIAN_POINT ( 'NONE',  ( -6.123233995736772199E-17, 3.000000000000000444, 0.000000000000000000 ) ) ;
#130 = CARTESIAN_POINT ( 'NONE',  ( 0.000000000000000000, 0.000000000000000000, 0.000000000000000000 ) ) ;
#131 = DIMENSIONAL_EXPONENTS ( 1.000000000000000000, 0.000000000000000000, 0.000000000000000000, 0.000000000000000000, 0.000000000000000000, 0.000000000000000000, 0.000000000000000000 ) ;
#132 =( NAMED_UNIT ( * ) PLANE_ANGLE_UNIT ( ) SI_UNIT ( $, .RADIAN. ) );
#133 = LINE ( 'NONE', #136, #293 ) ;
#134 = PRESENTATION_LAYER_ASSIGNMENT (  '', '', ( #201 ) ) ;
#135 = DIMENSIONAL_EXPONENTS ( 1.000000000000000000, 0.000000000000000000, 0.000000000000000000, 0.000000000000000000, 0.000000000000000000, 0.000000000000000000, 0.000000000000000000 ) ;
#136 = CARTESIAN_POINT ( 'NONE',  ( 0.000000000000000000, 0.000000000000000000, -0.2500000000000000000 ) ) ;
#137 = FILL_AREA_STYLE_COLOUR ( '', #28 ) ;
#138 = DIRECTION ( 'NONE',  ( -3.061616997868386099E-17, 1.000000000000000000, -0.000000000000000000 ) ) ;
#139 = STYLED_ITEM ( 'NONE', ( #113 ), #188 ) ;
#140 = DIRECTION ( 'NONE',  ( 0.000000000000000000, 0.000000000000000000, -1.000000000000000000 ) ) ;
#141 = PRESENTATION_STYLE_ASSIGNMENT (( #187 ) ) ;
#142 = FILL_AREA_STYLE_COLOUR ( '', #85 ) ;
#143 = EDGE_LOOP ( 'NONE', ( #204, #2, #183, #115 ) ) ;
#144 = PRODUCT ( '30512W', '30512W', '', ( #147 ) ) ;
#145 = EDGE_LOOP ( 'NONE', ( #98, #19 ) ) ;
#146 = COLOUR_RGB ( '',1.000000000000000000, 0.000000000000000000, 0.000000000000000000 ) ;
#147 = PRODUCT_CONTEXT ( 'NONE', #178, 'mechanical' ) ;
#148 = CARTESIAN_POINT ( 'NONE',  ( 0.000000000000000000, 0.000000000000000000, 0.000000000000000000 ) ) ;
#149 = CARTESIAN_POINT ( 'NONE',  ( -6.123233995736772199E-17, 3.000000000000000444, 0.000000000000000000 ) ) ;
#150 = CARTESIAN_POINT ( 'NONE',  ( 0.2500000000000000000, 3.000000000000000444, 0.000000000000000000 ) ) ;
#151 = AXIS2_PLACEMENT_3D ( 'NONE', #9, #211, #12 ) ;
#152 = LINE ( 'NONE', #172, #64 ) ;
#153 =( LENGTH_UNIT ( ) NAMED_UNIT ( * ) SI_UNIT ( $, .METRE. ) );
#154 = UNCERTAINTY_MEASURE_WITH_UNIT (LENGTH_MEASURE( 1.000000000000000082E-05 ), #87, 'distance_accuracy_value', 'NONE');
#155 = LENGTH_MEASURE_WITH_UNIT ( LENGTH_MEASURE( 0.02539999999999999897 ), #153 );
#156 = EDGE_CURVE ( 'NONE', #283, #67, #280, .T. ) ;
#157 = CARTESIAN_POINT ( 'NONE',  ( -0.2500000000000001110, 3.000000000000000444, 0.000000000000000000 ) ) ;
#158 =( NAMED_UNIT ( * ) PLANE_ANGLE_UNIT ( ) SI_UNIT ( $, .RADIAN. ) );
#159 = DIRECTION ( 'NONE',  ( -3.061616997868386099E-17, 1.000000000000000000, -0.000000000000000000 ) ) ;
#160 = CYLINDRICAL_SURFACE ( 'NONE', #128, 0.2500000000000000000 ) ;
#161 = CARTESIAN_POINT ( 'NONE',  ( 3.061616997868383018E-17, 0.000000000000000000, 0.2500000000000000000 ) ) ;
#162 = ORIENTED_EDGE ( 'NONE', *, *, #58, .F. ) ;
#163 =( LENGTH_UNIT ( ) NAMED_UNIT ( * ) SI_UNIT ( $, .METRE. ) );
#164 = COLOUR_RGB ( '',1.000000000000000000, 0.000000000000000000, 0.000000000000000000 ) ;
#165 = EDGE_LOOP ( 'NONE', ( #226, #50 ) ) ;
#166 = UNCERTAINTY_MEASURE_WITH_UNIT (LENGTH_MEASURE( 1.000000000000000082E-05 ), #277, 'distance_accuracy_value', 'NONE');
#167 = EDGE_LOOP ( 'NONE', ( #199, #305, #42, #279 ) ) ;
#168 = CIRCLE ( 'NONE', #254, 0.2500000000000000000 ) ;
#169 = AXIS2_PLACEMENT_3D ( 'NONE', #249, #274, #1 ) ;
#170 = CARTESIAN_POINT ( 'NONE',  ( 0.000000000000000000, 0.000000000000000000, 0.000000000000000000 ) ) ;
#171 = ADVANCED_FACE ( 'NONE', ( #13 ), #109, .T. ) ;
#172 = CARTESIAN_POINT ( 'NONE',  ( 0.2499999999999999722, 3.000000000000000444, 3.061616997868383634E-17 ) ) ;
#173 = DIRECTION ( 'NONE',  ( 0.000000000000000000, 0.000000000000000000, -1.000000000000000000 ) ) ;
#174 = LENGTH_MEASURE_WITH_UNIT ( LENGTH_MEASURE( 0.02539999999999999897 ), #107 );
#175 =( NAMED_UNIT ( * ) SI_UNIT ( $, .STERADIAN. ) SOLID_ANGLE_UNIT ( ) );
#176 = ADVANCED_FACE ( 'NONE', ( #217 ), #240, .T. ) ;
#177 = DIRECTION ( 'NONE',  ( -0.000000000000000000, -1.000000000000000000, -0.000000000000000000 ) ) ;
#178 = APPLICATION_CONTEXT ( 'automotive_design' ) ;
#179 = AXIS2_PLACEMENT_3D ( 'NONE', #129, #30, #110 ) ;
#180 = SURFACE_STYLE_FILL_AREA ( #123 ) ;
#181 = ORIENTED_EDGE ( 'NONE', *, *, #120, .F. ) ;
#182 = DIRECTION ( 'NONE',  ( -1.000000000000000000, 0.000000000000000000, 0.000000000000000000 ) ) ;
#183 = ORIENTED_EDGE ( 'NONE', *, *, #103, .F. ) ;
#184 = SURFACE_STYLE_FILL_AREA ( #96 ) ;
#185 = EDGE_LOOP ( 'NONE', ( #92, #258 ) ) ;
#186 = PRESENTATION_LAYER_ASSIGNMENT (  '', '', ( #205 ) ) ;
#187 = SURFACE_STYLE_USAGE ( .BOTH. , #97 ) ;
#188 = ADVANCED_FACE ( 'NONE', ( #198 ), #304, .T. ) ;
#189 = LENGTH_MEASURE_WITH_UNIT ( LENGTH_MEASURE( 0.02539999999999999897 ), #227 );
#190 =( NAMED_UNIT ( * ) PLANE_ANGLE_UNIT ( ) SI_UNIT ( $, .RADIAN. ) );
#191 = FACE_OUTER_BOUND ( 'NONE', #165, .T. ) ;
#192 = CARTESIAN_POINT ( 'NONE',  ( 0.000000000000000000, 0.000000000000000000, 0.000000000000000000 ) ) ;
#193 = DIRECTION ( 'NONE',  ( 1.000000000000000000, 3.061616997868386099E-17, 0.000000000000000000 ) ) ;
#194 = DIRECTION ( 'NONE',  ( -0.000000000000000000, -1.000000000000000000, -0.000000000000000000 ) ) ;
#195 = CIRCLE ( 'NONE', #43, 0.2500000000000000000 ) ;
#196 = MECHANICAL_DESIGN_GEOMETRIC_PRESENTATION_REPRESENTATION (  '', ( #112 ), #8 ) ;
#197 = DIRECTION ( 'NONE',  ( 0.000000000000000000, 0.000000000000000000, -1.000000000000000000 ) ) ;
#198 = FACE_OUTER_BOUND ( 'NONE', #143, .T. ) ;
#199 = ORIENTED_EDGE ( 'NONE', *, *, #272, .T. ) ;
#200 = FACE_OUTER_BOUND ( 'NONE', #252, .T. ) ;
#201 = STYLED_ITEM ( 'NONE', ( #222 ), #292 ) ;
#202 = CARTESIAN_POINT ( 'NONE',  ( 0.000000000000000000, 1.000000000000000000, 0.000000000000000000 ) ) ;
#203 = CYLINDRICAL_SURFACE ( 'NONE', #243, 0.2500000000000000555 ) ;
#204 = ORIENTED_EDGE ( 'NONE', *, *, #44, .T. ) ;
#205 = STYLED_ITEM ( 'NONE', ( #88 ), #176 ) ;
#206 = LENGTH_MEASURE_WITH_UNIT ( LENGTH_MEASURE( 0.02539999999999999897 ), #95 );
#207 = CARTESIAN_POINT ( 'NONE',  ( 0.2500000000000000000, 1.000000000000000000, 3.061616997868383634E-17 ) ) ;
#208 = DIRECTION ( 'NONE',  ( 0.000000000000000000, -0.000000000000000000, 1.000000000000000000 ) ) ;
#209 = STYLED_ITEM ( 'NONE', ( #141 ), #10 ) ;
#210 =( NAMED_UNIT ( * ) SI_UNIT ( $, .STERADIAN. ) SOLID_ANGLE_UNIT ( ) );
#211 = DIRECTION ( 'NONE',  ( -3.061616997868386099E-17, 1.000000000000000000, -0.000000000000000000 ) ) ;
#212 = EDGE_CURVE ( 'NONE', #77, #124, #63, .T. ) ;
#213 = CIRCLE ( 'NONE', #235, 0.2500000000000000000 ) ;
#214 = FILL_AREA_STYLE_COLOUR ( '', #146 ) ;
#215 = EDGE_CURVE ( 'NONE', #49, #67, #133, .T. ) ;
#216 = LENGTH_MEASURE_WITH_UNIT ( LENGTH_MEASURE( 0.02539999999999999897 ), #247 );
#217 = FACE_OUTER_BOUND ( 'NONE', #145, .T. ) ;
#218 = CIRCLE ( 'NONE', #111, 0.2500000000000000555 ) ;
#219 = DIMENSIONAL_EXPONENTS ( 1.000000000000000000, 0.000000000000000000, 0.000000000000000000, 0.000000000000000000, 0.000000000000000000, 0.000000000000000000, 0.000000000000000000 ) ;
#220 = ADVANCED_FACE ( 'NONE', ( #94 ), #203, .T. ) ;
#221 = DIRECTION ( 'NONE',  ( -1.000000000000000000, 0.000000000000000000, 0.000000000000000000 ) ) ;
#222 = PRESENTATION_STYLE_ASSIGNMENT (( #39 ) ) ;
#223 = EDGE_LOOP ( 'NONE', ( #281, #225, #275, #24 ) ) ;
#224 = AXIS2_PLACEMENT_3D ( 'NONE', #170, #194, #265 ) ;
#225 = ORIENTED_EDGE ( 'NONE', *, *, #3, .T. ) ;
#226 = ORIENTED_EDGE ( 'NONE', *, *, #253, .T. ) ;
#227 =( LENGTH_UNIT ( ) NAMED_UNIT ( * ) SI_UNIT ( $, .METRE. ) );
#228 = VERTEX_POINT ( 'NONE', #45 ) ;
#229 =( NAMED_UNIT ( * ) PLANE_ANGLE_UNIT ( ) SI_UNIT ( $, .RADIAN. ) );
#230 = DIRECTION ( 'NONE',  ( 3.061616997868386099E-17, -1.000000000000000000, 0.000000000000000000 ) ) ;
#231 = CIRCLE ( 'NONE', #90, 0.2500000000000000000 ) ;
#232 = DIRECTION ( 'NONE',  ( 1.000000000000000000, 0.000000000000000000, 0.000000000000000000 ) ) ;
#233 = SURFACE_SIDE_STYLE ('',( #239 ) ) ;
#234 = FACE_OUTER_BOUND ( 'NONE', #185, .T. ) ;
#235 = AXIS2_PLACEMENT_3D ( 'NONE', #53, #104, #284 ) ;
#236 = VECTOR ( 'NONE', #68, 39.37007874015748143 ) ;
#237 = UNCERTAINTY_MEASURE_WITH_UNIT (LENGTH_MEASURE( 1.000000000000000082E-05 ), #55, 'distance_accuracy_value', 'NONE');
#238 = ADVANCED_FACE ( 'NONE', ( #200 ), #23, .F. ) ;
#239 = SURFACE_STYLE_FILL_AREA ( #79 ) ;
#240 = PLANE ( 'NONE',  #268 ) ;
#241 =( GEOMETRIC_REPRESENTATION_CONTEXT ( 3 ) GLOBAL_UNCERTAINTY_ASSIGNED_CONTEXT ( ( #166 ) ) GLOBAL_UNIT_ASSIGNED_CONTEXT ( ( #277, #190, #261 ) ) REPRESENTATION_CONTEXT ( 'NONE', 'WORKASPACE' ) );
#242 = MECHANICAL_DESIGN_GEOMETRIC_PRESENTATION_REPRESENTATION (  '', ( #201 ), #22 ) ;
#243 = AXIS2_PLACEMENT_3D ( 'NONE', #248, #159, #66 ) ;
#244 = SURFACE_SIDE_STYLE ('',( #267 ) ) ;
#245 = SURFACE_SIDE_STYLE ('',( #89 ) ) ;
#246 = DIMENSIONAL_EXPONENTS ( 1.000000000000000000, 0.000000000000000000, 0.000000000000000000, 0.000000000000000000, 0.000000000000000000, 0.000000000000000000, 0.000000000000000000 ) ;
#247 =( LENGTH_UNIT ( ) NAMED_UNIT ( * ) SI_UNIT ( $, .METRE. ) );
#248 = CARTESIAN_POINT ( 'NONE',  ( -6.123233995736772199E-17, 3.000000000000000444, 0.000000000000000000 ) ) ;
#249 = CARTESIAN_POINT ( 'NONE',  ( 1.171687330204578608E-34, 1.000000000000000000, 0.000000000000000000 ) ) ;
#250 = FACE_OUTER_BOUND ( 'NONE', #223, .T. ) ;
#251 = CARTESIAN_POINT ( 'NONE',  ( 7.582401355855259480E-33, 1.000000000000000000, 0.000000000000000000 ) ) ;
#252 = EDGE_LOOP ( 'NONE', ( #26, #69 ) ) ;
#253 = EDGE_CURVE ( 'NONE', #124, #117, #5, .T. ) ;
#254 = AXIS2_PLACEMENT_3D ( 'NONE', #192, #11, #173 ) ;
#255 = LENGTH_MEASURE_WITH_UNIT ( LENGTH_MEASURE( 0.02539999999999999897 ), #163 );
#256 = PRESENTATION_STYLE_ASSIGNMENT (( #18 ) ) ;
#257 = EDGE_LOOP ( 'NONE', ( #181, #20, #71, #162 ) ) ;
#258 = ORIENTED_EDGE ( 'NONE', *, *, #3, .F. ) ;
#259 =( GEOMETRIC_REPRESENTATION_CONTEXT ( 3 ) GLOBAL_UNCERTAINTY_ASSIGNED_CONTEXT ( ( #154 ) ) GLOBAL_UNIT_ASSIGNED_CONTEXT ( ( #87, #33, #175 ) ) REPRESENTATION_CONTEXT ( 'NONE', 'WORKASPACE' ) );
#260 = PLANE ( 'NONE',  #60 ) ;
#261 =( NAMED_UNIT ( * ) SI_UNIT ( $, .STERADIAN. ) SOLID_ANGLE_UNIT ( ) );
#262 =( LENGTH_UNIT ( ) NAMED_UNIT ( * ) SI_UNIT ( $, .METRE. ) );
#263 = CARTESIAN_POINT ( 'NONE',  ( 0.2500000000000000000, 3.000000000000000444, 3.061616997868383634E-17 ) ) ;
#264 = PLANE ( 'NONE',  #21 ) ;
#265 = DIRECTION ( 'NONE',  ( 0.000000000000000000, 0.000000000000000000, -1.000000000000000000 ) ) ;
#266 = UNCERTAINTY_MEASURE_WITH_UNIT (LENGTH_MEASURE( 1.000000000000000082E-05 ), #86, 'distance_accuracy_value', 'NONE');
#267 = SURFACE_STYLE_FILL_AREA ( #270 ) ;
#268 = AXIS2_PLACEMENT_3D ( 'NONE', #130, #300, #197 ) ;
#269 = AXIS2_PLACEMENT_3D ( 'NONE', #102, #76, #232 ) ;
#270 = FILL_AREA_STYLE ('',( #59 ) ) ;
#271 = CARTESIAN_POINT ( 'NONE',  ( 0.000000000000000000, 0.000000000000000000, 0.000000000000000000 ) ) ;
#272 = EDGE_CURVE ( 'NONE', #77, #75, #231, .T. ) ;
#273 = PRESENTATION_LAYER_ASSIGNMENT (  '', '', ( #116 ) ) ;
#274 = DIRECTION ( 'NONE',  ( -3.061616997868386099E-17, 1.000000000000000000, 0.000000000000000000 ) ) ;
#275 = ORIENTED_EDGE ( 'NONE', *, *, #215, .T. ) ;
#276 = DIRECTION ( 'NONE',  ( -3.061616997868386099E-17, 1.000000000000000000, -0.000000000000000000 ) ) ;
#277 =( CONVERSION_BASED_UNIT ( 'INCH', #206 ) LENGTH_UNIT ( ) NAMED_UNIT ( #131 ) );
#278 = SURFACE_SIDE_STYLE ('',( #184 ) ) ;
#279 = ORIENTED_EDGE ( 'NONE', *, *, #212, .F. ) ;
#280 = CIRCLE ( 'NONE', #224, 0.2500000000000000000 ) ;
#281 = ORIENTED_EDGE ( 'NONE', *, *, #282, .F. ) ;
#282 = EDGE_CURVE ( 'NONE', #228, #283, #41, .T. ) ;
#283 = VERTEX_POINT ( 'NONE', #161 ) ;
#284 = DIRECTION ( 'NONE',  ( 0.000000000000000000, 0.000000000000000000, -1.000000000000000000 ) ) ;
#285 = UNCERTAINTY_MEASURE_WITH_UNIT (LENGTH_MEASURE( 1.000000000000000082E-05 ), #114, 'distance_accuracy_value', 'NONE');
#286 = APPLICATION_PROTOCOL_DEFINITION ( 'draft international standard', 'automotive_design', 1998, #178 ) ;
#287 = CARTESIAN_POINT ( 'NONE',  ( -0.2500000000000001110, 3.000000000000000444, 0.000000000000000000 ) ) ;
#288 =( NAMED_UNIT ( * ) SI_UNIT ( $, .STERADIAN. ) SOLID_ANGLE_UNIT ( ) );
#289 = FILL_AREA_STYLE_COLOUR ( '', #164 ) ;
#290 = APPLICATION_PROTOCOL_DEFINITION ( 'draft international standard', 'automotive_design', 1998, #121 ) ;
#291 = DIRECTION ( 'NONE',  ( -3.061616997868386099E-17, 1.000000000000000000, -0.000000000000000000 ) ) ;
#292 = MANIFOLD_SOLID_BREP ( 'Revolve - Tool Body (Straight Shanked)', #14 ) ;
#293 = VECTOR ( 'NONE', #307, 39.37007874015748143 ) ;
#294 = ADVANCED_BREP_SHAPE_REPRESENTATION ( '30512W', ( #301, #292, #269 ), #299 ) ;
#295 = DIRECTION ( 'NONE',  ( 0.000000000000000000, 0.000000000000000000, -1.000000000000000000 ) ) ;
#296 = UNCERTAINTY_MEASURE_WITH_UNIT (LENGTH_MEASURE( 1.000000000000000082E-05 ), #74, 'distance_accuracy_value', 'NONE');
#297 = SURFACE_STYLE_USAGE ( .BOTH. , #244 ) ;
#298 = CIRCLE ( 'NONE', #151, 0.2500000000000000000 ) ;
#299 =( GEOMETRIC_REPRESENTATION_CONTEXT ( 3 ) GLOBAL_UNCERTAINTY_ASSIGNED_CONTEXT ( ( #237 ) ) GLOBAL_UNIT_ASSIGNED_CONTEXT ( ( #55, #229, #125 ) ) REPRESENTATION_CONTEXT ( 'NONE', 'WORKASPACE' ) );
#300 = DIRECTION ( 'NONE',  ( 0.000000000000000000, -1.000000000000000000, -0.000000000000000000 ) ) ;
#301 = MANIFOLD_SOLID_BREP ( 'Revolve - Cutting Edge', #31 ) ;
#302 = PRODUCT_DEFINITION ( 'UNKNOWN', '', #118, #84 ) ;
#303 = DIMENSIONAL_EXPONENTS ( 1.000000000000000000, 0.000000000000000000, 0.000000000000000000, 0.000000000000000000, 0.000000000000000000, 0.000000000000000000, 0.000000000000000000 ) ;
#304 = CYLINDRICAL_SURFACE ( 'NONE', #36, 0.2500000000000000000 ) ;
#305 = ORIENTED_EDGE ( 'NONE', *, *, #120, .T. ) ;
#306 =( GEOMETRIC_REPRESENTATION_CONTEXT ( 3 ) GLOBAL_UNCERTAINTY_ASSIGNED_CONTEXT ( ( #266 ) ) GLOBAL_UNIT_ASSIGNED_CONTEXT ( ( #86, #127, #210 ) ) REPRESENTATION_CONTEXT ( 'NONE', 'WORKASPACE' ) );
#307 = DIRECTION ( 'NONE',  ( -0.000000000000000000, -1.000000000000000000, -0.000000000000000000 ) ) ;
#308 = SURFACE_STYLE_FILL_AREA ( #46 ) ;
#309 = FILL_AREA_STYLE_COLOUR ( '', #72 ) ;
ENDSEC;
END-ISO-10303-21;
