ISO-10303-21;
HEADER;
FILE_DESCRIPTION (( 'STEP AP214' ),
    '1' );
FILE_NAME ('59773.STEP',
    '2023-07-24T15:57:18',
    ( '' ),
    ( '' ),
    'SwSTEP 2.0',
    'SolidWorks 2023',
    '' );
FILE_SCHEMA (( 'AUTOMOTIVE_DESIGN' ));
ENDSEC;

DATA;
#1 = CIRCLE ( 'NONE', #281, 6.000000000000000000 ) ;
#2 = PRESENTATION_LAYER_ASSIGNMENT (  '', '', ( #173 ) ) ;
#3 = SURFACE_SIDE_STYLE ('',( #109 ) ) ;
#4 = ORIENTED_EDGE ( 'NONE', *, *, #183, .F. ) ;
#5 = FILL_AREA_STYLE_COLOUR ( '', #194 ) ;
#6 = ORIENTED_EDGE ( 'NONE', *, *, #161, .T. ) ;
#7 = ORIENTED_EDGE ( 'NONE', *, *, #90, .T. ) ;
#8 = CIRCLE ( 'NONE', #158, 6.000000000000000000 ) ;
#9 = MECHANICAL_DESIGN_GEOMETRIC_PRESENTATION_REPRESENTATION (  '', ( #167 ), #234 ) ;
#10 = DIRECTION ( 'NONE',  ( 1.000000000000000000, -1.360718665719280903E-16, 0.000000000000000000 ) ) ;
#11 =( NAMED_UNIT ( * ) SI_UNIT ( $, .STERADIAN. ) SOLID_ANGLE_UNIT ( ) );
#12 = EDGE_LOOP ( 'NONE', ( #182, #106 ) ) ;
#13 = CYLINDRICAL_SURFACE ( 'NONE', #65, 6.000000000000000000 ) ;
#14 = AXIS2_PLACEMENT_3D ( 'NONE', #208, #50, #211 ) ;
#15 = COLOUR_RGB ( '',1.000000000000000000, 0.000000000000000000, 0.000000000000000000 ) ;
#16 =( LENGTH_UNIT ( ) NAMED_UNIT ( * ) SI_UNIT ( .MILLI., .METRE. ) );
#17 = DIRECTION ( 'NONE',  ( 0.000000000000000000, 0.000000000000000000, -1.000000000000000000 ) ) ;
#18 = UNCERTAINTY_MEASURE_WITH_UNIT (LENGTH_MEASURE( 1.000000000000000082E-05 ), #186, 'distance_accuracy_value', 'NONE');
#19 = FILL_AREA_STYLE_COLOUR ( '', #262 ) ;
#20 = FACE_OUTER_BOUND ( 'NONE', #58, .T. ) ;
#21 = MANIFOLD_SOLID_BREP ( 'Revolve - Cutting Edge', #110 ) ;
#22 = PRESENTATION_LAYER_ASSIGNMENT (  '', '', ( #48 ) ) ;
#23 = AXIS2_PLACEMENT_3D ( 'NONE', #103, #101, #36 ) ;
#24 = LINE ( 'NONE', #267, #227 ) ;
#25 = CARTESIAN_POINT ( 'NONE',  ( 6.123233995736762930E-15, 75.00000000000000000, 0.000000000000000000 ) ) ;
#26 = FILL_AREA_STYLE ('',( #114 ) ) ;
#27 = VERTEX_POINT ( 'NONE', #190 ) ;
#28 = AXIS2_PLACEMENT_3D ( 'NONE', #168, #261, #119 ) ;
#29 = DIRECTION ( 'NONE',  ( 0.000000000000000000, -1.000000000000000000, -0.000000000000000000 ) ) ;
#30 = DIRECTION ( 'NONE',  ( -0.000000000000000000, -1.000000000000000000, -0.000000000000000000 ) ) ;
#31 = FILL_AREA_STYLE ('',( #5 ) ) ;
#32 = ORIENTED_EDGE ( 'NONE', *, *, #243, .T. ) ;
#33 = AXIS2_PLACEMENT_3D ( 'NONE', #157, #252, #45 ) ;
#34 = DIRECTION ( 'NONE',  ( 1.360718665719280903E-16, 1.000000000000000000, -0.000000000000000000 ) ) ;
#35 = CIRCLE ( 'NONE', #165, 6.000000000000000000 ) ;
#36 = DIRECTION ( 'NONE',  ( 0.000000000000000000, -0.000000000000000000, 1.000000000000000000 ) ) ;
#37 =( GEOMETRIC_REPRESENTATION_CONTEXT ( 3 ) GLOBAL_UNCERTAINTY_ASSIGNED_CONTEXT ( ( #130 ) ) GLOBAL_UNIT_ASSIGNED_CONTEXT ( ( #92, #164, #116 ) ) REPRESENTATION_CONTEXT ( 'NONE', 'WORKASPACE' ) );
#38 = CARTESIAN_POINT ( 'NONE',  ( 0.000000000000000000, 0.000000000000000000, 0.000000000000000000 ) ) ;
#39 = FILL_AREA_STYLE ('',( #242 ) ) ;
#40 = ORIENTED_EDGE ( 'NONE', *, *, #115, .F. ) ;
#41 = EDGE_CURVE ( 'NONE', #129, #27, #146, .T. ) ;
#42 = CIRCLE ( 'NONE', #171, 5.999999999999993783 ) ;
#43 = CARTESIAN_POINT ( 'NONE',  ( 0.000000000000000000, 0.000000000000000000, 0.000000000000000000 ) ) ;
#44 = PRESENTATION_STYLE_ASSIGNMENT (( #228 ) ) ;
#45 = DIRECTION ( 'NONE',  ( 0.000000000000000000, 0.000000000000000000, -1.000000000000000000 ) ) ;
#46 = ORIENTED_EDGE ( 'NONE', *, *, #161, .F. ) ;
#47 =( NAMED_UNIT ( * ) SI_UNIT ( $, .STERADIAN. ) SOLID_ANGLE_UNIT ( ) );
#48 = STYLED_ITEM ( 'NONE', ( #44 ), #191 ) ;
#49 = CARTESIAN_POINT ( 'NONE',  ( 6.000000000000000000, 30.00000000000000000, 7.347880794884117764E-16 ) ) ;
#50 = DIRECTION ( 'NONE',  ( 1.360718665719280903E-16, 1.000000000000000000, -0.000000000000000000 ) ) ;
#51 = SURFACE_STYLE_FILL_AREA ( #31 ) ;
#52 = EDGE_LOOP ( 'NONE', ( #136, #95 ) ) ;
#53 = AXIS2_PLACEMENT_3D ( 'NONE', #128, #107, #85 ) ;
#54 = CARTESIAN_POINT ( 'NONE',  ( -6.000000000000000000, 30.00000000000000000, 0.000000000000000000 ) ) ;
#55 = SURFACE_STYLE_FILL_AREA ( #26 ) ;
#56 = EDGE_LOOP ( 'NONE', ( #274, #142, #64, #140 ) ) ;
#57 = APPLICATION_CONTEXT ( 'automotive_design' ) ;
#58 = EDGE_LOOP ( 'NONE', ( #209, #40 ) ) ;
#59 = ORIENTED_EDGE ( 'NONE', *, *, #243, .F. ) ;
#60 = EDGE_CURVE ( 'NONE', #239, #93, #174, .T. ) ;
#61 = CARTESIAN_POINT ( 'NONE',  ( -5.999999999999987566, 75.00000000000000000, 0.000000000000000000 ) ) ;
#62 = CIRCLE ( 'NONE', #79, 6.000000000000000000 ) ;
#63 = DIRECTION ( 'NONE',  ( 0.000000000000000000, 0.000000000000000000, -1.000000000000000000 ) ) ;
#64 = ORIENTED_EDGE ( 'NONE', *, *, #124, .F. ) ;
#65 = AXIS2_PLACEMENT_3D ( 'NONE', #43, #156, #17 ) ;
#66 = FILL_AREA_STYLE_COLOUR ( '', #233 ) ;
#67 = UNCERTAINTY_MEASURE_WITH_UNIT (LENGTH_MEASURE( 1.000000000000000082E-05 ), #68, 'distance_accuracy_value', 'NONE');
#68 =( LENGTH_UNIT ( ) NAMED_UNIT ( * ) SI_UNIT ( .MILLI., .METRE. ) );
#69 = STYLED_ITEM ( 'NONE', ( #73 ), #217 ) ;
#70 =( GEOMETRIC_REPRESENTATION_CONTEXT ( 3 ) GLOBAL_UNCERTAINTY_ASSIGNED_CONTEXT ( ( #204 ) ) GLOBAL_UNIT_ASSIGNED_CONTEXT ( ( #188, #218, #11 ) ) REPRESENTATION_CONTEXT ( 'NONE', 'WORKASPACE' ) );
#71 = ADVANCED_FACE ( 'NONE', ( #244 ), #216, .F. ) ;
#72 = ORIENTED_EDGE ( 'NONE', *, *, #124, .T. ) ;
#73 = PRESENTATION_STYLE_ASSIGNMENT (( #76 ) ) ;
#74 = CIRCLE ( 'NONE', #221, 5.999999999999993783 ) ;
#75 =( LENGTH_UNIT ( ) NAMED_UNIT ( * ) SI_UNIT ( .MILLI., .METRE. ) );
#76 = SURFACE_STYLE_USAGE ( .BOTH. , #137 ) ;
#77 = DIRECTION ( 'NONE',  ( -0.000000000000000000, -1.000000000000000000, -0.000000000000000000 ) ) ;
#78 = CARTESIAN_POINT ( 'NONE',  ( 7.347880794884119736E-16, 30.00000000000000000, 6.000000000000000000 ) ) ;
#79 = AXIS2_PLACEMENT_3D ( 'NONE', #88, #159, #160 ) ;
#80 = ADVANCED_FACE ( 'NONE', ( #265 ), #219, .T. ) ;
#81 = CARTESIAN_POINT ( 'NONE',  ( 0.000000000000000000, 30.00000000000000000, -6.000000000000000000 ) ) ;
#82 = LINE ( 'NONE', #180, #117 ) ;
#83 = DIRECTION ( 'NONE',  ( -1.000000000000000000, 0.000000000000000000, 0.000000000000000000 ) ) ;
#84 =( GEOMETRIC_REPRESENTATION_CONTEXT ( 3 ) GLOBAL_UNCERTAINTY_ASSIGNED_CONTEXT ( ( #198 ) ) GLOBAL_UNIT_ASSIGNED_CONTEXT ( ( #16, #153, #148 ) ) REPRESENTATION_CONTEXT ( 'NONE', 'WORKASPACE' ) );
#85 = DIRECTION ( 'NONE',  ( -1.000000000000000000, 0.000000000000000000, 0.000000000000000000 ) ) ;
#86 = DIRECTION ( 'NONE',  ( 0.000000000000000000, 0.000000000000000000, -1.000000000000000000 ) ) ;
#87 = SURFACE_STYLE_USAGE ( .BOTH. , #132 ) ;
#88 = CARTESIAN_POINT ( 'NONE',  ( 0.000000000000000000, 0.000000000000000000, 0.000000000000000000 ) ) ;
#89 = STYLED_ITEM ( 'NONE', ( #220 ), #21 ) ;
#90 = EDGE_CURVE ( 'NONE', #239, #187, #8, .T. ) ;
#91 = PRESENTATION_STYLE_ASSIGNMENT (( #237 ) ) ;
#92 =( LENGTH_UNIT ( ) NAMED_UNIT ( * ) SI_UNIT ( .MILLI., .METRE. ) );
#93 = VERTEX_POINT ( 'NONE', #61 ) ;
#94 = EDGE_LOOP ( 'NONE', ( #7, #6, #96, #260 ) ) ;
#95 = ORIENTED_EDGE ( 'NONE', *, *, #200, .F. ) ;
#96 = ORIENTED_EDGE ( 'NONE', *, *, #179, .F. ) ;
#97 = PRODUCT_DEFINITION_SHAPE ( 'NONE', 'NONE',  #277 ) ;
#98 =( NAMED_UNIT ( * ) SI_UNIT ( $, .STERADIAN. ) SOLID_ANGLE_UNIT ( ) );
#99 = AXIS2_PLACEMENT_3D ( 'NONE', #197, #251, #86 ) ;
#100 = DIRECTION ( 'NONE',  ( -1.000000000000000000, 0.000000000000000000, 0.000000000000000000 ) ) ;
#101 = DIRECTION ( 'NONE',  ( 0.000000000000000000, 1.000000000000000000, 0.000000000000000000 ) ) ;
#102 = SURFACE_SIDE_STYLE ('',( #125 ) ) ;
#103 = CARTESIAN_POINT ( 'NONE',  ( 0.000000000000000000, 30.00000000000000000, 0.000000000000000000 ) ) ;
#104 = CARTESIAN_POINT ( 'NONE',  ( -7.703719777548943412E-31, 30.00000000000000000, 0.000000000000000000 ) ) ;
#105 = VECTOR ( 'NONE', #283, 1000.000000000000000 ) ;
#106 = ORIENTED_EDGE ( 'NONE', *, *, #131, .T. ) ;
#107 = DIRECTION ( 'NONE',  ( 1.360718665719280903E-16, 1.000000000000000000, -0.000000000000000000 ) ) ;
#108 = SURFACE_STYLE_FILL_AREA ( #175 ) ;
#109 = SURFACE_STYLE_FILL_AREA ( #135 ) ;
#110 = CLOSED_SHELL ( 'NONE', ( #145, #248, #191, #224 ) ) ;
#111 = ORIENTED_EDGE ( 'NONE', *, *, #200, .T. ) ;
#112 = PLANE ( 'NONE',  #23 ) ;
#113 = VERTEX_POINT ( 'NONE', #78 ) ;
#114 = FILL_AREA_STYLE_COLOUR ( '', #15 ) ;
#115 = EDGE_CURVE ( 'NONE', #187, #239, #1, .T. ) ;
#116 =( NAMED_UNIT ( * ) SI_UNIT ( $, .STERADIAN. ) SOLID_ANGLE_UNIT ( ) );
#117 = VECTOR ( 'NONE', #266, 1000.000000000000000 ) ;
#118 =( NAMED_UNIT ( * ) SI_UNIT ( $, .STERADIAN. ) SOLID_ANGLE_UNIT ( ) );
#119 = DIRECTION ( 'NONE',  ( -1.000000000000000000, 0.000000000000000000, 0.000000000000000000 ) ) ;
#120 = PRESENTATION_LAYER_ASSIGNMENT (  '', '', ( #89 ) ) ;
#121 = CARTESIAN_POINT ( 'NONE',  ( 7.347880794884119736E-16, 0.000000000000000000, 6.000000000000000000 ) ) ;
#122 = DIRECTION ( 'NONE',  ( -0.000000000000000000, -1.000000000000000000, -0.000000000000000000 ) ) ;
#123 = FACE_OUTER_BOUND ( 'NONE', #56, .T. ) ;
#124 = EDGE_CURVE ( 'NONE', #27, #278, #35, .T. ) ;
#125 = SURFACE_STYLE_FILL_AREA ( #39 ) ;
#126 = VECTOR ( 'NONE', #77, 1000.000000000000000 ) ;
#127 = AXIS2_PLACEMENT_3D ( 'NONE', #288, #29, #141 ) ;
#128 = CARTESIAN_POINT ( 'NONE',  ( 6.123233995736762930E-15, 75.00000000000000000, 0.000000000000000000 ) ) ;
#129 = VERTEX_POINT ( 'NONE', #81 ) ;
#130 = UNCERTAINTY_MEASURE_WITH_UNIT (LENGTH_MEASURE( 1.000000000000000082E-05 ), #92, 'distance_accuracy_value', 'NONE');
#131 = EDGE_CURVE ( 'NONE', #212, #93, #42, .T. ) ;
#132 = SURFACE_SIDE_STYLE ('',( #199 ) ) ;
#133 = DIRECTION ( 'NONE',  ( 1.000000000000000000, 0.000000000000000000, 0.000000000000000000 ) ) ;
#134 = PRODUCT ( '59773', '59773', '', ( #229 ) ) ;
#135 = FILL_AREA_STYLE ('',( #238 ) ) ;
#136 = ORIENTED_EDGE ( 'NONE', *, *, #170, .F. ) ;
#137 = SURFACE_SIDE_STYLE ('',( #51 ) ) ;
#138 = MECHANICAL_DESIGN_GEOMETRIC_PRESENTATION_REPRESENTATION (  '', ( #89 ), #84 ) ;
#139 = PRESENTATION_LAYER_ASSIGNMENT (  '', '', ( #167 ) ) ;
#140 = ORIENTED_EDGE ( 'NONE', *, *, #41, .F. ) ;
#141 = DIRECTION ( 'NONE',  ( 0.000000000000000000, 0.000000000000000000, -1.000000000000000000 ) ) ;
#142 = ORIENTED_EDGE ( 'NONE', *, *, #183, .T. ) ;
#143 = ORIENTED_EDGE ( 'NONE', *, *, #60, .T. ) ;
#144 = PRESENTATION_LAYER_ASSIGNMENT (  '', '', ( #69 ) ) ;
#145 = ADVANCED_FACE ( 'NONE', ( #123 ), #13, .T. ) ;
#146 = LINE ( 'NONE', #196, #126 ) ;
#147 = APPLICATION_PROTOCOL_DEFINITION ( 'draft international standard', 'automotive_design', 1998, #57 ) ;
#148 =( NAMED_UNIT ( * ) SI_UNIT ( $, .STERADIAN. ) SOLID_ANGLE_UNIT ( ) );
#149 = DIRECTION ( 'NONE',  ( 1.360718665719280903E-16, 1.000000000000000000, -0.000000000000000000 ) ) ;
#150 = CIRCLE ( 'NONE', #99, 6.000000000000000000 ) ;
#151 = ADVANCED_FACE ( 'NONE', ( #269 ), #230, .T. ) ;
#152 = CARTESIAN_POINT ( 'NONE',  ( -5.999999999999990230, 75.00000000000000000, 0.000000000000000000 ) ) ;
#153 =( NAMED_UNIT ( * ) PLANE_ANGLE_UNIT ( ) SI_UNIT ( $, .RADIAN. ) );
#154 =( LENGTH_UNIT ( ) NAMED_UNIT ( * ) SI_UNIT ( .MILLI., .METRE. ) );
#155 =( NAMED_UNIT ( * ) PLANE_ANGLE_UNIT ( ) SI_UNIT ( $, .RADIAN. ) );
#156 = DIRECTION ( 'NONE',  ( -0.000000000000000000, -1.000000000000000000, -0.000000000000000000 ) ) ;
#157 = CARTESIAN_POINT ( 'NONE',  ( 0.000000000000000000, 0.000000000000000000, 0.000000000000000000 ) ) ;
#158 = AXIS2_PLACEMENT_3D ( 'NONE', #104, #34, #100 ) ;
#159 = DIRECTION ( 'NONE',  ( -0.000000000000000000, -1.000000000000000000, -0.000000000000000000 ) ) ;
#160 = DIRECTION ( 'NONE',  ( 0.000000000000000000, 0.000000000000000000, -1.000000000000000000 ) ) ;
#161 = EDGE_CURVE ( 'NONE', #187, #212, #24, .T. ) ;
#162 =( GEOMETRIC_REPRESENTATION_CONTEXT ( 3 ) GLOBAL_UNCERTAINTY_ASSIGNED_CONTEXT ( ( #67 ) ) GLOBAL_UNIT_ASSIGNED_CONTEXT ( ( #68, #155, #178 ) ) REPRESENTATION_CONTEXT ( 'NONE', 'WORKASPACE' ) );
#163 = MECHANICAL_DESIGN_GEOMETRIC_PRESENTATION_REPRESENTATION (  '', ( #69 ), #37 ) ;
#164 =( NAMED_UNIT ( * ) PLANE_ANGLE_UNIT ( ) SI_UNIT ( $, .RADIAN. ) );
#165 = AXIS2_PLACEMENT_3D ( 'NONE', #38, #122, #63 ) ;
#166 = ORIENTED_EDGE ( 'NONE', *, *, #41, .T. ) ;
#167 = STYLED_ITEM ( 'NONE', ( #232 ), #224 ) ;
#168 = CARTESIAN_POINT ( 'NONE',  ( 6.123233995736762930E-15, 75.00000000000000000, 0.000000000000000000 ) ) ;
#169 = CARTESIAN_POINT ( 'NONE',  ( -7.703719777548943412E-31, 30.00000000000000000, 0.000000000000000000 ) ) ;
#170 = EDGE_CURVE ( 'NONE', #129, #113, #150, .T. ) ;
#171 = AXIS2_PLACEMENT_3D ( 'NONE', #280, #263, #247 ) ;
#172 = AXIS2_PLACEMENT_3D ( 'NONE', #279, #282, #10 ) ;
#173 = STYLED_ITEM ( 'NONE', ( #91 ), #248 ) ;
#174 = LINE ( 'NONE', #152, #105 ) ;
#175 = FILL_AREA_STYLE ('',( #66 ) ) ;
#176 = CYLINDRICAL_SURFACE ( 'NONE', #33, 6.000000000000000000 ) ;
#177 = PRODUCT_DEFINITION_FORMATION_WITH_SPECIFIED_SOURCE ( 'ANY', '', #134, .NOT_KNOWN. ) ;
#178 =( NAMED_UNIT ( * ) SI_UNIT ( $, .STERADIAN. ) SOLID_ANGLE_UNIT ( ) );
#179 = EDGE_CURVE ( 'NONE', #93, #212, #74, .T. ) ;
#180 = CARTESIAN_POINT ( 'NONE',  ( 7.347880794884119736E-16, 0.000000000000000000, 6.000000000000000000 ) ) ;
#181 = DIRECTION ( 'NONE',  ( 0.000000000000000000, 0.000000000000000000, -1.000000000000000000 ) ) ;
#182 = ORIENTED_EDGE ( 'NONE', *, *, #179, .T. ) ;
#183 = EDGE_CURVE ( 'NONE', #113, #278, #82, .T. ) ;
#184 = CARTESIAN_POINT ( 'NONE',  ( 6.000000000000000000, 75.00000000000000000, 7.347880794884117764E-16 ) ) ;
#185 = MECHANICAL_DESIGN_GEOMETRIC_PRESENTATION_REPRESENTATION (  '', ( #253 ), #189 ) ;
#186 =( LENGTH_UNIT ( ) NAMED_UNIT ( * ) SI_UNIT ( .MILLI., .METRE. ) );
#187 = VERTEX_POINT ( 'NONE', #49 ) ;
#188 =( LENGTH_UNIT ( ) NAMED_UNIT ( * ) SI_UNIT ( .MILLI., .METRE. ) );
#189 =( GEOMETRIC_REPRESENTATION_CONTEXT ( 3 ) GLOBAL_UNCERTAINTY_ASSIGNED_CONTEXT ( ( #222 ) ) GLOBAL_UNIT_ASSIGNED_CONTEXT ( ( #154, #206, #47 ) ) REPRESENTATION_CONTEXT ( 'NONE', 'WORKASPACE' ) );
#190 = CARTESIAN_POINT ( 'NONE',  ( 0.000000000000000000, 0.000000000000000000, -6.000000000000000000 ) ) ;
#191 = ADVANCED_FACE ( 'NONE', ( #205 ), #176, .T. ) ;
#192 = ORIENTED_EDGE ( 'NONE', *, *, #115, .T. ) ;
#193 = SURFACE_STYLE_USAGE ( .BOTH. , #102 ) ;
#194 = COLOUR_RGB ( '',0.7921568627450980005, 0.8196078431372548767, 0.9333333333333333481 ) ;
#195 = ADVANCED_FACE ( 'NONE', ( #20 ), #210, .F. ) ;
#196 = CARTESIAN_POINT ( 'NONE',  ( 0.000000000000000000, 0.000000000000000000, -6.000000000000000000 ) ) ;
#197 = CARTESIAN_POINT ( 'NONE',  ( 0.000000000000000000, 30.00000000000000000, 0.000000000000000000 ) ) ;
#198 = UNCERTAINTY_MEASURE_WITH_UNIT (LENGTH_MEASURE( 1.000000000000000082E-05 ), #16, 'distance_accuracy_value', 'NONE');
#199 = SURFACE_STYLE_FILL_AREA ( #250 ) ;
#200 = EDGE_CURVE ( 'NONE', #113, #129, #201, .T. ) ;
#201 = CIRCLE ( 'NONE', #245, 6.000000000000000000 ) ;
#202 = DIRECTION ( 'NONE',  ( 0.000000000000000000, 0.000000000000000000, 1.000000000000000000 ) ) ;
#203 = ORIENTED_EDGE ( 'NONE', *, *, #131, .F. ) ;
#204 = UNCERTAINTY_MEASURE_WITH_UNIT (LENGTH_MEASURE( 1.000000000000000082E-05 ), #188, 'distance_accuracy_value', 'NONE');
#205 = FACE_OUTER_BOUND ( 'NONE', #256, .T. ) ;
#206 =( NAMED_UNIT ( * ) PLANE_ANGLE_UNIT ( ) SI_UNIT ( $, .RADIAN. ) );
#207 = AXIS2_PLACEMENT_3D ( 'NONE', #223, #202, #133 ) ;
#208 = CARTESIAN_POINT ( 'NONE',  ( 5.554665861710580935E-32, 30.00000000000000000, 0.000000000000000000 ) ) ;
#209 = ORIENTED_EDGE ( 'NONE', *, *, #90, .F. ) ;
#210 = PLANE ( 'NONE',  #14 ) ;
#211 = DIRECTION ( 'NONE',  ( -1.000000000000000000, 1.360718665719280903E-16, 0.000000000000000000 ) ) ;
#212 = VERTEX_POINT ( 'NONE', #184 ) ;
#213 = PRESENTATION_LAYER_ASSIGNMENT (  '', '', ( #253 ) ) ;
#214 =( NAMED_UNIT ( * ) PLANE_ANGLE_UNIT ( ) SI_UNIT ( $, .RADIAN. ) );
#215 = SHAPE_DEFINITION_REPRESENTATION ( #97, #286 ) ;
#216 = PLANE ( 'NONE',  #172 ) ;
#217 = MANIFOLD_SOLID_BREP ( 'Revolve - Tool Body (Straight Shanked)', #240 ) ;
#218 =( NAMED_UNIT ( * ) PLANE_ANGLE_UNIT ( ) SI_UNIT ( $, .RADIAN. ) );
#219 = CYLINDRICAL_SURFACE ( 'NONE', #28, 5.999999999999996447 ) ;
#220 = PRESENTATION_STYLE_ASSIGNMENT (( #193 ) ) ;
#221 = AXIS2_PLACEMENT_3D ( 'NONE', #25, #285, #83 ) ;
#222 = UNCERTAINTY_MEASURE_WITH_UNIT (LENGTH_MEASURE( 1.000000000000000082E-05 ), #154, 'distance_accuracy_value', 'NONE');
#223 = CARTESIAN_POINT ( 'NONE',  ( 0.000000000000000000, 0.000000000000000000, 0.000000000000000000 ) ) ;
#224 = ADVANCED_FACE ( 'NONE', ( #255 ), #276, .T. ) ;
#225 = DIRECTION ( 'NONE',  ( 1.360718665719280903E-16, 1.000000000000000000, -0.000000000000000000 ) ) ;
#226 = EDGE_LOOP ( 'NONE', ( #46, #192, #143, #203 ) ) ;
#227 = VECTOR ( 'NONE', #225, 1000.000000000000000 ) ;
#228 = SURFACE_STYLE_USAGE ( .BOTH. , #270 ) ;
#229 = PRODUCT_CONTEXT ( 'NONE', #249, 'mechanical' ) ;
#230 = CYLINDRICAL_SURFACE ( 'NONE', #53, 5.999999999999996447 ) ;
#231 = PRODUCT_RELATED_PRODUCT_CATEGORY ( 'part', '', ( #134 ) ) ;
#232 = PRESENTATION_STYLE_ASSIGNMENT (( #235 ) ) ;
#233 = COLOUR_RGB ( '',1.000000000000000000, 0.000000000000000000, 0.000000000000000000 ) ;
#234 =( GEOMETRIC_REPRESENTATION_CONTEXT ( 3 ) GLOBAL_UNCERTAINTY_ASSIGNED_CONTEXT ( ( #18 ) ) GLOBAL_UNIT_ASSIGNED_CONTEXT ( ( #186, #257, #118 ) ) REPRESENTATION_CONTEXT ( 'NONE', 'WORKASPACE' ) );
#235 = SURFACE_STYLE_USAGE ( .BOTH. , #273 ) ;
#236 = EDGE_LOOP ( 'NONE', ( #72, #32 ) ) ;
#237 = SURFACE_STYLE_USAGE ( .BOTH. , #3 ) ;
#238 = FILL_AREA_STYLE_COLOUR ( '', #275 ) ;
#239 = VERTEX_POINT ( 'NONE', #54 ) ;
#240 = CLOSED_SHELL ( 'NONE', ( #80, #195, #151, #71 ) ) ;
#241 = CARTESIAN_POINT ( 'NONE',  ( 0.000000000000000000, 30.00000000000000000, 0.000000000000000000 ) ) ;
#242 = FILL_AREA_STYLE_COLOUR ( '', #258 ) ;
#243 = EDGE_CURVE ( 'NONE', #278, #27, #62, .T. ) ;
#244 = FACE_OUTER_BOUND ( 'NONE', #12, .T. ) ;
#245 = AXIS2_PLACEMENT_3D ( 'NONE', #241, #30, #181 ) ;
#246 = DIRECTION ( 'NONE',  ( -1.000000000000000000, 0.000000000000000000, 0.000000000000000000 ) ) ;
#247 = DIRECTION ( 'NONE',  ( -1.000000000000000000, 0.000000000000000000, 0.000000000000000000 ) ) ;
#248 = ADVANCED_FACE ( 'NONE', ( #272 ), #112, .T. ) ;
#249 = APPLICATION_CONTEXT ( 'automotive_design' ) ;
#250 = FILL_AREA_STYLE ('',( #19 ) ) ;
#251 = DIRECTION ( 'NONE',  ( -0.000000000000000000, -1.000000000000000000, -0.000000000000000000 ) ) ;
#252 = DIRECTION ( 'NONE',  ( -0.000000000000000000, -1.000000000000000000, -0.000000000000000000 ) ) ;
#253 = STYLED_ITEM ( 'NONE', ( #287 ), #145 ) ;
#254 =( GEOMETRIC_REPRESENTATION_CONTEXT ( 3 ) GLOBAL_UNCERTAINTY_ASSIGNED_CONTEXT ( ( #284 ) ) GLOBAL_UNIT_ASSIGNED_CONTEXT ( ( #75, #214, #98 ) ) REPRESENTATION_CONTEXT ( 'NONE', 'WORKASPACE' ) );
#255 = FACE_OUTER_BOUND ( 'NONE', #236, .T. ) ;
#256 = EDGE_LOOP ( 'NONE', ( #4, #111, #166, #59 ) ) ;
#257 =( NAMED_UNIT ( * ) PLANE_ANGLE_UNIT ( ) SI_UNIT ( $, .RADIAN. ) );
#258 = COLOUR_RGB ( '',0.7921568627450980005, 0.8196078431372548767, 0.9333333333333333481 ) ;
#259 = MECHANICAL_DESIGN_GEOMETRIC_PRESENTATION_REPRESENTATION (  '', ( #173 ), #254 ) ;
#260 = ORIENTED_EDGE ( 'NONE', *, *, #60, .F. ) ;
#261 = DIRECTION ( 'NONE',  ( 1.360718665719280903E-16, 1.000000000000000000, -0.000000000000000000 ) ) ;
#262 = COLOUR_RGB ( '',1.000000000000000000, 0.000000000000000000, 0.000000000000000000 ) ;
#263 = DIRECTION ( 'NONE',  ( 1.360718665719280903E-16, 1.000000000000000000, -0.000000000000000000 ) ) ;
#264 = APPLICATION_PROTOCOL_DEFINITION ( 'draft international standard', 'automotive_design', 1998, #249 ) ;
#265 = FACE_OUTER_BOUND ( 'NONE', #94, .T. ) ;
#266 = DIRECTION ( 'NONE',  ( -0.000000000000000000, -1.000000000000000000, -0.000000000000000000 ) ) ;
#267 = CARTESIAN_POINT ( 'NONE',  ( 6.000000000000002665, 75.00000000000000000, 7.347880794884115792E-16 ) ) ;
#268 = PRODUCT_DEFINITION_CONTEXT ( 'detailed design', #57, 'design' ) ;
#269 = FACE_OUTER_BOUND ( 'NONE', #226, .T. ) ;
#270 = SURFACE_SIDE_STYLE ('',( #108 ) ) ;
#271 = MECHANICAL_DESIGN_GEOMETRIC_PRESENTATION_REPRESENTATION (  '', ( #48 ), #162 ) ;
#272 = FACE_OUTER_BOUND ( 'NONE', #52, .T. ) ;
#273 = SURFACE_SIDE_STYLE ('',( #55 ) ) ;
#274 = ORIENTED_EDGE ( 'NONE', *, *, #170, .T. ) ;
#275 = COLOUR_RGB ( '',1.000000000000000000, 0.000000000000000000, 0.000000000000000000 ) ;
#276 = PLANE ( 'NONE',  #127 ) ;
#277 = PRODUCT_DEFINITION ( 'UNKNOWN', '', #177, #268 ) ;
#278 = VERTEX_POINT ( 'NONE', #121 ) ;
#279 = CARTESIAN_POINT ( 'NONE',  ( 6.000000000000000000, 75.00000000000000000, 0.000000000000000000 ) ) ;
#280 = CARTESIAN_POINT ( 'NONE',  ( 6.123233995736762930E-15, 75.00000000000000000, 0.000000000000000000 ) ) ;
#281 = AXIS2_PLACEMENT_3D ( 'NONE', #169, #149, #246 ) ;
#282 = DIRECTION ( 'NONE',  ( -1.360718665719280903E-16, -1.000000000000000000, 0.000000000000000000 ) ) ;
#283 = DIRECTION ( 'NONE',  ( 1.360718665719280903E-16, 1.000000000000000000, -0.000000000000000000 ) ) ;
#284 = UNCERTAINTY_MEASURE_WITH_UNIT (LENGTH_MEASURE( 1.000000000000000082E-05 ), #75, 'distance_accuracy_value', 'NONE');
#285 = DIRECTION ( 'NONE',  ( 1.360718665719280903E-16, 1.000000000000000000, -0.000000000000000000 ) ) ;
#286 = ADVANCED_BREP_SHAPE_REPRESENTATION ( '59773', ( #21, #217, #207 ), #70 ) ;
#287 = PRESENTATION_STYLE_ASSIGNMENT (( #87 ) ) ;
#288 = CARTESIAN_POINT ( 'NONE',  ( 0.000000000000000000, 0.000000000000000000, 0.000000000000000000 ) ) ;
ENDSEC;
END-ISO-10303-21;
