ISO-10303-21;
HEADER;
FILE_DESCRIPTION (( 'STEP AP214' ),
    '1' );
FILE_NAME ('Micro_BEM-046-03X.STEP',
    '2021-09-03T12:57:52',
    ( '' ),
    ( '' ),
    'SwSTEP 2.0',
    'SolidWorks 2020',
    '' );
FILE_SCHEMA (( 'AUTOMOTIVE_DESIGN' ));
ENDSEC;

DATA;
#1 = UNCERTAINTY_MEASURE_WITH_UNIT (LENGTH_MEASURE( 1.000000000000000082E-05 ), #118, 'distance_accuracy_value', 'NONE');
#2 = EDGE_CURVE ( 'NONE', #231, #53, #196, .T. ) ;
#3 = CARTESIAN_POINT ( 'NONE',  ( 0.02337660000000001126, 0.0000000000000000000, 0.1089999999999999997 ) ) ;
#4 = FACE_OUTER_BOUND ( 'NONE', #265, .T. ) ;
#5 = AXIS2_PLACEMENT_3D ( 'NONE', #78, #81, #180 ) ;
#6 =( GEOMETRIC_REPRESENTATION_CONTEXT ( 3 ) GLOBAL_UNCERTAINTY_ASSIGNED_CONTEXT ( ( #288 ) ) GLOBAL_UNIT_ASSIGNED_CONTEXT ( ( #137, #134, #9 ) ) REPRESENTATION_CONTEXT ( 'NONE', 'WORKASPACE' ) );
#7 = COLOUR_RGB ( '',0.7921568627450980005, 0.8196078431372548767, 0.9333333333333333481 ) ;
#8 = DIRECTION ( 'NONE',  ( -1.224646799147353700E-16, -0.0000000000000000000, -1.000000000000000000 ) ) ;
#9 =( NAMED_UNIT ( * ) SI_UNIT ( $, .STERADIAN. ) SOLID_ANGLE_UNIT ( ) );
#10 = DIRECTION ( 'NONE',  ( -1.000000000000000000, 0.0000000000000000000, 1.825976613408455680E-16 ) ) ;
#11 = ORIENTED_EDGE ( 'NONE', *, *, #215, .F. ) ;
#12 = EDGE_CURVE ( 'NONE', #239, #231, #269, .T. ) ;
#13 = DIRECTION ( 'NONE',  ( -1.000000000000000000, 0.0000000000000000000, 1.825976613408455680E-16 ) ) ;
#14 = DIRECTION ( 'NONE',  ( 0.0000000000000000000, 0.0000000000000000000, 1.000000000000000000 ) ) ;
#15 = AXIS2_PLACEMENT_3D ( 'NONE', #193, #155, #10 ) ;
#16 = ORIENTED_EDGE ( 'NONE', *, *, #316, .F. ) ;
#17 =( NAMED_UNIT ( * ) PLANE_ANGLE_UNIT ( ) SI_UNIT ( $, .RADIAN. ) );
#18 = EDGE_LOOP ( 'NONE', ( #266, #248, #218, #277 ) ) ;
#19 = ADVANCED_FACE ( 'NONE', ( #4 ), #60, .T. ) ;
#20 = FILL_AREA_STYLE_COLOUR ( '', #7 ) ;
#21 = SPHERICAL_SURFACE ( 'NONE', #73, 0.02337660000000000432 ) ;
#22 = EDGE_CURVE ( 'NONE', #111, #102, #154, .T. ) ;
#23 = PRODUCT_DEFINITION_CONTEXT ( 'detailed design', #59, 'design' ) ;
#24 = CARTESIAN_POINT ( 'NONE',  ( 0.0000000000000000000, 0.0000000000000000000, 1.500000000000000222 ) ) ;
#25 = VECTOR ( 'NONE', #257, 39.37007874015747433 ) ;
#26 = CARTESIAN_POINT ( 'NONE',  ( 0.06250000000000002776, 7.654042494670959086E-18, 1.500000000000000222 ) ) ;
#27 = ADVANCED_FACE ( 'NONE', ( #31 ), #89, .T. ) ;
#28 = EDGE_LOOP ( 'NONE', ( #253, #275 ) ) ;
#29 = ADVANCED_BREP_SHAPE_REPRESENTATION ( 'Micro_BEM-046-03X', ( #140, #43 ), #246 ) ;
#30 = FACE_OUTER_BOUND ( 'NONE', #254, .T. ) ;
#31 = FACE_OUTER_BOUND ( 'NONE', #229, .T. ) ;
#32 =( LENGTH_UNIT ( ) NAMED_UNIT ( * ) SI_UNIT ( $, .METRE. ) );
#33 = ORIENTED_EDGE ( 'NONE', *, *, #129, .F. ) ;
#34 = DIRECTION ( 'NONE',  ( 1.000000000000000000, 0.0000000000000000000, 0.0000000000000000000 ) ) ;
#35 = CLOSED_SHELL ( 'NONE', ( #300, #19, #64, #107, #130, #267, #165, #170, #27, #307, #139 ) ) ;
#36 = AXIS2_PLACEMENT_3D ( 'NONE', #276, #206, #305 ) ;
#37 = PRESENTATION_STYLE_ASSIGNMENT (( #164 ) ) ;
#38 = LINE ( 'NONE', #220, #270 ) ;
#39 = ORIENTED_EDGE ( 'NONE', *, *, #22, .F. ) ;
#40 = DIRECTION ( 'NONE',  ( 0.0000000000000000000, 0.0000000000000000000, -1.000000000000000000 ) ) ;
#41 = CARTESIAN_POINT ( 'NONE',  ( 0.0000000000000000000, 0.0000000000000000000, 0.0000000000000000000 ) ) ;
#42 = CIRCLE ( 'NONE', #314, 0.02337659999999999738 ) ;
#43 = AXIS2_PLACEMENT_3D ( 'NONE', #41, #14, #115 ) ;
#44 = ORIENTED_EDGE ( 'NONE', *, *, #100, .T. ) ;
#45 = DIRECTION ( 'NONE',  ( 0.0000000000000000000, 0.0000000000000000000, -1.000000000000000000 ) ) ;
#46 = CARTESIAN_POINT ( 'NONE',  ( 4.294211754742204093E-18, 0.0000000000000000000, 0.0000000000000000000 ) ) ;
#47 = ORIENTED_EDGE ( 'NONE', *, *, #194, .F. ) ;
#48 = AXIS2_PLACEMENT_3D ( 'NONE', #278, #125, #34 ) ;
#49 = CARTESIAN_POINT ( 'NONE',  ( 0.0000000000000000000, 0.0000000000000000000, 1.500000000000000222 ) ) ;
#50 = AXIS2_PLACEMENT_3D ( 'NONE', #57, #160, #40 ) ;
#51 = EDGE_CURVE ( 'NONE', #111, #167, #42, .T. ) ;
#52 = LINE ( 'NONE', #150, #68 ) ;
#53 = VERTEX_POINT ( 'NONE', #322 ) ;
#54 = VERTEX_POINT ( 'NONE', #301 ) ;
#55 = AXIS2_PLACEMENT_3D ( 'NONE', #83, #74, #271 ) ;
#56 = CARTESIAN_POINT ( 'NONE',  ( 0.02337660000000000432, 2.862807836494801830E-18, -2.862807836494802985E-18 ) ) ;
#57 = CARTESIAN_POINT ( 'NONE',  ( 2.862807836494802985E-18, 0.0000000000000000000, 0.02337660000000000432 ) ) ;
#58 = ORIENTED_EDGE ( 'NONE', *, *, #244, .T. ) ;
#59 = APPLICATION_CONTEXT ( 'automotive_design' ) ;
#60 = CYLINDRICAL_SURFACE ( 'NONE', #62, 0.02337660000000000432 ) ;
#61 = LINE ( 'NONE', #131, #79 ) ;
#62 = AXIS2_PLACEMENT_3D ( 'NONE', #198, #296, #324 ) ;
#63 = DIMENSIONAL_EXPONENTS ( 1.000000000000000000, 0.0000000000000000000, 0.0000000000000000000, 0.0000000000000000000, 0.0000000000000000000, 0.0000000000000000000, 0.0000000000000000000 ) ;
#64 = ADVANCED_FACE ( 'NONE', ( #30 ), #70, .T. ) ;
#65 = DIRECTION ( 'NONE',  ( -1.224646799147353700E-16, -0.0000000000000000000, -1.000000000000000000 ) ) ;
#66 = CARTESIAN_POINT ( 'NONE',  ( 0.0000000000000000000, 0.0000000000000000000, 1.485000000000000764 ) ) ;
#67 = SURFACE_SIDE_STYLE ('',( #313 ) ) ;
#68 = VECTOR ( 'NONE', #247, 39.37007874015748854 ) ;
#69 =( CONVERSION_BASED_UNIT ( 'INCH', #311 ) LENGTH_UNIT ( ) NAMED_UNIT ( #63 ) );
#70 = CONICAL_SURFACE ( 'NONE', #168, 0.02337659999999999738, 0.1745329251994338082 ) ;
#71 = FILL_AREA_STYLE ('',( #289 ) ) ;
#72 = EDGE_CURVE ( 'NONE', #183, #173, #249, .T. ) ;
#73 = AXIS2_PLACEMENT_3D ( 'NONE', #264, #317, #191 ) ;
#74 = DIRECTION ( 'NONE',  ( -1.224646799147353700E-16, -0.0000000000000000000, -1.000000000000000000 ) ) ;
#75 = VECTOR ( 'NONE', #309, 39.37007874015748143 ) ;
#76 = ORIENTED_EDGE ( 'NONE', *, *, #215, .T. ) ;
#77 = CARTESIAN_POINT ( 'NONE',  ( 1.334865011070615584E-17, 0.0000000000000000000, 0.1089999999999999997 ) ) ;
#78 = CARTESIAN_POINT ( 'NONE',  ( 4.052109212114275620E-17, 0.0000000000000000000, 0.3308798271416305559 ) ) ;
#79 = VECTOR ( 'NONE', #259, 39.37007874015748143 ) ;
#80 = CARTESIAN_POINT ( 'NONE',  ( -0.06249999999999997918, 0.0000000000000000000, 0.3308798271416305559 ) ) ;
#81 = DIRECTION ( 'NONE',  ( -1.224646799147353700E-16, -0.0000000000000000000, -1.000000000000000000 ) ) ;
#82 = DIRECTION ( 'NONE',  ( 1.000000000000000000, 0.0000000000000000000, -0.0000000000000000000 ) ) ;
#83 = CARTESIAN_POINT ( 'NONE',  ( 1.334865011070615584E-17, 0.0000000000000000000, 0.1089999999999999997 ) ) ;
#84 = ORIENTED_EDGE ( 'NONE', *, *, #187, .T. ) ;
#85 = PLANE ( 'NONE',  #234 ) ;
#86 = FACE_OUTER_BOUND ( 'NONE', #258, .T. ) ;
#87 = ORIENTED_EDGE ( 'NONE', *, *, #2, .T. ) ;
#88 =( NAMED_UNIT ( * ) SI_UNIT ( $, .STERADIAN. ) SOLID_ANGLE_UNIT ( ) );
#89 = CONICAL_SURFACE ( 'NONE', #98, 0.02337659999999999738, 0.1745329251994338082 ) ;
#90 =( NAMED_UNIT ( * ) PLANE_ANGLE_UNIT ( ) SI_UNIT ( $, .RADIAN. ) );
#91 = CIRCLE ( 'NONE', #213, 0.06250000000000002776 ) ;
#92 = DIRECTION ( 'NONE',  ( 0.0000000000000000000, 0.0000000000000000000, -1.000000000000000000 ) ) ;
#93 = FACE_OUTER_BOUND ( 'NONE', #312, .T. ) ;
#94 = VECTOR ( 'NONE', #281, 39.37007874015748143 ) ;
#95 = DIRECTION ( 'NONE',  ( -1.000000000000000000, 0.0000000000000000000, 0.0000000000000000000 ) ) ;
#96 = ORIENTED_EDGE ( 'NONE', *, *, #318, .T. ) ;
#97 = DIRECTION ( 'NONE',  ( -1.000000000000000000, 0.0000000000000000000, 1.224646799147353454E-16 ) ) ;
#98 = AXIS2_PLACEMENT_3D ( 'NONE', #77, #202, #295 ) ;
#99 = EDGE_LOOP ( 'NONE', ( #39, #136, #58, #325 ) ) ;
#100 = EDGE_CURVE ( 'NONE', #117, #284, #212, .T. ) ;
#101 = DIRECTION ( 'NONE',  ( 0.7071067811865462405, 8.659560562354916834E-17, -0.7071067811865486830 ) ) ;
#102 = VERTEX_POINT ( 'NONE', #290 ) ;
#103 = DIRECTION ( 'NONE',  ( -1.224646799147353700E-16, -0.0000000000000000000, -1.000000000000000000 ) ) ;
#104 = AXIS2_PLACEMENT_3D ( 'NONE', #126, #224, #177 ) ;
#105 = ORIENTED_EDGE ( 'NONE', *, *, #279, .T. ) ;
#106 = AXIS2_PLACEMENT_3D ( 'NONE', #217, #178, #233 ) ;
#107 = ADVANCED_FACE ( 'NONE', ( #93 ), #283, .T. ) ;
#108 = ORIENTED_EDGE ( 'NONE', *, *, #72, .T. ) ;
#109 = CARTESIAN_POINT ( 'NONE',  ( 1.334865011070615584E-17, 0.0000000000000000000, 0.1089999999999999997 ) ) ;
#110 = DIRECTION ( 'NONE',  ( 1.000000000000000000, 0.0000000000000000000, 0.0000000000000000000 ) ) ;
#111 = VERTEX_POINT ( 'NONE', #120 ) ;
#112 = LENGTH_MEASURE_WITH_UNIT ( LENGTH_MEASURE( 0.02539999999999999897 ), #232 );
#113 = FACE_OUTER_BOUND ( 'NONE', #18, .T. ) ;
#114 = AXIS2_PLACEMENT_3D ( 'NONE', #24, #92, #119 ) ;
#115 = DIRECTION ( 'NONE',  ( 1.000000000000000000, 0.0000000000000000000, 0.0000000000000000000 ) ) ;
#116 = PRODUCT_CONTEXT ( 'NONE', #145, 'mechanical' ) ;
#117 = VERTEX_POINT ( 'NONE', #46 ) ;
#118 =( CONVERSION_BASED_UNIT ( 'INCH', #238 ) LENGTH_UNIT ( ) NAMED_UNIT ( #273 ) );
#119 = DIRECTION ( 'NONE',  ( -1.000000000000000000, 0.0000000000000000000, 0.0000000000000000000 ) ) ;
#120 = CARTESIAN_POINT ( 'NONE',  ( 0.02337660000000001126, 0.0000000000000000000, 0.1089999999999999997 ) ) ;
#121 = ORIENTED_EDGE ( 'NONE', *, *, #100, .F. ) ;
#122 = CIRCLE ( 'NONE', #50, 0.02337660000000000432 ) ;
#123 = LINE ( 'NONE', #3, #75 ) ;
#124 = DIRECTION ( 'NONE',  ( -1.224646799147353700E-16, -0.0000000000000000000, -1.000000000000000000 ) ) ;
#125 = DIRECTION ( 'NONE',  ( 0.0000000000000000000, 0.0000000000000000000, 1.000000000000000000 ) ) ;
#126 = CARTESIAN_POINT ( 'NONE',  ( 2.862807836494802985E-18, 0.0000000000000000000, 0.02337660000000000432 ) ) ;
#127 = UNCERTAINTY_MEASURE_WITH_UNIT (LENGTH_MEASURE( 1.000000000000000082E-05 ), #69, 'distance_accuracy_value', 'NONE');
#128 = ORIENTED_EDGE ( 'NONE', *, *, #22, .T. ) ;
#129 = EDGE_CURVE ( 'NONE', #54, #53, #152, .T. ) ;
#130 = ADVANCED_FACE ( 'NONE', ( #146 ), #242, .T. ) ;
#131 = CARTESIAN_POINT ( 'NONE',  ( -0.06250000000000002776, 0.0000000000000000000, 1.500000000000000222 ) ) ;
#132 = ORIENTED_EDGE ( 'NONE', *, *, #163, .T. ) ;
#133 = CIRCLE ( 'NONE', #315, 0.04750000000000064587 ) ;
#134 =( NAMED_UNIT ( * ) PLANE_ANGLE_UNIT ( ) SI_UNIT ( $, .RADIAN. ) );
#135 = CARTESIAN_POINT ( 'NONE',  ( -0.02337659999999998697, 2.862807836494801445E-18, 0.1089999999999999997 ) ) ;
#136 = ORIENTED_EDGE ( 'NONE', *, *, #51, .T. ) ;
#137 =( CONVERSION_BASED_UNIT ( 'INCH', #112 ) LENGTH_UNIT ( ) NAMED_UNIT ( #161 ) );
#138 = CARTESIAN_POINT ( 'NONE',  ( 0.04750000000000064587, 6.735557395310483192E-18, 1.500000000000000222 ) ) ;
#139 = ADVANCED_FACE ( 'NONE', ( #216 ), #21, .T. ) ;
#140 = MANIFOLD_SOLID_BREP ( 'Fillet1', #35 ) ;
#141 = AXIS2_PLACEMENT_3D ( 'NONE', #147, #45, #263 ) ;
#142 = CIRCLE ( 'NONE', #227, 0.06250000000000002776 ) ;
#143 = ORIENTED_EDGE ( 'NONE', *, *, #129, .T. ) ;
#144 =( LENGTH_UNIT ( ) NAMED_UNIT ( * ) SI_UNIT ( $, .METRE. ) );
#145 = APPLICATION_CONTEXT ( 'automotive_design' ) ;
#146 = FACE_OUTER_BOUND ( 'NONE', #156, .T. ) ;
#147 = CARTESIAN_POINT ( 'NONE',  ( 0.0000000000000000000, 0.0000000000000000000, 1.485000000000000764 ) ) ;
#148 = PRESENTATION_LAYER_ASSIGNMENT (  '', '', ( #291 ) ) ;
#149 = FACE_OUTER_BOUND ( 'NONE', #99, .T. ) ;
#150 = CARTESIAN_POINT ( 'NONE',  ( -0.04750000000000064587, 0.0000000000000000000, 1.500000000000000222 ) ) ;
#151 = ORIENTED_EDGE ( 'NONE', *, *, #244, .F. ) ;
#152 = CIRCLE ( 'NONE', #141, 0.06250000000000002776 ) ;
#153 = ORIENTED_EDGE ( 'NONE', *, *, #51, .F. ) ;
#154 = LINE ( 'NONE', #56, #209 ) ;
#155 = DIRECTION ( 'NONE',  ( 1.224646799147353700E-16, 0.0000000000000000000, 1.000000000000000000 ) ) ;
#156 = EDGE_LOOP ( 'NONE', ( #143, #84, #285, #207 ) ) ;
#157 = ORIENTED_EDGE ( 'NONE', *, *, #223, .F. ) ;
#158 = CARTESIAN_POINT ( 'NONE',  ( 0.06250000000000006939, 7.654042494670963708E-18, 0.3308798271416305559 ) ) ;
#159 = ORIENTED_EDGE ( 'NONE', *, *, #235, .F. ) ;
#160 = DIRECTION ( 'NONE',  ( 0.0000000000000000000, -1.000000000000000000, 0.0000000000000000000 ) ) ;
#161 = DIMENSIONAL_EXPONENTS ( 1.000000000000000000, 0.0000000000000000000, 0.0000000000000000000, 0.0000000000000000000, 0.0000000000000000000, 0.0000000000000000000, 0.0000000000000000000 ) ;
#162 = CIRCLE ( 'NONE', #55, 0.02337659999999999738 ) ;
#163 = EDGE_CURVE ( 'NONE', #173, #183, #91, .T. ) ;
#164 = SURFACE_STYLE_USAGE ( .BOTH. , #166 ) ;
#165 = ADVANCED_FACE ( 'NONE', ( #256 ), #85, .T. ) ;
#166 = SURFACE_SIDE_STYLE ('',( #319 ) ) ;
#167 = VERTEX_POINT ( 'NONE', #181 ) ;
#168 = AXIS2_PLACEMENT_3D ( 'NONE', #172, #195, #272 ) ;
#169 = CARTESIAN_POINT ( 'NONE',  ( 2.862807836494802985E-18, 0.0000000000000000000, 0.02337660000000000432 ) ) ;
#170 = ADVANCED_FACE ( 'NONE', ( #280 ), #320, .T. ) ;
#171 = PRODUCT_DEFINITION_SHAPE ( 'NONE', 'NONE',  #197 ) ;
#172 = CARTESIAN_POINT ( 'NONE',  ( 1.334865011070615584E-17, 0.0000000000000000000, 0.1089999999999999997 ) ) ;
#173 = VERTEX_POINT ( 'NONE', #80 ) ;
#174 = PRODUCT_RELATED_PRODUCT_CATEGORY ( 'part', '', ( #199 ) ) ;
#175 = CIRCLE ( 'NONE', #15, 0.02337660000000000432 ) ;
#176 = EDGE_CURVE ( 'NONE', #54, #173, #61, .T. ) ;
#177 = DIRECTION ( 'NONE',  ( -1.000000000000000000, 1.224646799147352961E-16, 0.0000000000000000000 ) ) ;
#178 = DIRECTION ( 'NONE',  ( 0.0000000000000000000, 0.0000000000000000000, -1.000000000000000000 ) ) ;
#179 = ORIENTED_EDGE ( 'NONE', *, *, #12, .F. ) ;
#180 = DIRECTION ( 'NONE',  ( 1.000000000000000000, 0.0000000000000000000, 0.0000000000000000000 ) ) ;
#181 = CARTESIAN_POINT ( 'NONE',  ( -0.02337659999999998697, 5.258425165582881421E-18, 0.1089999999999999997 ) ) ;
#182 = CARTESIAN_POINT ( 'NONE',  ( 0.0000000000000000000, 0.0000000000000000000, 0.0000000000000000000 ) ) ;
#183 = VERTEX_POINT ( 'NONE', #158 ) ;
#184 = CARTESIAN_POINT ( 'NONE',  ( 2.862807836494802985E-18, 0.0000000000000000000, 0.02337660000000000432 ) ) ;
#185 = FILL_AREA_STYLE ('',( #20 ) ) ;
#186 = SHAPE_DEFINITION_REPRESENTATION ( #171, #29 ) ;
#187 = EDGE_CURVE ( 'NONE', #53, #183, #219, .T. ) ;
#188 = MECHANICAL_DESIGN_GEOMETRIC_PRESENTATION_REPRESENTATION (  '', ( #291 ), #6 ) ;
#189 = PRODUCT_DEFINITION_FORMATION_WITH_SPECIFIED_SOURCE ( 'ANY', '', #199, .NOT_KNOWN. ) ;
#190 =( NAMED_UNIT ( * ) SI_UNIT ( $, .STERADIAN. ) SOLID_ANGLE_UNIT ( ) );
#191 = DIRECTION ( 'NONE',  ( 1.000000000000000000, 0.0000000000000000000, 0.0000000000000000000 ) ) ;
#192 = CARTESIAN_POINT ( 'NONE',  ( 0.0000000000000000000, 0.0000000000000000000, 1.500000000000000222 ) ) ;
#193 = CARTESIAN_POINT ( 'NONE',  ( 2.862807836494802985E-18, 0.0000000000000000000, 0.02337660000000000432 ) ) ;
#194 = EDGE_CURVE ( 'NONE', #53, #54, #142, .T. ) ;
#195 = DIRECTION ( 'NONE',  ( 1.224646799147353700E-16, 0.0000000000000000000, 1.000000000000000000 ) ) ;
#196 = LINE ( 'NONE', #274, #323 ) ;
#197 = PRODUCT_DEFINITION ( 'UNKNOWN', '', #189, #23 ) ;
#198 = CARTESIAN_POINT ( 'NONE',  ( 0.0000000000000000000, 0.0000000000000000000, 0.0000000000000000000 ) ) ;
#199 = PRODUCT ( 'Micro_BEM-046-03X', 'Micro_BEM-046-03X', '', ( #116 ) ) ;
#200 = DIRECTION ( 'NONE',  ( 0.0000000000000000000, 0.0000000000000000000, 1.000000000000000000 ) ) ;
#201 = CIRCLE ( 'NONE', #260, 0.02337660000000000432 ) ;
#202 = DIRECTION ( 'NONE',  ( 1.224646799147353700E-16, 0.0000000000000000000, 1.000000000000000000 ) ) ;
#203 = SPHERICAL_SURFACE ( 'NONE', #298, 0.02337660000000000432 ) ;
#204 = ORIENTED_EDGE ( 'NONE', *, *, #255, .F. ) ;
#205 = CARTESIAN_POINT ( 'NONE',  ( 4.052109212114275620E-17, 0.0000000000000000000, 0.3308798271416305559 ) ) ;
#206 = DIRECTION ( 'NONE',  ( -0.0000000000000000000, -0.0000000000000000000, -1.000000000000000000 ) ) ;
#207 = ORIENTED_EDGE ( 'NONE', *, *, #176, .F. ) ;
#208 = DIRECTION ( 'NONE',  ( 1.000000000000000000, 0.0000000000000000000, 0.0000000000000000000 ) ) ;
#209 = VECTOR ( 'NONE', #8, 39.37007874015748143 ) ;
#210 = SURFACE_STYLE_USAGE ( .BOTH. , #67 ) ;
#211 = EDGE_LOOP ( 'NONE', ( #237, #179, #96, #47 ) ) ;
#212 = CIRCLE ( 'NONE', #104, 0.02337660000000000432 ) ;
#213 = AXIS2_PLACEMENT_3D ( 'NONE', #205, #65, #304 ) ;
#214 = PRESENTATION_LAYER_ASSIGNMENT (  '', '', ( #228 ) ) ;
#215 = EDGE_CURVE ( 'NONE', #117, #102, #122, .T. ) ;
#216 = FACE_OUTER_BOUND ( 'NONE', #222, .T. ) ;
#217 = CARTESIAN_POINT ( 'NONE',  ( 0.0000000000000000000, 0.0000000000000000000, 1.500000000000000222 ) ) ;
#218 = ORIENTED_EDGE ( 'NONE', *, *, #176, .T. ) ;
#219 = LINE ( 'NONE', #26, #94 ) ;
#220 = CARTESIAN_POINT ( 'NONE',  ( -0.02337660000000000432, 0.0000000000000000000, 2.862807836494802985E-18 ) ) ;
#221 = ORIENTED_EDGE ( 'NONE', *, *, #279, .F. ) ;
#222 = EDGE_LOOP ( 'NONE', ( #121, #76, #157 ) ) ;
#223 = EDGE_CURVE ( 'NONE', #284, #102, #175, .T. ) ;
#224 = DIRECTION ( 'NONE',  ( 1.224646799147353207E-16, 1.000000000000000000, -0.0000000000000000000 ) ) ;
#225 = ORIENTED_EDGE ( 'NONE', *, *, #240, .F. ) ;
#226 = LINE ( 'NONE', #135, #25 ) ;
#227 = AXIS2_PLACEMENT_3D ( 'NONE', #66, #293, #208 ) ;
#228 = STYLED_ITEM ( 'NONE', ( #262 ), #29 ) ;
#229 = EDGE_LOOP ( 'NONE', ( #159, #153, #105, #108 ) ) ;
#230 = DIRECTION ( 'NONE',  ( 1.224646799147353700E-16, 0.0000000000000000000, 1.000000000000000000 ) ) ;
#231 = VERTEX_POINT ( 'NONE', #138 ) ;
#232 =( LENGTH_UNIT ( ) NAMED_UNIT ( * ) SI_UNIT ( $, .METRE. ) );
#233 = DIRECTION ( 'NONE',  ( -1.000000000000000000, 0.0000000000000000000, 0.0000000000000000000 ) ) ;
#234 = AXIS2_PLACEMENT_3D ( 'NONE', #308, #302, #82 ) ;
#235 = EDGE_CURVE ( 'NONE', #167, #173, #226, .T. ) ;
#236 = APPLICATION_PROTOCOL_DEFINITION ( 'draft international standard', 'automotive_design', 1998, #145 ) ;
#237 = ORIENTED_EDGE ( 'NONE', *, *, #2, .F. ) ;
#238 = LENGTH_MEASURE_WITH_UNIT ( LENGTH_MEASURE( 0.02539999999999999897 ), #144 );
#239 = VERTEX_POINT ( 'NONE', #299 ) ;
#240 = EDGE_CURVE ( 'NONE', #102, #284, #201, .T. ) ;
#241 = DIRECTION ( 'NONE',  ( -0.0000000000000000000, -0.0000000000000000000, -1.000000000000000000 ) ) ;
#242 = CYLINDRICAL_SURFACE ( 'NONE', #297, 0.06250000000000002776 ) ;
#243 = AXIS2_PLACEMENT_3D ( 'NONE', #182, #321, #97 ) ;
#244 = EDGE_CURVE ( 'NONE', #167, #284, #38, .T. ) ;
#245 = CYLINDRICAL_SURFACE ( 'NONE', #243, 0.02337660000000000432 ) ;
#246 =( GEOMETRIC_REPRESENTATION_CONTEXT ( 3 ) GLOBAL_UNCERTAINTY_ASSIGNED_CONTEXT ( ( #127 ) ) GLOBAL_UNIT_ASSIGNED_CONTEXT ( ( #69, #17, #88 ) ) REPRESENTATION_CONTEXT ( 'NONE', 'WORKASPACE' ) );
#247 = DIRECTION ( 'NONE',  ( -0.7071067811865462405, 0.0000000000000000000, -0.7071067811865486830 ) ) ;
#248 = ORIENTED_EDGE ( 'NONE', *, *, #194, .T. ) ;
#249 = CIRCLE ( 'NONE', #5, 0.06250000000000002776 ) ;
#250 = DIRECTION ( 'NONE',  ( -1.000000000000000000, 0.0000000000000000000, 0.0000000000000000000 ) ) ;
#251 = ORIENTED_EDGE ( 'NONE', *, *, #318, .F. ) ;
#252 = CARTESIAN_POINT ( 'NONE',  ( -0.02337659999999999738, 0.0000000000000000000, 0.02337660000000000779 ) ) ;
#253 = ORIENTED_EDGE ( 'NONE', *, *, #12, .T. ) ;
#254 = EDGE_LOOP ( 'NONE', ( #16, #292, #132, #221 ) ) ;
#255 = EDGE_CURVE ( 'NONE', #231, #239, #133, .T. ) ;
#256 = FACE_OUTER_BOUND ( 'NONE', #28, .T. ) ;
#257 = DIRECTION ( 'NONE',  ( -0.1736481776669311083, 2.126576849575782084E-17, 0.9848077530122080203 ) ) ;
#258 = EDGE_LOOP ( 'NONE', ( #11, #44, #225 ) ) ;
#259 = DIRECTION ( 'NONE',  ( -0.0000000000000000000, -0.0000000000000000000, -1.000000000000000000 ) ) ;
#260 = AXIS2_PLACEMENT_3D ( 'NONE', #169, #230, #13 ) ;
#261 = MECHANICAL_DESIGN_GEOMETRIC_PRESENTATION_REPRESENTATION (  '', ( #228 ), #287 ) ;
#262 = PRESENTATION_STYLE_ASSIGNMENT (( #210 ) ) ;
#263 = DIRECTION ( 'NONE',  ( 1.000000000000000000, 0.0000000000000000000, 0.0000000000000000000 ) ) ;
#264 = CARTESIAN_POINT ( 'NONE',  ( 2.862807836494802985E-18, 0.0000000000000000000, 0.02337660000000000432 ) ) ;
#265 = EDGE_LOOP ( 'NONE', ( #294, #128, #306, #151 ) ) ;
#266 = ORIENTED_EDGE ( 'NONE', *, *, #187, .F. ) ;
#267 = ADVANCED_FACE ( 'NONE', ( #113 ), #303, .T. ) ;
#268 = DIRECTION ( 'NONE',  ( 0.0000000000000000000, 1.000000000000000000, 0.0000000000000000000 ) ) ;
#269 = CIRCLE ( 'NONE', #48, 0.04750000000000064587 ) ;
#270 = VECTOR ( 'NONE', #103, 39.37007874015748143 ) ;
#271 = DIRECTION ( 'NONE',  ( -1.000000000000000000, 0.0000000000000000000, 0.0000000000000000000 ) ) ;
#272 = DIRECTION ( 'NONE',  ( 1.000000000000000000, 0.0000000000000000000, 0.0000000000000000000 ) ) ;
#273 = DIMENSIONAL_EXPONENTS ( 1.000000000000000000, 0.0000000000000000000, 0.0000000000000000000, 0.0000000000000000000, 0.0000000000000000000, 0.0000000000000000000, 0.0000000000000000000 ) ;
#274 = CARTESIAN_POINT ( 'NONE',  ( 0.04750000000000064587, 5.817072295950006528E-18, 1.500000000000000222 ) ) ;
#275 = ORIENTED_EDGE ( 'NONE', *, *, #255, .T. ) ;
#276 = CARTESIAN_POINT ( 'NONE',  ( 0.0000000000000000000, 0.0000000000000000000, 1.500000000000000222 ) ) ;
#277 = ORIENTED_EDGE ( 'NONE', *, *, #72, .F. ) ;
#278 = CARTESIAN_POINT ( 'NONE',  ( 0.0000000000000000000, 0.0000000000000000000, 1.500000000000000222 ) ) ;
#279 = EDGE_CURVE ( 'NONE', #111, #183, #123, .T. ) ;
#280 = FACE_OUTER_BOUND ( 'NONE', #211, .T. ) ;
#281 = DIRECTION ( 'NONE',  ( -0.0000000000000000000, -0.0000000000000000000, -1.000000000000000000 ) ) ;
#282 = DIRECTION ( 'NONE',  ( 1.000000000000000000, 0.0000000000000000000, 0.0000000000000000000 ) ) ;
#283 = CONICAL_SURFACE ( 'NONE', #114, 0.04750000000000064587, 0.7853981633974466137 ) ;
#284 = VERTEX_POINT ( 'NONE', #252 ) ;
#285 = ORIENTED_EDGE ( 'NONE', *, *, #163, .F. ) ;
#286 = COLOUR_RGB ( '',0.7921568627450980005, 0.8196078431372548767, 0.9333333333333333481 ) ;
#287 =( GEOMETRIC_REPRESENTATION_CONTEXT ( 3 ) GLOBAL_UNCERTAINTY_ASSIGNED_CONTEXT ( ( #1 ) ) GLOBAL_UNIT_ASSIGNED_CONTEXT ( ( #118, #90, #190 ) ) REPRESENTATION_CONTEXT ( 'NONE', 'WORKASPACE' ) );
#288 = UNCERTAINTY_MEASURE_WITH_UNIT (LENGTH_MEASURE( 1.000000000000000082E-05 ), #137, 'distance_accuracy_value', 'NONE');
#289 = FILL_AREA_STYLE_COLOUR ( '', #286 ) ;
#290 = CARTESIAN_POINT ( 'NONE',  ( 0.02337660000000000779, 2.862807836494801830E-18, 0.02337659999999999738 ) ) ;
#291 = STYLED_ITEM ( 'NONE', ( #37 ), #140 ) ;
#292 = ORIENTED_EDGE ( 'NONE', *, *, #235, .T. ) ;
#293 = DIRECTION ( 'NONE',  ( 0.0000000000000000000, 0.0000000000000000000, -1.000000000000000000 ) ) ;
#294 = ORIENTED_EDGE ( 'NONE', *, *, #316, .T. ) ;
#295 = DIRECTION ( 'NONE',  ( 1.000000000000000000, 0.0000000000000000000, 0.0000000000000000000 ) ) ;
#296 = DIRECTION ( 'NONE',  ( -1.224646799147353700E-16, -0.0000000000000000000, -1.000000000000000000 ) ) ;
#297 = AXIS2_PLACEMENT_3D ( 'NONE', #192, #241, #95 ) ;
#298 = AXIS2_PLACEMENT_3D ( 'NONE', #184, #268, #282 ) ;
#299 = CARTESIAN_POINT ( 'NONE',  ( -0.04750000000000064587, 0.0000000000000000000, 1.500000000000000222 ) ) ;
#300 = ADVANCED_FACE ( 'NONE', ( #86 ), #203, .T. ) ;
#301 = CARTESIAN_POINT ( 'NONE',  ( -0.06250000000000002776, 0.0000000000000000000, 1.485000000000000764 ) ) ;
#302 = DIRECTION ( 'NONE',  ( 0.0000000000000000000, 0.0000000000000000000, 1.000000000000000000 ) ) ;
#303 = CYLINDRICAL_SURFACE ( 'NONE', #36, 0.06250000000000002776 ) ;
#304 = DIRECTION ( 'NONE',  ( 1.000000000000000000, 0.0000000000000000000, 0.0000000000000000000 ) ) ;
#305 = DIRECTION ( 'NONE',  ( -1.000000000000000000, 0.0000000000000000000, 0.0000000000000000000 ) ) ;
#306 = ORIENTED_EDGE ( 'NONE', *, *, #240, .T. ) ;
#307 = ADVANCED_FACE ( 'NONE', ( #149 ), #245, .T. ) ;
#308 = CARTESIAN_POINT ( 'NONE',  ( 0.0000000000000000000, 0.0000000000000000000, 1.500000000000000222 ) ) ;
#309 = DIRECTION ( 'NONE',  ( 0.1736481776669313026, 0.0000000000000000000, 0.9848077530122077983 ) ) ;
#310 = APPLICATION_PROTOCOL_DEFINITION ( 'draft international standard', 'automotive_design', 1998, #59 ) ;
#311 = LENGTH_MEASURE_WITH_UNIT ( LENGTH_MEASURE( 0.02539999999999999897 ), #32 );
#312 = EDGE_LOOP ( 'NONE', ( #204, #87, #33, #251 ) ) ;
#313 = SURFACE_STYLE_FILL_AREA ( #185 ) ;
#314 = AXIS2_PLACEMENT_3D ( 'NONE', #109, #124, #250 ) ;
#315 = AXIS2_PLACEMENT_3D ( 'NONE', #49, #200, #110 ) ;
#316 = EDGE_CURVE ( 'NONE', #167, #111, #162, .T. ) ;
#317 = DIRECTION ( 'NONE',  ( 0.0000000000000000000, 1.000000000000000000, 0.0000000000000000000 ) ) ;
#318 = EDGE_CURVE ( 'NONE', #239, #54, #52, .T. ) ;
#319 = SURFACE_STYLE_FILL_AREA ( #71 ) ;
#320 = CONICAL_SURFACE ( 'NONE', #106, 0.04750000000000064587, 0.7853981633974466137 ) ;
#321 = DIRECTION ( 'NONE',  ( -1.224646799147353700E-16, -0.0000000000000000000, -1.000000000000000000 ) ) ;
#322 = CARTESIAN_POINT ( 'NONE',  ( 0.06250000000000002776, 7.654042494670959086E-18, 1.485000000000000764 ) ) ;
#323 = VECTOR ( 'NONE', #101, 39.37007874015748854 ) ;
#324 = DIRECTION ( 'NONE',  ( -1.000000000000000000, 0.0000000000000000000, 1.224646799147353454E-16 ) ) ;
#325 = ORIENTED_EDGE ( 'NONE', *, *, #223, .T. ) ;
ENDSEC;
END-ISO-10303-21;
