ISO-10303-21;
HEADER;
FILE_DESCRIPTION (( 'STEP AP214' ),
    '1' );
FILE_NAME ('59629.STEP',
    '2023-07-24T15:50:57',
    ( '' ),
    ( '' ),
    'SwSTEP 2.0',
    'SolidWorks 2023',
    '' );
FILE_SCHEMA (( 'AUTOMOTIVE_DESIGN' ));
ENDSEC;

DATA;
#1 = DIRECTION ( 'NONE',  ( -0.000000000000000000, -1.000000000000000000, -0.000000000000000000 ) ) ;
#2 = AXIS2_PLACEMENT_3D ( 'NONE', #156, #52, #177 ) ;
#3 = DIRECTION ( 'NONE',  ( 0.000000000000000000, 0.000000000000000000, -1.000000000000000000 ) ) ;
#4 = CARTESIAN_POINT ( 'NONE',  ( 0.000000000000000000, 24.00000000000000000, 0.000000000000000000 ) ) ;
#5 = EDGE_LOOP ( 'NONE', ( #183, #136 ) ) ;
#6 = FACE_OUTER_BOUND ( 'NONE', #207, .T. ) ;
#7 = VERTEX_POINT ( 'NONE', #106 ) ;
#8 = CYLINDRICAL_SURFACE ( 'NONE', #139, 4.000000000000000000 ) ;
#9 = UNCERTAINTY_MEASURE_WITH_UNIT (LENGTH_MEASURE( 1.000000000000000082E-05 ), #232, 'distance_accuracy_value', 'NONE');
#10 = ORIENTED_EDGE ( 'NONE', *, *, #74, .T. ) ;
#11 = STYLED_ITEM ( 'NONE', ( #261 ), #79 ) ;
#12 = AXIS2_PLACEMENT_3D ( 'NONE', #231, #180, #239 ) ;
#13 = EDGE_LOOP ( 'NONE', ( #95, #33, #174, #226 ) ) ;
#14 = VERTEX_POINT ( 'NONE', #140 ) ;
#15 = PRODUCT_DEFINITION_SHAPE ( 'NONE', 'NONE',  #23 ) ;
#16 = STYLED_ITEM ( 'NONE', ( #176 ), #134 ) ;
#17 =( NAMED_UNIT ( * ) SI_UNIT ( $, .STERADIAN. ) SOLID_ANGLE_UNIT ( ) );
#18 = SURFACE_STYLE_FILL_AREA ( #285 ) ;
#19 = VECTOR ( 'NONE', #190, 1000.000000000000000 ) ;
#20 = SURFACE_SIDE_STYLE ('',( #170 ) ) ;
#21 = STYLED_ITEM ( 'NONE', ( #220 ), #206 ) ;
#22 =( NAMED_UNIT ( * ) PLANE_ANGLE_UNIT ( ) SI_UNIT ( $, .RADIAN. ) );
#23 = PRODUCT_DEFINITION ( 'UNKNOWN', '', #175, #270 ) ;
#24 =( NAMED_UNIT ( * ) SI_UNIT ( $, .STERADIAN. ) SOLID_ANGLE_UNIT ( ) );
#25 = VERTEX_POINT ( 'NONE', #87 ) ;
#26 = DIRECTION ( 'NONE',  ( 0.000000000000000000, -0.000000000000000000, 1.000000000000000000 ) ) ;
#27 =( LENGTH_UNIT ( ) NAMED_UNIT ( * ) SI_UNIT ( .MILLI., .METRE. ) );
#28 = UNCERTAINTY_MEASURE_WITH_UNIT (LENGTH_MEASURE( 1.000000000000000082E-05 ), #27, 'distance_accuracy_value', 'NONE');
#29 = CARTESIAN_POINT ( 'NONE',  ( 0.000000000000000000, 24.00000000000000000, -4.000000000000000000 ) ) ;
#30 = ORIENTED_EDGE ( 'NONE', *, *, #259, .F. ) ;
#31 = PLANE ( 'NONE',  #250 ) ;
#32 = CARTESIAN_POINT ( 'NONE',  ( -1.469576158976823750E-15, 75.00000000000000000, 0.000000000000000000 ) ) ;
#33 = ORIENTED_EDGE ( 'NONE', *, *, #259, .T. ) ;
#34 = PRESENTATION_LAYER_ASSIGNMENT (  '', '', ( #11 ) ) ;
#35 = FILL_AREA_STYLE ('',( #59 ) ) ;
#36 = COLOUR_RGB ( '',1.000000000000000000, 0.000000000000000000, 0.000000000000000000 ) ;
#37 = FACE_OUTER_BOUND ( 'NONE', #5, .T. ) ;
#38 = EDGE_CURVE ( 'NONE', #93, #80, #272, .T. ) ;
#39 = MANIFOLD_SOLID_BREP ( 'Revolve - Cutting Edge', #198 ) ;
#40 = DIRECTION ( 'NONE',  ( -0.000000000000000000, -1.000000000000000000, -0.000000000000000000 ) ) ;
#41 = APPLICATION_CONTEXT ( 'automotive_design' ) ;
#42 = DIRECTION ( 'NONE',  ( -1.000000000000000000, 0.000000000000000000, 0.000000000000000000 ) ) ;
#43 = CYLINDRICAL_SURFACE ( 'NONE', #12, 4.000000000000000000 ) ;
#44 = STYLED_ITEM ( 'NONE', ( #77 ), #185 ) ;
#45 = FACE_OUTER_BOUND ( 'NONE', #109, .T. ) ;
#46 = CLOSED_SHELL ( 'NONE', ( #212, #194, #224, #147 ) ) ;
#47 = DIRECTION ( 'NONE',  ( -1.000000000000000000, -2.881521880346713429E-17, 0.000000000000000000 ) ) ;
#48 = APPLICATION_PROTOCOL_DEFINITION ( 'draft international standard', 'automotive_design', 1998, #168 ) ;
#49 = DIRECTION ( 'NONE',  ( -2.881521880346713429E-17, 1.000000000000000000, -0.000000000000000000 ) ) ;
#50 = DIRECTION ( 'NONE',  ( -0.000000000000000000, -1.000000000000000000, -0.000000000000000000 ) ) ;
#51 = PLANE ( 'NONE',  #266 ) ;
#52 = DIRECTION ( 'NONE',  ( -0.000000000000000000, -1.000000000000000000, -0.000000000000000000 ) ) ;
#53 = FILL_AREA_STYLE ('',( #254 ) ) ;
#54 = CIRCLE ( 'NONE', #82, 4.000000000000001776 ) ;
#55 = FACE_OUTER_BOUND ( 'NONE', #235, .T. ) ;
#56 = UNCERTAINTY_MEASURE_WITH_UNIT (LENGTH_MEASURE( 1.000000000000000082E-05 ), #223, 'distance_accuracy_value', 'NONE');
#57 = ORIENTED_EDGE ( 'NONE', *, *, #38, .F. ) ;
#58 = FACE_OUTER_BOUND ( 'NONE', #13, .T. ) ;
#59 = FILL_AREA_STYLE_COLOUR ( '', #278 ) ;
#60 = ORIENTED_EDGE ( 'NONE', *, *, #127, .F. ) ;
#61 = AXIS2_PLACEMENT_3D ( 'NONE', #32, #68, #208 ) ;
#62 = EDGE_LOOP ( 'NONE', ( #57, #252, #210, #60 ) ) ;
#63 = PRODUCT ( '59629', '59629', '', ( #172 ) ) ;
#64 = DIRECTION ( 'NONE',  ( 0.000000000000000000, 0.000000000000000000, -1.000000000000000000 ) ) ;
#65 = VECTOR ( 'NONE', #50, 1000.000000000000000 ) ;
#66 = AXIS2_PLACEMENT_3D ( 'NONE', #158, #108, #3 ) ;
#67 =( LENGTH_UNIT ( ) NAMED_UNIT ( * ) SI_UNIT ( .MILLI., .METRE. ) );
#68 = DIRECTION ( 'NONE',  ( -2.881521880346713429E-17, 1.000000000000000000, -0.000000000000000000 ) ) ;
#69 = EDGE_LOOP ( 'NONE', ( #30, #201, #78, #178 ) ) ;
#70 = CARTESIAN_POINT ( 'NONE',  ( 4.000000000000000000, 75.00000000000000000, 4.898587196589413815E-16 ) ) ;
#71 = UNCERTAINTY_MEASURE_WITH_UNIT (LENGTH_MEASURE( 1.000000000000000082E-05 ), #114, 'distance_accuracy_value', 'NONE');
#72 = DIRECTION ( 'NONE',  ( -1.000000000000000000, 0.000000000000000000, 0.000000000000000000 ) ) ;
#73 = DIRECTION ( 'NONE',  ( -2.881521880346713429E-17, 1.000000000000000000, -0.000000000000000000 ) ) ;
#74 = EDGE_CURVE ( 'NONE', #163, #7, #99, .T. ) ;
#75 = CARTESIAN_POINT ( 'NONE',  ( 4.898587196589412829E-16, 0.000000000000000000, 4.000000000000000000 ) ) ;
#76 = SURFACE_SIDE_STYLE ('',( #138 ) ) ;
#77 = PRESENTATION_STYLE_ASSIGNMENT (( #276 ) ) ;
#78 = ORIENTED_EDGE ( 'NONE', *, *, #157, .T. ) ;
#79 = ADVANCED_FACE ( 'NONE', ( #45 ), #122, .T. ) ;
#80 = VERTEX_POINT ( 'NONE', #70 ) ;
#81 = STYLED_ITEM ( 'NONE', ( #160 ), #39 ) ;
#82 = AXIS2_PLACEMENT_3D ( 'NONE', #186, #49, #253 ) ;
#83 = DIRECTION ( 'NONE',  ( 0.000000000000000000, -1.000000000000000000, -0.000000000000000000 ) ) ;
#84 = FILL_AREA_STYLE_COLOUR ( '', #164 ) ;
#85 = CARTESIAN_POINT ( 'NONE',  ( 4.898587196589412829E-16, 0.000000000000000000, 4.000000000000000000 ) ) ;
#86 = SURFACE_STYLE_USAGE ( .BOTH. , #191 ) ;
#87 = CARTESIAN_POINT ( 'NONE',  ( -4.000000000000000000, 24.00000000000000000, 0.000000000000000000 ) ) ;
#88 = AXIS2_PLACEMENT_3D ( 'NONE', #91, #221, #287 ) ;
#89 = CIRCLE ( 'NONE', #66, 4.000000000000000000 ) ;
#90 = SURFACE_STYLE_USAGE ( .BOTH. , #202 ) ;
#91 = CARTESIAN_POINT ( 'NONE',  ( -1.469576158976823750E-15, 75.00000000000000000, 0.000000000000000000 ) ) ;
#92 = FILL_AREA_STYLE_COLOUR ( '', #36 ) ;
#93 = VERTEX_POINT ( 'NONE', #118 ) ;
#94 = LINE ( 'NONE', #273, #117 ) ;
#95 = ORIENTED_EDGE ( 'NONE', *, *, #96, .T. ) ;
#96 = EDGE_CURVE ( 'NONE', #274, #277, #89, .T. ) ;
#97 = PRODUCT_RELATED_PRODUCT_CATEGORY ( 'part', '', ( #63 ) ) ;
#98 =( NAMED_UNIT ( * ) PLANE_ANGLE_UNIT ( ) SI_UNIT ( $, .RADIAN. ) );
#99 = CIRCLE ( 'NONE', #262, 4.000000000000000000 ) ;
#100 = MECHANICAL_DESIGN_GEOMETRIC_PRESENTATION_REPRESENTATION (  '', ( #16 ), #132 ) ;
#101 = DIRECTION ( 'NONE',  ( -2.881521880346713429E-17, 1.000000000000000000, -0.000000000000000000 ) ) ;
#102 = CARTESIAN_POINT ( 'NONE',  ( 0.000000000000000000, 24.00000000000000000, 0.000000000000000000 ) ) ;
#103 = SURFACE_STYLE_USAGE ( .BOTH. , #200 ) ;
#104 = PRESENTATION_STYLE_ASSIGNMENT (( #268 ) ) ;
#105 = CARTESIAN_POINT ( 'NONE',  ( 0.000000000000000000, 0.000000000000000000, 0.000000000000000000 ) ) ;
#106 = CARTESIAN_POINT ( 'NONE',  ( 0.000000000000000000, 0.000000000000000000, -4.000000000000000000 ) ) ;
#107 = EDGE_CURVE ( 'NONE', #7, #163, #146, .T. ) ;
#108 = DIRECTION ( 'NONE',  ( -0.000000000000000000, -1.000000000000000000, -0.000000000000000000 ) ) ;
#109 = EDGE_LOOP ( 'NONE', ( #256, #10 ) ) ;
#110 = AXIS2_PLACEMENT_3D ( 'NONE', #105, #248, #148 ) ;
#111 = DIRECTION ( 'NONE',  ( 0.000000000000000000, 1.000000000000000000, 0.000000000000000000 ) ) ;
#112 = APPLICATION_PROTOCOL_DEFINITION ( 'draft international standard', 'automotive_design', 1998, #41 ) ;
#113 = CARTESIAN_POINT ( 'NONE',  ( 3.999999999999999112, 75.00000000000000000, 4.898587196589413815E-16 ) ) ;
#114 =( LENGTH_UNIT ( ) NAMED_UNIT ( * ) SI_UNIT ( .MILLI., .METRE. ) );
#115 = DIRECTION ( 'NONE',  ( 1.000000000000000000, 2.881521880346713429E-17, 0.000000000000000000 ) ) ;
#116 = ORIENTED_EDGE ( 'NONE', *, *, #229, .F. ) ;
#117 = VECTOR ( 'NONE', #142, 1000.000000000000000 ) ;
#118 = CARTESIAN_POINT ( 'NONE',  ( 4.000000000000000000, 24.00000000000000000, 4.898587196589413815E-16 ) ) ;
#119 = VECTOR ( 'NONE', #73, 1000.000000000000000 ) ;
#120 = PLANE ( 'NONE',  #255 ) ;
#121 = CARTESIAN_POINT ( 'NONE',  ( -4.000000000000002665, 75.00000000000000000, 0.000000000000000000 ) ) ;
#122 = PLANE ( 'NONE',  #143 ) ;
#123 = FACE_OUTER_BOUND ( 'NONE', #62, .T. ) ;
#124 = CIRCLE ( 'NONE', #2, 4.000000000000000000 ) ;
#125 = LINE ( 'NONE', #121, #19 ) ;
#126 = FILL_AREA_STYLE_COLOUR ( '', #192 ) ;
#127 = EDGE_CURVE ( 'NONE', #80, #14, #54, .T. ) ;
#128 = DIRECTION ( 'NONE',  ( -2.881521880346713429E-17, 1.000000000000000000, -0.000000000000000000 ) ) ;
#129 = CYLINDRICAL_SURFACE ( 'NONE', #236, 4.000000000000000888 ) ;
#130 = FACE_OUTER_BOUND ( 'NONE', #69, .T. ) ;
#131 =( NAMED_UNIT ( * ) PLANE_ANGLE_UNIT ( ) SI_UNIT ( $, .RADIAN. ) );
#132 =( GEOMETRIC_REPRESENTATION_CONTEXT ( 3 ) GLOBAL_UNCERTAINTY_ASSIGNED_CONTEXT ( ( #28 ) ) GLOBAL_UNIT_ASSIGNED_CONTEXT ( ( #27, #257, #152 ) ) REPRESENTATION_CONTEXT ( 'NONE', 'WORKASPACE' ) );
#133 = CIRCLE ( 'NONE', #258, 4.000000000000000000 ) ;
#134 = ADVANCED_FACE ( 'NONE', ( #55 ), #51, .T. ) ;
#135 = DIRECTION ( 'NONE',  ( 0.000000000000000000, 0.000000000000000000, -1.000000000000000000 ) ) ;
#136 = ORIENTED_EDGE ( 'NONE', *, *, #234, .F. ) ;
#137 = CARTESIAN_POINT ( 'NONE',  ( 0.000000000000000000, 24.00000000000000000, 0.000000000000000000 ) ) ;
#138 = SURFACE_STYLE_FILL_AREA ( #53 ) ;
#139 = AXIS2_PLACEMENT_3D ( 'NONE', #260, #40, #64 ) ;
#140 = CARTESIAN_POINT ( 'NONE',  ( -4.000000000000003553, 75.00000000000000000, 0.000000000000000000 ) ) ;
#141 = SURFACE_SIDE_STYLE ('',( #182 ) ) ;
#142 = DIRECTION ( 'NONE',  ( -0.000000000000000000, -1.000000000000000000, -0.000000000000000000 ) ) ;
#143 = AXIS2_PLACEMENT_3D ( 'NONE', #167, #83, #135 ) ;
#144 =( GEOMETRIC_REPRESENTATION_CONTEXT ( 3 ) GLOBAL_UNCERTAINTY_ASSIGNED_CONTEXT ( ( #56 ) ) GLOBAL_UNIT_ASSIGNED_CONTEXT ( ( #223, #98, #169 ) ) REPRESENTATION_CONTEXT ( 'NONE', 'WORKASPACE' ) );
#145 =( GEOMETRIC_REPRESENTATION_CONTEXT ( 3 ) GLOBAL_UNCERTAINTY_ASSIGNED_CONTEXT ( ( #188 ) ) GLOBAL_UNIT_ASSIGNED_CONTEXT ( ( #67, #22, #24 ) ) REPRESENTATION_CONTEXT ( 'NONE', 'WORKASPACE' ) );
#146 = CIRCLE ( 'NONE', #171, 4.000000000000000000 ) ;
#147 = ADVANCED_FACE ( 'NONE', ( #6 ), #31, .F. ) ;
#148 = DIRECTION ( 'NONE',  ( 1.000000000000000000, 0.000000000000000000, 0.000000000000000000 ) ) ;
#149 = MECHANICAL_DESIGN_GEOMETRIC_PRESENTATION_REPRESENTATION (  '', ( #81 ), #244 ) ;
#150 = SHAPE_DEFINITION_REPRESENTATION ( #15, #193 ) ;
#151 = PRESENTATION_LAYER_ASSIGNMENT (  '', '', ( #44 ) ) ;
#152 =( NAMED_UNIT ( * ) SI_UNIT ( $, .STERADIAN. ) SOLID_ANGLE_UNIT ( ) );
#153 = UNCERTAINTY_MEASURE_WITH_UNIT (LENGTH_MEASURE( 1.000000000000000082E-05 ), #245, 'distance_accuracy_value', 'NONE');
#154 = ORIENTED_EDGE ( 'NONE', *, *, #280, .T. ) ;
#155 = DIRECTION ( 'NONE',  ( -0.000000000000000000, -1.000000000000000000, -0.000000000000000000 ) ) ;
#156 = CARTESIAN_POINT ( 'NONE',  ( 0.000000000000000000, 24.00000000000000000, 0.000000000000000000 ) ) ;
#157 = EDGE_CURVE ( 'NONE', #274, #7, #94, .T. ) ;
#158 = CARTESIAN_POINT ( 'NONE',  ( 0.000000000000000000, 24.00000000000000000, 0.000000000000000000 ) ) ;
#159 = UNCERTAINTY_MEASURE_WITH_UNIT (LENGTH_MEASURE( 1.000000000000000082E-05 ), #249, 'distance_accuracy_value', 'NONE');
#160 = PRESENTATION_STYLE_ASSIGNMENT (( #230 ) ) ;
#161 = PRESENTATION_LAYER_ASSIGNMENT (  '', '', ( #16 ) ) ;
#162 = DIRECTION ( 'NONE',  ( 2.881521880346713429E-17, -1.000000000000000000, 0.000000000000000000 ) ) ;
#163 = VERTEX_POINT ( 'NONE', #75 ) ;
#164 = COLOUR_RGB ( '',0.7921568627450980005, 0.8196078431372548767, 0.9333333333333333481 ) ;
#165 = EDGE_CURVE ( 'NONE', #14, #80, #219, .T. ) ;
#166 = CIRCLE ( 'NONE', #189, 4.000000000000000000 ) ;
#167 = CARTESIAN_POINT ( 'NONE',  ( 0.000000000000000000, 0.000000000000000000, 0.000000000000000000 ) ) ;
#168 = APPLICATION_CONTEXT ( 'automotive_design' ) ;
#169 =( NAMED_UNIT ( * ) SI_UNIT ( $, .STERADIAN. ) SOLID_ANGLE_UNIT ( ) );
#170 = SURFACE_STYLE_FILL_AREA ( #197 ) ;
#171 = AXIS2_PLACEMENT_3D ( 'NONE', #227, #155, #271 ) ;
#172 = PRODUCT_CONTEXT ( 'NONE', #41, 'mechanical' ) ;
#173 = FILL_AREA_STYLE ('',( #92 ) ) ;
#174 = ORIENTED_EDGE ( 'NONE', *, *, #107, .F. ) ;
#175 = PRODUCT_DEFINITION_FORMATION_WITH_SPECIFIED_SOURCE ( 'ANY', '', #63, .NOT_KNOWN. ) ;
#176 = PRESENTATION_STYLE_ASSIGNMENT (( #90 ) ) ;
#177 = DIRECTION ( 'NONE',  ( 0.000000000000000000, 0.000000000000000000, -1.000000000000000000 ) ) ;
#178 = ORIENTED_EDGE ( 'NONE', *, *, #74, .F. ) ;
#179 = ORIENTED_EDGE ( 'NONE', *, *, #165, .F. ) ;
#180 = DIRECTION ( 'NONE',  ( -0.000000000000000000, -1.000000000000000000, -0.000000000000000000 ) ) ;
#181 = PRESENTATION_LAYER_ASSIGNMENT (  '', '', ( #81 ) ) ;
#182 = SURFACE_STYLE_FILL_AREA ( #173 ) ;
#183 = ORIENTED_EDGE ( 'NONE', *, *, #280, .F. ) ;
#184 = STYLED_ITEM ( 'NONE', ( #104 ), #237 ) ;
#185 = ADVANCED_FACE ( 'NONE', ( #58 ), #8, .T. ) ;
#186 = CARTESIAN_POINT ( 'NONE',  ( -1.469576158976823750E-15, 75.00000000000000000, 0.000000000000000000 ) ) ;
#187 = ORIENTED_EDGE ( 'NONE', *, *, #38, .T. ) ;
#188 = UNCERTAINTY_MEASURE_WITH_UNIT (LENGTH_MEASURE( 1.000000000000000082E-05 ), #67, 'distance_accuracy_value', 'NONE');
#189 = AXIS2_PLACEMENT_3D ( 'NONE', #102, #101, #195 ) ;
#190 = DIRECTION ( 'NONE',  ( -2.881521880346713429E-17, 1.000000000000000000, -0.000000000000000000 ) ) ;
#191 = SURFACE_SIDE_STYLE ('',( #222 ) ) ;
#192 = COLOUR_RGB ( '',1.000000000000000000, 0.000000000000000000, 0.000000000000000000 ) ;
#193 = ADVANCED_BREP_SHAPE_REPRESENTATION ( '59629', ( #39, #237, #110 ), #145 ) ;
#194 = ADVANCED_FACE ( 'NONE', ( #37 ), #120, .F. ) ;
#195 = DIRECTION ( 'NONE',  ( -1.000000000000000000, 0.000000000000000000, 0.000000000000000000 ) ) ;
#196 = DIRECTION ( 'NONE',  ( 0.000000000000000000, 0.000000000000000000, -1.000000000000000000 ) ) ;
#197 = FILL_AREA_STYLE ('',( #84 ) ) ;
#198 = CLOSED_SHELL ( 'NONE', ( #185, #134, #206, #79 ) ) ;
#199 = PRESENTATION_LAYER_ASSIGNMENT (  '', '', ( #184 ) ) ;
#200 = SURFACE_SIDE_STYLE ('',( #18 ) ) ;
#201 = ORIENTED_EDGE ( 'NONE', *, *, #282, .T. ) ;
#202 = SURFACE_SIDE_STYLE ('',( #213 ) ) ;
#203 = ORIENTED_EDGE ( 'NONE', *, *, #165, .T. ) ;
#204 = MECHANICAL_DESIGN_GEOMETRIC_PRESENTATION_REPRESENTATION (  '', ( #21 ), #144 ) ;
#205 = CARTESIAN_POINT ( 'NONE',  ( 4.898587196589412829E-16, 24.00000000000000000, 4.000000000000000000 ) ) ;
#206 = ADVANCED_FACE ( 'NONE', ( #130 ), #43, .T. ) ;
#207 = EDGE_LOOP ( 'NONE', ( #203, #233 ) ) ;
#208 = DIRECTION ( 'NONE',  ( -1.000000000000000000, 0.000000000000000000, 0.000000000000000000 ) ) ;
#209 = ORIENTED_EDGE ( 'NONE', *, *, #282, .F. ) ;
#210 = ORIENTED_EDGE ( 'NONE', *, *, #229, .T. ) ;
#211 = EDGE_LOOP ( 'NONE', ( #154, #187, #179, #116 ) ) ;
#212 = ADVANCED_FACE ( 'NONE', ( #243 ), #129, .T. ) ;
#213 = SURFACE_STYLE_FILL_AREA ( #35 ) ;
#214 =( NAMED_UNIT ( * ) PLANE_ANGLE_UNIT ( ) SI_UNIT ( $, .RADIAN. ) );
#215 = CARTESIAN_POINT ( 'NONE',  ( 1.660633669383371668E-33, 24.00000000000000000, 0.000000000000000000 ) ) ;
#216 = FILL_AREA_STYLE_COLOUR ( '', #228 ) ;
#217 = DIRECTION ( 'NONE',  ( -2.881521880346713429E-17, 1.000000000000000000, -0.000000000000000000 ) ) ;
#218 = CYLINDRICAL_SURFACE ( 'NONE', #88, 4.000000000000000888 ) ;
#219 = CIRCLE ( 'NONE', #61, 4.000000000000001776 ) ;
#220 = PRESENTATION_STYLE_ASSIGNMENT (( #103 ) ) ;
#221 = DIRECTION ( 'NONE',  ( -2.881521880346713429E-17, 1.000000000000000000, -0.000000000000000000 ) ) ;
#222 = SURFACE_STYLE_FILL_AREA ( #263 ) ;
#223 =( LENGTH_UNIT ( ) NAMED_UNIT ( * ) SI_UNIT ( .MILLI., .METRE. ) );
#224 = ADVANCED_FACE ( 'NONE', ( #123 ), #218, .T. ) ;
#225 =( NAMED_UNIT ( * ) SI_UNIT ( $, .STERADIAN. ) SOLID_ANGLE_UNIT ( ) );
#226 = ORIENTED_EDGE ( 'NONE', *, *, #157, .F. ) ;
#227 = CARTESIAN_POINT ( 'NONE',  ( 0.000000000000000000, 0.000000000000000000, 0.000000000000000000 ) ) ;
#228 = COLOUR_RGB ( '',1.000000000000000000, 0.000000000000000000, 0.000000000000000000 ) ;
#229 = EDGE_CURVE ( 'NONE', #25, #14, #125, .T. ) ;
#230 = SURFACE_STYLE_USAGE ( .BOTH. , #76 ) ;
#231 = CARTESIAN_POINT ( 'NONE',  ( 0.000000000000000000, 0.000000000000000000, 0.000000000000000000 ) ) ;
#232 =( LENGTH_UNIT ( ) NAMED_UNIT ( * ) SI_UNIT ( .MILLI., .METRE. ) );
#233 = ORIENTED_EDGE ( 'NONE', *, *, #127, .T. ) ;
#234 = EDGE_CURVE ( 'NONE', #93, #25, #166, .T. ) ;
#235 = EDGE_LOOP ( 'NONE', ( #279, #209 ) ) ;
#236 = AXIS2_PLACEMENT_3D ( 'NONE', #264, #217, #42 ) ;
#237 = MANIFOLD_SOLID_BREP ( 'Revolve - Tool Body (Straight Shanked)', #46 ) ;
#238 =( NAMED_UNIT ( * ) PLANE_ANGLE_UNIT ( ) SI_UNIT ( $, .RADIAN. ) );
#239 = DIRECTION ( 'NONE',  ( 0.000000000000000000, 0.000000000000000000, -1.000000000000000000 ) ) ;
#240 = MECHANICAL_DESIGN_GEOMETRIC_PRESENTATION_REPRESENTATION (  '', ( #44 ), #281 ) ;
#241 =( NAMED_UNIT ( * ) SI_UNIT ( $, .STERADIAN. ) SOLID_ANGLE_UNIT ( ) );
#242 =( NAMED_UNIT ( * ) SI_UNIT ( $, .STERADIAN. ) SOLID_ANGLE_UNIT ( ) );
#243 = FACE_OUTER_BOUND ( 'NONE', #211, .T. ) ;
#244 =( GEOMETRIC_REPRESENTATION_CONTEXT ( 3 ) GLOBAL_UNCERTAINTY_ASSIGNED_CONTEXT ( ( #71 ) ) GLOBAL_UNIT_ASSIGNED_CONTEXT ( ( #114, #238, #242 ) ) REPRESENTATION_CONTEXT ( 'NONE', 'WORKASPACE' ) );
#245 =( LENGTH_UNIT ( ) NAMED_UNIT ( * ) SI_UNIT ( .MILLI., .METRE. ) );
#246 = CARTESIAN_POINT ( 'NONE',  ( 0.000000000000000000, 0.000000000000000000, 0.000000000000000000 ) ) ;
#247 = DIRECTION ( 'NONE',  ( -2.881521880346713429E-17, 1.000000000000000000, 0.000000000000000000 ) ) ;
#248 = DIRECTION ( 'NONE',  ( 0.000000000000000000, 0.000000000000000000, 1.000000000000000000 ) ) ;
#249 =( LENGTH_UNIT ( ) NAMED_UNIT ( * ) SI_UNIT ( .MILLI., .METRE. ) );
#250 = AXIS2_PLACEMENT_3D ( 'NONE', #251, #162, #115 ) ;
#251 = CARTESIAN_POINT ( 'NONE',  ( 4.000000000000000000, 75.00000000000000000, 0.000000000000000000 ) ) ;
#252 = ORIENTED_EDGE ( 'NONE', *, *, #234, .T. ) ;
#253 = DIRECTION ( 'NONE',  ( -1.000000000000000000, 0.000000000000000000, 0.000000000000000000 ) ) ;
#254 = FILL_AREA_STYLE_COLOUR ( '', #275 ) ;
#255 = AXIS2_PLACEMENT_3D ( 'NONE', #215, #247, #47 ) ;
#256 = ORIENTED_EDGE ( 'NONE', *, *, #107, .T. ) ;
#257 =( NAMED_UNIT ( * ) PLANE_ANGLE_UNIT ( ) SI_UNIT ( $, .RADIAN. ) );
#258 = AXIS2_PLACEMENT_3D ( 'NONE', #4, #128, #72 ) ;
#259 = EDGE_CURVE ( 'NONE', #277, #163, #286, .T. ) ;
#260 = CARTESIAN_POINT ( 'NONE',  ( 0.000000000000000000, 0.000000000000000000, 0.000000000000000000 ) ) ;
#261 = PRESENTATION_STYLE_ASSIGNMENT (( #86 ) ) ;
#262 = AXIS2_PLACEMENT_3D ( 'NONE', #246, #1, #196 ) ;
#263 = FILL_AREA_STYLE ('',( #216 ) ) ;
#264 = CARTESIAN_POINT ( 'NONE',  ( -1.469576158976823750E-15, 75.00000000000000000, 0.000000000000000000 ) ) ;
#265 =( GEOMETRIC_REPRESENTATION_CONTEXT ( 3 ) GLOBAL_UNCERTAINTY_ASSIGNED_CONTEXT ( ( #159 ) ) GLOBAL_UNIT_ASSIGNED_CONTEXT ( ( #249, #131, #225 ) ) REPRESENTATION_CONTEXT ( 'NONE', 'WORKASPACE' ) );
#266 = AXIS2_PLACEMENT_3D ( 'NONE', #137, #111, #26 ) ;
#267 = MECHANICAL_DESIGN_GEOMETRIC_PRESENTATION_REPRESENTATION (  '', ( #11 ), #269 ) ;
#268 = SURFACE_STYLE_USAGE ( .BOTH. , #20 ) ;
#269 =( GEOMETRIC_REPRESENTATION_CONTEXT ( 3 ) GLOBAL_UNCERTAINTY_ASSIGNED_CONTEXT ( ( #153 ) ) GLOBAL_UNIT_ASSIGNED_CONTEXT ( ( #245, #284, #17 ) ) REPRESENTATION_CONTEXT ( 'NONE', 'WORKASPACE' ) );
#270 = PRODUCT_DEFINITION_CONTEXT ( 'detailed design', #168, 'design' ) ;
#271 = DIRECTION ( 'NONE',  ( 0.000000000000000000, 0.000000000000000000, -1.000000000000000000 ) ) ;
#272 = LINE ( 'NONE', #113, #119 ) ;
#273 = CARTESIAN_POINT ( 'NONE',  ( 0.000000000000000000, 0.000000000000000000, -4.000000000000000000 ) ) ;
#274 = VERTEX_POINT ( 'NONE', #29 ) ;
#275 = COLOUR_RGB ( '',0.7921568627450980005, 0.8196078431372548767, 0.9333333333333333481 ) ;
#276 = SURFACE_STYLE_USAGE ( .BOTH. , #141 ) ;
#277 = VERTEX_POINT ( 'NONE', #205 ) ;
#278 = COLOUR_RGB ( '',1.000000000000000000, 0.000000000000000000, 0.000000000000000000 ) ;
#279 = ORIENTED_EDGE ( 'NONE', *, *, #96, .F. ) ;
#280 = EDGE_CURVE ( 'NONE', #25, #93, #133, .T. ) ;
#281 =( GEOMETRIC_REPRESENTATION_CONTEXT ( 3 ) GLOBAL_UNCERTAINTY_ASSIGNED_CONTEXT ( ( #9 ) ) GLOBAL_UNIT_ASSIGNED_CONTEXT ( ( #232, #214, #241 ) ) REPRESENTATION_CONTEXT ( 'NONE', 'WORKASPACE' ) );
#282 = EDGE_CURVE ( 'NONE', #277, #274, #124, .T. ) ;
#283 = MECHANICAL_DESIGN_GEOMETRIC_PRESENTATION_REPRESENTATION (  '', ( #184 ), #265 ) ;
#284 =( NAMED_UNIT ( * ) PLANE_ANGLE_UNIT ( ) SI_UNIT ( $, .RADIAN. ) );
#285 = FILL_AREA_STYLE ('',( #126 ) ) ;
#286 = LINE ( 'NONE', #85, #65 ) ;
#287 = DIRECTION ( 'NONE',  ( -1.000000000000000000, 0.000000000000000000, 0.000000000000000000 ) ) ;
#288 = PRESENTATION_LAYER_ASSIGNMENT (  '', '', ( #21 ) ) ;
ENDSEC;
END-ISO-10303-21;
