ISO-10303-21;
HEADER;
FILE_DESCRIPTION (( 'STEP AP214' ),
    '1' );
FILE_NAME ('86033.STEP',
    '2023-06-23T15:43:51',
    ( '' ),
    ( '' ),
    'SwSTEP 2.0',
    'SolidWorks 2023',
    '' );
FILE_SCHEMA (( 'AUTOMOTIVE_DESIGN' ));
ENDSEC;

DATA;
#1 = EDGE_CURVE ( 'NONE', #34, #296, #172, .T. ) ;
#2 = DIRECTION ( 'NONE',  ( 0.000000000000000000, 0.000000000000000000, 1.000000000000000000 ) ) ;
#3 = AXIS2_PLACEMENT_3D ( 'NONE', #227, #21, #255 ) ;
#4 = FACE_OUTER_BOUND ( 'NONE', #152, .T. ) ;
#5 = CARTESIAN_POINT ( 'NONE',  ( 0.000000000000000000, 0.000000000000000000, 0.000000000000000000 ) ) ;
#6 = APPLICATION_PROTOCOL_DEFINITION ( 'draft international standard', 'automotive_design', 1998, #79 ) ;
#7 = FILL_AREA_STYLE ('',( #168 ) ) ;
#8 = DIRECTION ( 'NONE',  ( 0.000000000000000000, 0.000000000000000000, -1.000000000000000000 ) ) ;
#9 = VECTOR ( 'NONE', #159, 39.37007874015748143 ) ;
#10 = DIRECTION ( 'NONE',  ( -0.000000000000000000, -1.000000000000000000, -0.000000000000000000 ) ) ;
#11 = VERTEX_POINT ( 'NONE', #270 ) ;
#12 = VECTOR ( 'NONE', #174, 39.37007874015748143 ) ;
#13 = SURFACE_SIDE_STYLE ('',( #38 ) ) ;
#14 = ORIENTED_EDGE ( 'NONE', *, *, #238, .F. ) ;
#15 = ORIENTED_EDGE ( 'NONE', *, *, #181, .F. ) ;
#16 = DIRECTION ( 'NONE',  ( -3.061616997868386099E-17, 1.000000000000000000, -0.000000000000000000 ) ) ;
#17 = FILL_AREA_STYLE_COLOUR ( '', #35 ) ;
#18 =( NAMED_UNIT ( * ) SI_UNIT ( $, .STERADIAN. ) SOLID_ANGLE_UNIT ( ) );
#19 = FILL_AREA_STYLE ('',( #222 ) ) ;
#20 = ORIENTED_EDGE ( 'NONE', *, *, #124, .F. ) ;
#21 = DIRECTION ( 'NONE',  ( 0.000000000000000000, 1.000000000000000000, 0.000000000000000000 ) ) ;
#22 = MANIFOLD_SOLID_BREP ( 'Revolve - Cutting Edge', #173 ) ;
#23 =( NAMED_UNIT ( * ) SI_UNIT ( $, .STERADIAN. ) SOLID_ANGLE_UNIT ( ) );
#24 = DIRECTION ( 'NONE',  ( -1.000000000000000000, 0.000000000000000000, 0.000000000000000000 ) ) ;
#25 =( GEOMETRIC_REPRESENTATION_CONTEXT ( 3 ) GLOBAL_UNCERTAINTY_ASSIGNED_CONTEXT ( ( #165 ) ) GLOBAL_UNIT_ASSIGNED_CONTEXT ( ( #193, #76, #292 ) ) REPRESENTATION_CONTEXT ( 'NONE', 'WORKASPACE' ) );
#26 =( LENGTH_UNIT ( ) NAMED_UNIT ( * ) SI_UNIT ( $, .METRE. ) );
#27 = DIRECTION ( 'NONE',  ( 1.000000000000000000, 0.000000000000000000, 0.000000000000000000 ) ) ;
#28 = EDGE_CURVE ( 'NONE', #11, #130, #252, .T. ) ;
#29 = PRODUCT_DEFINITION_FORMATION_WITH_SPECIFIED_SOURCE ( 'ANY', '', #161, .NOT_KNOWN. ) ;
#30 = CIRCLE ( 'NONE', #103, 0.1562500000000000000 ) ;
#31 = SURFACE_STYLE_USAGE ( .BOTH. , #59 ) ;
#32 = ADVANCED_FACE ( 'NONE', ( #233 ), #180, .T. ) ;
#33 = CLOSED_SHELL ( 'NONE', ( #46, #195, #32, #250 ) ) ;
#34 = VERTEX_POINT ( 'NONE', #114 ) ;
#35 = COLOUR_RGB ( '',0.7921568627450980005, 0.8196078431372548767, 0.9333333333333333481 ) ;
#36 = DIRECTION ( 'NONE',  ( -3.061616997868386099E-17, 1.000000000000000000, -0.000000000000000000 ) ) ;
#37 =( GEOMETRIC_REPRESENTATION_CONTEXT ( 3 ) GLOBAL_UNCERTAINTY_ASSIGNED_CONTEXT ( ( #209 ) ) GLOBAL_UNIT_ASSIGNED_CONTEXT ( ( #82, #253, #45 ) ) REPRESENTATION_CONTEXT ( 'NONE', 'WORKASPACE' ) );
#38 = SURFACE_STYLE_FILL_AREA ( #275 ) ;
#39 = ORIENTED_EDGE ( 'NONE', *, *, #192, .T. ) ;
#40 = STYLED_ITEM ( 'NONE', ( #154 ), #99 ) ;
#41 = SURFACE_STYLE_FILL_AREA ( #201 ) ;
#42 = EDGE_LOOP ( 'NONE', ( #125, #221, #248, #249 ) ) ;
#43 = ORIENTED_EDGE ( 'NONE', *, *, #186, .T. ) ;
#44 = CIRCLE ( 'NONE', #49, 0.1562500000000000833 ) ;
#45 =( NAMED_UNIT ( * ) SI_UNIT ( $, .STERADIAN. ) SOLID_ANGLE_UNIT ( ) );
#46 = ADVANCED_FACE ( 'NONE', ( #204 ), #305, .T. ) ;
#47 = SURFACE_SIDE_STYLE ('',( #182 ) ) ;
#48 = PRODUCT_DEFINITION_CONTEXT ( 'detailed design', #79, 'design' ) ;
#49 = AXIS2_PLACEMENT_3D ( 'NONE', #196, #175, #246 ) ;
#50 = SURFACE_SIDE_STYLE ('',( #187 ) ) ;
#51 = CARTESIAN_POINT ( 'NONE',  ( 0.000000000000000000, 0.000000000000000000, 0.000000000000000000 ) ) ;
#52 = FACE_OUTER_BOUND ( 'NONE', #170, .T. ) ;
#53 = SURFACE_STYLE_FILL_AREA ( #267 ) ;
#54 = PRODUCT_CONTEXT ( 'NONE', #261, 'mechanical' ) ;
#55 = AXIS2_PLACEMENT_3D ( 'NONE', #131, #104, #243 ) ;
#56 = AXIS2_PLACEMENT_3D ( 'NONE', #95, #210, #264 ) ;
#57 = DIRECTION ( 'NONE',  ( -1.000000000000000000, -3.061616997868386099E-17, 0.000000000000000000 ) ) ;
#58 = PRESENTATION_STYLE_ASSIGNMENT (( #31 ) ) ;
#59 = SURFACE_SIDE_STYLE ('',( #53 ) ) ;
#60 = FACE_OUTER_BOUND ( 'NONE', #244, .T. ) ;
#61 =( GEOMETRIC_REPRESENTATION_CONTEXT ( 3 ) GLOBAL_UNCERTAINTY_ASSIGNED_CONTEXT ( ( #132 ) ) GLOBAL_UNIT_ASSIGNED_CONTEXT ( ( #65, #220, #83 ) ) REPRESENTATION_CONTEXT ( 'NONE', 'WORKASPACE' ) );
#62 = CARTESIAN_POINT ( 'NONE',  ( 0.1562499999999999722, 3.000000000000000444, 1.913510623667739771E-17 ) ) ;
#63 = DIRECTION ( 'NONE',  ( 0.000000000000000000, -1.000000000000000000, -0.000000000000000000 ) ) ;
#64 = VERTEX_POINT ( 'NONE', #235 ) ;
#65 =( CONVERSION_BASED_UNIT ( 'INCH', #89 ) LENGTH_UNIT ( ) NAMED_UNIT ( #269 ) );
#66 = SURFACE_STYLE_FILL_AREA ( #179 ) ;
#67 = LENGTH_MEASURE_WITH_UNIT ( LENGTH_MEASURE( 0.02539999999999999897 ), #105 );
#68 = DIRECTION ( 'NONE',  ( -0.000000000000000000, -1.000000000000000000, -0.000000000000000000 ) ) ;
#69 =( LENGTH_UNIT ( ) NAMED_UNIT ( * ) SI_UNIT ( $, .METRE. ) );
#70 = AXIS2_PLACEMENT_3D ( 'NONE', #5, #71, #119 ) ;
#71 = DIRECTION ( 'NONE',  ( -0.000000000000000000, -1.000000000000000000, -0.000000000000000000 ) ) ;
#72 = AXIS2_PLACEMENT_3D ( 'NONE', #309, #68, #138 ) ;
#73 = PRODUCT_RELATED_PRODUCT_CATEGORY ( 'part', '', ( #161 ) ) ;
#74 = DIMENSIONAL_EXPONENTS ( 1.000000000000000000, 0.000000000000000000, 0.000000000000000000, 0.000000000000000000, 0.000000000000000000, 0.000000000000000000, 0.000000000000000000 ) ;
#75 = CYLINDRICAL_SURFACE ( 'NONE', #70, 0.1562500000000000000 ) ;
#76 =( NAMED_UNIT ( * ) PLANE_ANGLE_UNIT ( ) SI_UNIT ( $, .RADIAN. ) );
#77 = ORIENTED_EDGE ( 'NONE', *, *, #28, .T. ) ;
#78 = ORIENTED_EDGE ( 'NONE', *, *, #28, .F. ) ;
#79 = APPLICATION_CONTEXT ( 'automotive_design' ) ;
#80 = LINE ( 'NONE', #171, #12 ) ;
#81 = ORIENTED_EDGE ( 'NONE', *, *, #181, .T. ) ;
#82 =( CONVERSION_BASED_UNIT ( 'INCH', #67 ) LENGTH_UNIT ( ) NAMED_UNIT ( #74 ) );
#83 =( NAMED_UNIT ( * ) SI_UNIT ( $, .STERADIAN. ) SOLID_ANGLE_UNIT ( ) );
#84 = CIRCLE ( 'NONE', #72, 0.1562500000000000000 ) ;
#85 =( NAMED_UNIT ( * ) PLANE_ANGLE_UNIT ( ) SI_UNIT ( $, .RADIAN. ) );
#86 = EDGE_LOOP ( 'NONE', ( #20, #78 ) ) ;
#87 = EDGE_CURVE ( 'NONE', #107, #109, #212, .T. ) ;
#88 = SURFACE_STYLE_USAGE ( .BOTH. , #219 ) ;
#89 = LENGTH_MEASURE_WITH_UNIT ( LENGTH_MEASURE( 0.02539999999999999897 ), #301 );
#90 = DIRECTION ( 'NONE',  ( -1.000000000000000000, 0.000000000000000000, 0.000000000000000000 ) ) ;
#91 = CIRCLE ( 'NONE', #218, 0.1562500000000000000 ) ;
#92 = CARTESIAN_POINT ( 'NONE',  ( 0.000000000000000000, 0.000000000000000000, 0.000000000000000000 ) ) ;
#93 = CARTESIAN_POINT ( 'NONE',  ( -6.123233995736772199E-17, 3.000000000000000444, 0.000000000000000000 ) ) ;
#94 = PLANE ( 'NONE',  #3 ) ;
#95 = CARTESIAN_POINT ( 'NONE',  ( 0.000000000000000000, 1.000000000000000000, 0.000000000000000000 ) ) ;
#96 = STYLED_ITEM ( 'NONE', ( #160 ), #116 ) ;
#97 = SHAPE_DEFINITION_REPRESENTATION ( #129, #229 ) ;
#98 = DIRECTION ( 'NONE',  ( 3.061616997868386099E-17, -1.000000000000000000, 0.000000000000000000 ) ) ;
#99 = ADVANCED_FACE ( 'NONE', ( #60 ), #151, .T. ) ;
#100 = LINE ( 'NONE', #62, #9 ) ;
#101 = FACE_OUTER_BOUND ( 'NONE', #197, .T. ) ;
#102 = ORIENTED_EDGE ( 'NONE', *, *, #234, .T. ) ;
#103 = AXIS2_PLACEMENT_3D ( 'NONE', #282, #10, #8 ) ;
#104 = DIRECTION ( 'NONE',  ( -0.000000000000000000, -1.000000000000000000, -0.000000000000000000 ) ) ;
#105 =( LENGTH_UNIT ( ) NAMED_UNIT ( * ) SI_UNIT ( $, .METRE. ) );
#106 = LENGTH_MEASURE_WITH_UNIT ( LENGTH_MEASURE( 0.02539999999999999897 ), #272 );
#107 = VERTEX_POINT ( 'NONE', #135 ) ;
#108 = DIRECTION ( 'NONE',  ( -1.000000000000000000, 0.000000000000000000, 0.000000000000000000 ) ) ;
#109 = VERTEX_POINT ( 'NONE', #111 ) ;
#110 = AXIS2_PLACEMENT_3D ( 'NONE', #276, #223, #214 ) ;
#111 = CARTESIAN_POINT ( 'NONE',  ( -0.1562500000000001388, 3.000000000000000444, 0.000000000000000000 ) ) ;
#112 = CARTESIAN_POINT ( 'NONE',  ( 7.582401355855259480E-33, 1.000000000000000000, 0.000000000000000000 ) ) ;
#113 = EDGE_CURVE ( 'NONE', #109, #107, #44, .T. ) ;
#114 = CARTESIAN_POINT ( 'NONE',  ( 1.913510623667739463E-17, 1.000000000000000000, 0.1562500000000000000 ) ) ;
#115 = COLOUR_RGB ( '',1.000000000000000000, 0.000000000000000000, 0.000000000000000000 ) ;
#116 = MANIFOLD_SOLID_BREP ( 'Revolve - Tool Body (Straight Shanked)', #33 ) ;
#117 =( NAMED_UNIT ( * ) SI_UNIT ( $, .STERADIAN. ) SOLID_ANGLE_UNIT ( ) );
#118 = DIRECTION ( 'NONE',  ( -3.061616997868386099E-17, 1.000000000000000000, -0.000000000000000000 ) ) ;
#119 = DIRECTION ( 'NONE',  ( 0.000000000000000000, 0.000000000000000000, -1.000000000000000000 ) ) ;
#120 = FILL_AREA_STYLE_COLOUR ( '', #115 ) ;
#121 = PRESENTATION_LAYER_ASSIGNMENT (  '', '', ( #96 ) ) ;
#122 = AXIS2_PLACEMENT_3D ( 'NONE', #128, #207, #90 ) ;
#123 = DIMENSIONAL_EXPONENTS ( 1.000000000000000000, 0.000000000000000000, 0.000000000000000000, 0.000000000000000000, 0.000000000000000000, 0.000000000000000000, 0.000000000000000000 ) ;
#124 = EDGE_CURVE ( 'NONE', #130, #11, #91, .T. ) ;
#125 = ORIENTED_EDGE ( 'NONE', *, *, #124, .T. ) ;
#126 =( LENGTH_UNIT ( ) NAMED_UNIT ( * ) SI_UNIT ( $, .METRE. ) );
#127 = PRESENTATION_STYLE_ASSIGNMENT (( #142 ) ) ;
#128 = CARTESIAN_POINT ( 'NONE',  ( 7.582401355855259480E-33, 1.000000000000000000, 0.000000000000000000 ) ) ;
#129 = PRODUCT_DEFINITION_SHAPE ( 'NONE', 'NONE',  #158 ) ;
#130 = VERTEX_POINT ( 'NONE', #304 ) ;
#131 = CARTESIAN_POINT ( 'NONE',  ( 0.000000000000000000, 0.000000000000000000, 0.000000000000000000 ) ) ;
#132 = UNCERTAINTY_MEASURE_WITH_UNIT (LENGTH_MEASURE( 1.000000000000000082E-05 ), #65, 'distance_accuracy_value', 'NONE');
#133 = FACE_OUTER_BOUND ( 'NONE', #302, .T. ) ;
#134 = ORIENTED_EDGE ( 'NONE', *, *, #137, .T. ) ;
#135 = CARTESIAN_POINT ( 'NONE',  ( 0.1562500000000000000, 3.000000000000000444, 1.913510623667739771E-17 ) ) ;
#136 = SURFACE_SIDE_STYLE ('',( #66 ) ) ;
#137 = EDGE_CURVE ( 'NONE', #130, #109, #80, .T. ) ;
#138 = DIRECTION ( 'NONE',  ( 0.000000000000000000, 0.000000000000000000, -1.000000000000000000 ) ) ;
#139 = MECHANICAL_DESIGN_GEOMETRIC_PRESENTATION_REPRESENTATION (  '', ( #284 ), #153 ) ;
#140 =( GEOMETRIC_REPRESENTATION_CONTEXT ( 3 ) GLOBAL_UNCERTAINTY_ASSIGNED_CONTEXT ( ( #147 ) ) GLOBAL_UNIT_ASSIGNED_CONTEXT ( ( #144, #167, #117 ) ) REPRESENTATION_CONTEXT ( 'NONE', 'WORKASPACE' ) );
#141 =( CONVERSION_BASED_UNIT ( 'INCH', #259 ) LENGTH_UNIT ( ) NAMED_UNIT ( #263 ) );
#142 = SURFACE_STYLE_USAGE ( .BOTH. , #50 ) ;
#143 = COLOUR_RGB ( '',1.000000000000000000, 0.000000000000000000, 0.000000000000000000 ) ;
#144 =( CONVERSION_BASED_UNIT ( 'INCH', #285 ) LENGTH_UNIT ( ) NAMED_UNIT ( #290 ) );
#145 = LENGTH_MEASURE_WITH_UNIT ( LENGTH_MEASURE( 0.02539999999999999897 ), #213 );
#146 = CIRCLE ( 'NONE', #56, 0.1562500000000000000 ) ;
#147 = UNCERTAINTY_MEASURE_WITH_UNIT (LENGTH_MEASURE( 1.000000000000000082E-05 ), #144, 'distance_accuracy_value', 'NONE');
#148 =( GEOMETRIC_REPRESENTATION_CONTEXT ( 3 ) GLOBAL_UNCERTAINTY_ASSIGNED_CONTEXT ( ( #216 ) ) GLOBAL_UNIT_ASSIGNED_CONTEXT ( ( #281, #178, #23 ) ) REPRESENTATION_CONTEXT ( 'NONE', 'WORKASPACE' ) );
#149 = AXIS2_PLACEMENT_3D ( 'NONE', #231, #118, #24 ) ;
#150 = DIRECTION ( 'NONE',  ( -3.061616997868386099E-17, 1.000000000000000000, 0.000000000000000000 ) ) ;
#151 = CYLINDRICAL_SURFACE ( 'NONE', #55, 0.1562500000000000000 ) ;
#152 = EDGE_LOOP ( 'NONE', ( #14, #157 ) ) ;
#153 =( GEOMETRIC_REPRESENTATION_CONTEXT ( 3 ) GLOBAL_UNCERTAINTY_ASSIGNED_CONTEXT ( ( #237 ) ) GLOBAL_UNIT_ASSIGNED_CONTEXT ( ( #141, #208, #257 ) ) REPRESENTATION_CONTEXT ( 'NONE', 'WORKASPACE' ) );
#154 = PRESENTATION_STYLE_ASSIGNMENT (( #277 ) ) ;
#155 = STYLED_ITEM ( 'NONE', ( #58 ), #202 ) ;
#156 = SURFACE_STYLE_USAGE ( .BOTH. , #47 ) ;
#157 = ORIENTED_EDGE ( 'NONE', *, *, #234, .F. ) ;
#158 = PRODUCT_DEFINITION ( 'UNKNOWN', '', #29, #48 ) ;
#159 = DIRECTION ( 'NONE',  ( -3.061616997868386099E-17, 1.000000000000000000, -0.000000000000000000 ) ) ;
#160 = PRESENTATION_STYLE_ASSIGNMENT (( #88 ) ) ;
#161 = PRODUCT ( '86033', '86033', '', ( #54 ) ) ;
#162 = DIRECTION ( 'NONE',  ( 0.000000000000000000, 0.000000000000000000, -1.000000000000000000 ) ) ;
#163 = EDGE_LOOP ( 'NONE', ( #176, #77, #134, #297 ) ) ;
#164 = VECTOR ( 'NONE', #278, 39.37007874015748143 ) ;
#165 = UNCERTAINTY_MEASURE_WITH_UNIT (LENGTH_MEASURE( 1.000000000000000082E-05 ), #193, 'distance_accuracy_value', 'NONE');
#166 = MECHANICAL_DESIGN_GEOMETRIC_PRESENTATION_REPRESENTATION (  '', ( #96 ), #37 ) ;
#167 =( NAMED_UNIT ( * ) PLANE_ANGLE_UNIT ( ) SI_UNIT ( $, .RADIAN. ) );
#168 = FILL_AREA_STYLE_COLOUR ( '', #262 ) ;
#169 = PRESENTATION_LAYER_ASSIGNMENT (  '', '', ( #286 ) ) ;
#170 = EDGE_LOOP ( 'NONE', ( #251, #294 ) ) ;
#171 = CARTESIAN_POINT ( 'NONE',  ( -0.1562500000000001110, 3.000000000000000444, 0.000000000000000000 ) ) ;
#172 = LINE ( 'NONE', #299, #164 ) ;
#173 = CLOSED_SHELL ( 'NONE', ( #99, #265, #202, #288 ) ) ;
#174 = DIRECTION ( 'NONE',  ( -3.061616997868386099E-17, 1.000000000000000000, -0.000000000000000000 ) ) ;
#175 = DIRECTION ( 'NONE',  ( -3.061616997868386099E-17, 1.000000000000000000, -0.000000000000000000 ) ) ;
#176 = ORIENTED_EDGE ( 'NONE', *, *, #225, .F. ) ;
#177 = AXIS2_PLACEMENT_3D ( 'NONE', #51, #2, #27 ) ;
#178 =( NAMED_UNIT ( * ) PLANE_ANGLE_UNIT ( ) SI_UNIT ( $, .RADIAN. ) );
#179 = FILL_AREA_STYLE ('',( #17 ) ) ;
#180 = CYLINDRICAL_SURFACE ( 'NONE', #149, 0.1562500000000000278 ) ;
#181 = EDGE_CURVE ( 'NONE', #194, #64, #271, .T. ) ;
#182 = SURFACE_STYLE_FILL_AREA ( #19 ) ;
#183 = AXIS2_PLACEMENT_3D ( 'NONE', #189, #150, #57 ) ;
#184 = VECTOR ( 'NONE', #256, 39.37007874015748143 ) ;
#185 = DIRECTION ( 'NONE',  ( -3.061616997868386099E-17, 1.000000000000000000, -0.000000000000000000 ) ) ;
#186 = EDGE_CURVE ( 'NONE', #64, #296, #84, .T. ) ;
#187 = SURFACE_STYLE_FILL_AREA ( #7 ) ;
#188 =( GEOMETRIC_REPRESENTATION_CONTEXT ( 3 ) GLOBAL_UNCERTAINTY_ASSIGNED_CONTEXT ( ( #206 ) ) GLOBAL_UNIT_ASSIGNED_CONTEXT ( ( #298, #85, #18 ) ) REPRESENTATION_CONTEXT ( 'NONE', 'WORKASPACE' ) );
#189 = CARTESIAN_POINT ( 'NONE',  ( 7.323045813778616568E-35, 1.000000000000000000, 0.000000000000000000 ) ) ;
#190 = PRESENTATION_LAYER_ASSIGNMENT (  '', '', ( #284 ) ) ;
#191 = AXIS2_PLACEMENT_3D ( 'NONE', #93, #185, #258 ) ;
#192 = EDGE_CURVE ( 'NONE', #296, #64, #30, .T. ) ;
#193 =( CONVERSION_BASED_UNIT ( 'INCH', #145 ) LENGTH_UNIT ( ) NAMED_UNIT ( #123 ) );
#194 = VERTEX_POINT ( 'NONE', #266 ) ;
#195 = ADVANCED_FACE ( 'NONE', ( #289 ), #293, .F. ) ;
#196 = CARTESIAN_POINT ( 'NONE',  ( -6.123233995736772199E-17, 3.000000000000000444, 0.000000000000000000 ) ) ;
#197 = EDGE_LOOP ( 'NONE', ( #217, #102, #81, #242 ) ) ;
#198 = ORIENTED_EDGE ( 'NONE', *, *, #238, .T. ) ;
#199 = PRESENTATION_STYLE_ASSIGNMENT (( #156 ) ) ;
#200 = ORIENTED_EDGE ( 'NONE', *, *, #186, .F. ) ;
#201 = FILL_AREA_STYLE ('',( #224 ) ) ;
#202 = ADVANCED_FACE ( 'NONE', ( #101 ), #75, .T. ) ;
#203 = DIRECTION ( 'NONE',  ( -1.000000000000000000, 0.000000000000000000, 0.000000000000000000 ) ) ;
#204 = FACE_OUTER_BOUND ( 'NONE', #42, .T. ) ;
#205 = COLOUR_RGB ( '',0.7921568627450980005, 0.8196078431372548767, 0.9333333333333333481 ) ;
#206 = UNCERTAINTY_MEASURE_WITH_UNIT (LENGTH_MEASURE( 1.000000000000000082E-05 ), #298, 'distance_accuracy_value', 'NONE');
#207 = DIRECTION ( 'NONE',  ( -3.061616997868386099E-17, 1.000000000000000000, -0.000000000000000000 ) ) ;
#208 =( NAMED_UNIT ( * ) PLANE_ANGLE_UNIT ( ) SI_UNIT ( $, .RADIAN. ) );
#209 = UNCERTAINTY_MEASURE_WITH_UNIT (LENGTH_MEASURE( 1.000000000000000082E-05 ), #82, 'distance_accuracy_value', 'NONE');
#210 = DIRECTION ( 'NONE',  ( -0.000000000000000000, -1.000000000000000000, -0.000000000000000000 ) ) ;
#211 = PRESENTATION_LAYER_ASSIGNMENT (  '', '', ( #155 ) ) ;
#212 = CIRCLE ( 'NONE', #241, 0.1562500000000000833 ) ;
#213 =( LENGTH_UNIT ( ) NAMED_UNIT ( * ) SI_UNIT ( $, .METRE. ) );
#214 = DIRECTION ( 'NONE',  ( 0.000000000000000000, 0.000000000000000000, -1.000000000000000000 ) ) ;
#215 = DIMENSIONAL_EXPONENTS ( 1.000000000000000000, 0.000000000000000000, 0.000000000000000000, 0.000000000000000000, 0.000000000000000000, 0.000000000000000000, 0.000000000000000000 ) ;
#216 = UNCERTAINTY_MEASURE_WITH_UNIT (LENGTH_MEASURE( 1.000000000000000082E-05 ), #281, 'distance_accuracy_value', 'NONE');
#217 = ORIENTED_EDGE ( 'NONE', *, *, #1, .F. ) ;
#218 = AXIS2_PLACEMENT_3D ( 'NONE', #112, #16, #203 ) ;
#219 = SURFACE_SIDE_STYLE ('',( #41 ) ) ;
#220 =( NAMED_UNIT ( * ) PLANE_ANGLE_UNIT ( ) SI_UNIT ( $, .RADIAN. ) );
#221 = ORIENTED_EDGE ( 'NONE', *, *, #225, .T. ) ;
#222 = FILL_AREA_STYLE_COLOUR ( '', #300 ) ;
#223 = DIRECTION ( 'NONE',  ( -0.000000000000000000, -1.000000000000000000, -0.000000000000000000 ) ) ;
#224 = FILL_AREA_STYLE_COLOUR ( '', #205 ) ;
#225 = EDGE_CURVE ( 'NONE', #11, #107, #100, .T. ) ;
#226 = STYLED_ITEM ( 'NONE', ( #199 ), #288 ) ;
#227 = CARTESIAN_POINT ( 'NONE',  ( 0.000000000000000000, 1.000000000000000000, 0.000000000000000000 ) ) ;
#228 = SURFACE_STYLE_USAGE ( .BOTH. , #136 ) ;
#229 = ADVANCED_BREP_SHAPE_REPRESENTATION ( '86033', ( #22, #116, #177 ), #140 ) ;
#230 = LENGTH_MEASURE_WITH_UNIT ( LENGTH_MEASURE( 0.02539999999999999897 ), #126 );
#231 = CARTESIAN_POINT ( 'NONE',  ( -6.123233995736772199E-17, 3.000000000000000444, 0.000000000000000000 ) ) ;
#232 = PRESENTATION_LAYER_ASSIGNMENT (  '', '', ( #40 ) ) ;
#233 = FACE_OUTER_BOUND ( 'NONE', #163, .T. ) ;
#234 = EDGE_CURVE ( 'NONE', #34, #194, #240, .T. ) ;
#235 = CARTESIAN_POINT ( 'NONE',  ( 0.000000000000000000, 0.000000000000000000, -0.1562500000000000000 ) ) ;
#236 = CARTESIAN_POINT ( 'NONE',  ( 0.000000000000000000, 0.000000000000000000, -0.1562500000000000000 ) ) ;
#237 = UNCERTAINTY_MEASURE_WITH_UNIT (LENGTH_MEASURE( 1.000000000000000082E-05 ), #141, 'distance_accuracy_value', 'NONE');
#238 = EDGE_CURVE ( 'NONE', #194, #34, #146, .T. ) ;
#239 = MECHANICAL_DESIGN_GEOMETRIC_PRESENTATION_REPRESENTATION (  '', ( #40 ), #188 ) ;
#240 = CIRCLE ( 'NONE', #110, 0.1562500000000000000 ) ;
#241 = AXIS2_PLACEMENT_3D ( 'NONE', #307, #36, #108 ) ;
#242 = ORIENTED_EDGE ( 'NONE', *, *, #192, .F. ) ;
#243 = DIRECTION ( 'NONE',  ( 0.000000000000000000, 0.000000000000000000, -1.000000000000000000 ) ) ;
#244 = EDGE_LOOP ( 'NONE', ( #198, #273, #200, #15 ) ) ;
#245 = MECHANICAL_DESIGN_GEOMETRIC_PRESENTATION_REPRESENTATION (  '', ( #226 ), #61 ) ;
#246 = DIRECTION ( 'NONE',  ( -1.000000000000000000, 0.000000000000000000, 0.000000000000000000 ) ) ;
#247 = PLANE ( 'NONE',  #295 ) ;
#248 = ORIENTED_EDGE ( 'NONE', *, *, #113, .F. ) ;
#249 = ORIENTED_EDGE ( 'NONE', *, *, #137, .F. ) ;
#250 = ADVANCED_FACE ( 'NONE', ( #52 ), #287, .F. ) ;
#251 = ORIENTED_EDGE ( 'NONE', *, *, #113, .T. ) ;
#252 = CIRCLE ( 'NONE', #122, 0.1562500000000000000 ) ;
#253 =( NAMED_UNIT ( * ) PLANE_ANGLE_UNIT ( ) SI_UNIT ( $, .RADIAN. ) );
#254 = PRESENTATION_LAYER_ASSIGNMENT (  '', '', ( #226 ) ) ;
#255 = DIRECTION ( 'NONE',  ( 0.000000000000000000, -0.000000000000000000, 1.000000000000000000 ) ) ;
#256 = DIRECTION ( 'NONE',  ( -0.000000000000000000, -1.000000000000000000, -0.000000000000000000 ) ) ;
#257 =( NAMED_UNIT ( * ) SI_UNIT ( $, .STERADIAN. ) SOLID_ANGLE_UNIT ( ) );
#258 = DIRECTION ( 'NONE',  ( -1.000000000000000000, 0.000000000000000000, 0.000000000000000000 ) ) ;
#259 = LENGTH_MEASURE_WITH_UNIT ( LENGTH_MEASURE( 0.02539999999999999897 ), #26 );
#260 = DIRECTION ( 'NONE',  ( 1.000000000000000000, 3.061616997868386099E-17, 0.000000000000000000 ) ) ;
#261 = APPLICATION_CONTEXT ( 'automotive_design' ) ;
#262 = COLOUR_RGB ( '',1.000000000000000000, 0.000000000000000000, 0.000000000000000000 ) ;
#263 = DIMENSIONAL_EXPONENTS ( 1.000000000000000000, 0.000000000000000000, 0.000000000000000000, 0.000000000000000000, 0.000000000000000000, 0.000000000000000000, 0.000000000000000000 ) ;
#264 = DIRECTION ( 'NONE',  ( 0.000000000000000000, 0.000000000000000000, -1.000000000000000000 ) ) ;
#265 = ADVANCED_FACE ( 'NONE', ( #4 ), #94, .T. ) ;
#266 = CARTESIAN_POINT ( 'NONE',  ( 0.000000000000000000, 1.000000000000000000, -0.1562500000000000000 ) ) ;
#267 = FILL_AREA_STYLE ('',( #120 ) ) ;
#268 = DIMENSIONAL_EXPONENTS ( 1.000000000000000000, 0.000000000000000000, 0.000000000000000000, 0.000000000000000000, 0.000000000000000000, 0.000000000000000000, 0.000000000000000000 ) ;
#269 = DIMENSIONAL_EXPONENTS ( 1.000000000000000000, 0.000000000000000000, 0.000000000000000000, 0.000000000000000000, 0.000000000000000000, 0.000000000000000000, 0.000000000000000000 ) ;
#270 = CARTESIAN_POINT ( 'NONE',  ( 0.1562500000000000000, 1.000000000000000000, 1.913510623667739771E-17 ) ) ;
#271 = LINE ( 'NONE', #236, #184 ) ;
#272 =( LENGTH_UNIT ( ) NAMED_UNIT ( * ) SI_UNIT ( $, .METRE. ) );
#273 = ORIENTED_EDGE ( 'NONE', *, *, #1, .T. ) ;
#274 = MECHANICAL_DESIGN_GEOMETRIC_PRESENTATION_REPRESENTATION (  '', ( #286 ), #148 ) ;
#275 = FILL_AREA_STYLE ('',( #279 ) ) ;
#276 = CARTESIAN_POINT ( 'NONE',  ( 0.000000000000000000, 1.000000000000000000, 0.000000000000000000 ) ) ;
#277 = SURFACE_STYLE_USAGE ( .BOTH. , #13 ) ;
#278 = DIRECTION ( 'NONE',  ( -0.000000000000000000, -1.000000000000000000, -0.000000000000000000 ) ) ;
#279 = FILL_AREA_STYLE_COLOUR ( '', #143 ) ;
#280 = MECHANICAL_DESIGN_GEOMETRIC_PRESENTATION_REPRESENTATION (  '', ( #155 ), #25 ) ;
#281 =( CONVERSION_BASED_UNIT ( 'INCH', #106 ) LENGTH_UNIT ( ) NAMED_UNIT ( #215 ) );
#282 = CARTESIAN_POINT ( 'NONE',  ( 0.000000000000000000, 0.000000000000000000, 0.000000000000000000 ) ) ;
#283 = PRESENTATION_STYLE_ASSIGNMENT (( #228 ) ) ;
#284 = STYLED_ITEM ( 'NONE', ( #283 ), #22 ) ;
#285 = LENGTH_MEASURE_WITH_UNIT ( LENGTH_MEASURE( 0.02539999999999999897 ), #69 );
#286 = STYLED_ITEM ( 'NONE', ( #127 ), #265 ) ;
#287 = PLANE ( 'NONE',  #291 ) ;
#288 = ADVANCED_FACE ( 'NONE', ( #133 ), #247, .T. ) ;
#289 = FACE_OUTER_BOUND ( 'NONE', #86, .T. ) ;
#290 = DIMENSIONAL_EXPONENTS ( 1.000000000000000000, 0.000000000000000000, 0.000000000000000000, 0.000000000000000000, 0.000000000000000000, 0.000000000000000000, 0.000000000000000000 ) ;
#291 = AXIS2_PLACEMENT_3D ( 'NONE', #308, #98, #260 ) ;
#292 =( NAMED_UNIT ( * ) SI_UNIT ( $, .STERADIAN. ) SOLID_ANGLE_UNIT ( ) );
#293 = PLANE ( 'NONE',  #183 ) ;
#294 = ORIENTED_EDGE ( 'NONE', *, *, #87, .T. ) ;
#295 = AXIS2_PLACEMENT_3D ( 'NONE', #92, #63, #162 ) ;
#296 = VERTEX_POINT ( 'NONE', #303 ) ;
#297 = ORIENTED_EDGE ( 'NONE', *, *, #87, .F. ) ;
#298 =( CONVERSION_BASED_UNIT ( 'INCH', #230 ) LENGTH_UNIT ( ) NAMED_UNIT ( #268 ) );
#299 = CARTESIAN_POINT ( 'NONE',  ( 1.913510623667739463E-17, 0.000000000000000000, 0.1562500000000000000 ) ) ;
#300 = COLOUR_RGB ( '',1.000000000000000000, 0.000000000000000000, 0.000000000000000000 ) ;
#301 =( LENGTH_UNIT ( ) NAMED_UNIT ( * ) SI_UNIT ( $, .METRE. ) );
#302 = EDGE_LOOP ( 'NONE', ( #43, #39 ) ) ;
#303 = CARTESIAN_POINT ( 'NONE',  ( 1.913510623667739463E-17, 0.000000000000000000, 0.1562500000000000000 ) ) ;
#304 = CARTESIAN_POINT ( 'NONE',  ( -0.1562500000000000000, 1.000000000000000000, 0.000000000000000000 ) ) ;
#305 = CYLINDRICAL_SURFACE ( 'NONE', #191, 0.1562500000000000278 ) ;
#306 = APPLICATION_PROTOCOL_DEFINITION ( 'draft international standard', 'automotive_design', 1998, #261 ) ;
#307 = CARTESIAN_POINT ( 'NONE',  ( -6.123233995736772199E-17, 3.000000000000000444, 0.000000000000000000 ) ) ;
#308 = CARTESIAN_POINT ( 'NONE',  ( 0.1562500000000000000, 3.000000000000000444, 0.000000000000000000 ) ) ;
#309 = CARTESIAN_POINT ( 'NONE',  ( 0.000000000000000000, 0.000000000000000000, 0.000000000000000000 ) ) ;
ENDSEC;
END-ISO-10303-21;
