ISO-10303-21;
HEADER;
FILE_DESCRIPTION (( 'STEP AP214' ),
    '1' );
FILE_NAME ('Micro_RTCM-080-2.STEP',
    '2021-09-03T18:26:19',
    ( '' ),
    ( '' ),
    'SwSTEP 2.0',
    'SolidWorks 2020',
    '' );
FILE_SCHEMA (( 'AUTOMOTIVE_DESIGN' ));
ENDSEC;

DATA;
#1 = COLOUR_RGB ( '',0.7921568627450980005, 0.8196078431372548767, 0.9333333333333333481 ) ;
#2 = AXIS2_PLACEMENT_3D ( 'NONE', #121, #57, #40 ) ;
#3 = VERTEX_POINT ( 'NONE', #100 ) ;
#4 = ORIENTED_EDGE ( 'NONE', *, *, #44, .F. ) ;
#5 = CLOSED_SHELL ( 'NONE', ( #217, #96, #114, #185, #165, #210, #128, #63 ) ) ;
#6 = DIRECTION ( 'NONE',  ( 1.000000000000000000, 0.0000000000000000000, -0.0000000000000000000 ) ) ;
#7 = ORIENTED_EDGE ( 'NONE', *, *, #144, .F. ) ;
#8 = ORIENTED_EDGE ( 'NONE', *, *, #206, .F. ) ;
#9 = DIRECTION ( 'NONE',  ( 0.0000000000000000000, 0.0000000000000000000, -1.000000000000000000 ) ) ;
#10 = DIRECTION ( 'NONE',  ( -0.0000000000000000000, -0.0000000000000000000, -1.000000000000000000 ) ) ;
#11 = PRESENTATION_STYLE_ASSIGNMENT (( #176 ) ) ;
#12 = AXIS2_PLACEMENT_3D ( 'NONE', #219, #48, #248 ) ;
#13 = DIRECTION ( 'NONE',  ( 0.2588190451025217387, 0.0000000000000000000, -0.9659258262890679791 ) ) ;
#14 = FACE_OUTER_BOUND ( 'NONE', #233, .T. ) ;
#15 = EDGE_CURVE ( 'NONE', #3, #243, #236, .T. ) ;
#16 = SURFACE_STYLE_USAGE ( .BOTH. , #54 ) ;
#17 = AXIS2_PLACEMENT_3D ( 'NONE', #190, #97, #6 ) ;
#18 = MECHANICAL_DESIGN_GEOMETRIC_PRESENTATION_REPRESENTATION (  '', ( #163 ), #227 ) ;
#19 = ORIENTED_EDGE ( 'NONE', *, *, #27, .F. ) ;
#20 = LINE ( 'NONE', #193, #22 ) ;
#21 = ORIENTED_EDGE ( 'NONE', *, *, #191, .F. ) ;
#22 = VECTOR ( 'NONE', #238, 39.37007874015748854 ) ;
#23 = DIRECTION ( 'NONE',  ( -1.000000000000000000, 0.0000000000000000000, 0.0000000000000000000 ) ) ;
#24 = DIRECTION ( 'NONE',  ( -1.000000000000000000, 0.0000000000000000000, 0.0000000000000000000 ) ) ;
#25 = ORIENTED_EDGE ( 'NONE', *, *, #44, .T. ) ;
#26 = LINE ( 'NONE', #174, #93 ) ;
#27 = EDGE_CURVE ( 'NONE', #153, #172, #150, .T. ) ;
#28 = FILL_AREA_STYLE ('',( #199 ) ) ;
#29 = LENGTH_MEASURE_WITH_UNIT ( LENGTH_MEASURE( 0.02539999999999999897 ), #247 );
#30 = DIMENSIONAL_EXPONENTS ( 1.000000000000000000, 0.0000000000000000000, 0.0000000000000000000, 0.0000000000000000000, 0.0000000000000000000, 0.0000000000000000000, 0.0000000000000000000 ) ;
#31 = AXIS2_PLACEMENT_3D ( 'NONE', #122, #72, #141 ) ;
#32 = DIRECTION ( 'NONE',  ( -1.000000000000000000, 0.0000000000000000000, 0.0000000000000000000 ) ) ;
#33 = DIRECTION ( 'NONE',  ( -1.000000000000000000, 0.0000000000000000000, 0.0000000000000000000 ) ) ;
#34 = APPLICATION_CONTEXT ( 'automotive_design' ) ;
#35 = FILL_AREA_STYLE_COLOUR ( '', #146 ) ;
#36 = APPLICATION_PROTOCOL_DEFINITION ( 'draft international standard', 'automotive_design', 1998, #34 ) ;
#37 = AXIS2_PLACEMENT_3D ( 'NONE', #179, #68, #53 ) ;
#38 = VERTEX_POINT ( 'NONE', #130 ) ;
#39 = EDGE_CURVE ( 'NONE', #94, #38, #137, .T. ) ;
#40 = DIRECTION ( 'NONE',  ( 1.000000000000000000, 0.0000000000000000000, 0.0000000000000000000 ) ) ;
#41 = DIRECTION ( 'NONE',  ( -1.000000000000000000, 0.0000000000000000000, 0.0000000000000000000 ) ) ;
#42 = FACE_OUTER_BOUND ( 'NONE', #213, .T. ) ;
#43 = CARTESIAN_POINT ( 'NONE',  ( 0.0000000000000000000, 0.0000000000000000000, 0.0000000000000000000 ) ) ;
#44 = EDGE_CURVE ( 'NONE', #38, #61, #214, .T. ) ;
#45 = CIRCLE ( 'NONE', #111, 0.003936999999999995191 ) ;
#46 = ORIENTED_EDGE ( 'NONE', *, *, #15, .T. ) ;
#47 = VERTEX_POINT ( 'NONE', #62 ) ;
#48 = DIRECTION ( 'NONE',  ( 0.0000000000000000000, 0.0000000000000000000, 1.000000000000000000 ) ) ;
#49 = AXIS2_PLACEMENT_3D ( 'NONE', #119, #9, #152 ) ;
#50 = CARTESIAN_POINT ( 'NONE',  ( -0.003936999999999995191, -9.883971235068395834E-18, 2.480315000000000047 ) ) ;
#51 = EDGE_CURVE ( 'NONE', #243, #47, #20, .T. ) ;
#52 = CARTESIAN_POINT ( 'NONE',  ( 0.0000000000000000000, 0.0000000000000000000, 2.480315000000000047 ) ) ;
#53 = DIRECTION ( 'NONE',  ( -1.000000000000000000, 0.0000000000000000000, 0.0000000000000000000 ) ) ;
#54 = SURFACE_SIDE_STYLE ('',( #230 ) ) ;
#55 = ORIENTED_EDGE ( 'NONE', *, *, #109, .T. ) ;
#56 = EDGE_CURVE ( 'NONE', #47, #153, #181, .T. ) ;
#57 = DIRECTION ( 'NONE',  ( 0.0000000000000000000, 0.0000000000000000000, 1.000000000000000000 ) ) ;
#58 = ORIENTED_EDGE ( 'NONE', *, *, #180, .F. ) ;
#59 = ORIENTED_EDGE ( 'NONE', *, *, #237, .T. ) ;
#60 = CONICAL_SURFACE ( 'NONE', #31, 0.003936999999999995191, 0.2617993877991504625 ) ;
#61 = VERTEX_POINT ( 'NONE', #64 ) ;
#62 = CARTESIAN_POINT ( 'NONE',  ( -0.1574804999999999955, 0.0000000000000000000, 1.907282856828050432 ) ) ;
#63 = ADVANCED_FACE ( 'NONE', ( #42 ), #115, .T. ) ;
#64 = CARTESIAN_POINT ( 'NONE',  ( -0.1574804999999999955, 0.0000000000000000000, 0.5730321431719496150 ) ) ;
#65 = AXIS2_PLACEMENT_3D ( 'NONE', #105, #89, #135 ) ;
#66 = ORIENTED_EDGE ( 'NONE', *, *, #51, .T. ) ;
#67 = CARTESIAN_POINT ( 'NONE',  ( 0.0000000000000000000, 0.0000000000000000000, 0.5730321431719496150 ) ) ;
#68 = DIRECTION ( 'NONE',  ( -0.0000000000000000000, -0.0000000000000000000, -1.000000000000000000 ) ) ;
#69 = CIRCLE ( 'NONE', #168, 0.1574804999999999955 ) ;
#70 = PRODUCT_DEFINITION ( 'UNKNOWN', '', #138, #73 ) ;
#71 = LINE ( 'NONE', #102, #151 ) ;
#72 = DIRECTION ( 'NONE',  ( 0.0000000000000000000, 0.0000000000000000000, 1.000000000000000000 ) ) ;
#73 = PRODUCT_DEFINITION_CONTEXT ( 'detailed design', #80, 'design' ) ;
#74 =( NAMED_UNIT ( * ) SI_UNIT ( $, .STERADIAN. ) SOLID_ANGLE_UNIT ( ) );
#75 =( NAMED_UNIT ( * ) SI_UNIT ( $, .STERADIAN. ) SOLID_ANGLE_UNIT ( ) );
#76 = UNCERTAINTY_MEASURE_WITH_UNIT (LENGTH_MEASURE( 1.000000000000000082E-05 ), #186, 'distance_accuracy_value', 'NONE');
#77 =( NAMED_UNIT ( * ) SI_UNIT ( $, .STERADIAN. ) SOLID_ANGLE_UNIT ( ) );
#78 = AXIS2_PLACEMENT_3D ( 'NONE', #244, #224, #33 ) ;
#79 = EDGE_LOOP ( 'NONE', ( #125, #147, #234, #240 ) ) ;
#80 = APPLICATION_CONTEXT ( 'automotive_design' ) ;
#81 = ORIENTED_EDGE ( 'NONE', *, *, #27, .T. ) ;
#82 = CARTESIAN_POINT ( 'NONE',  ( 0.003936999999999995191, 0.0000000000000000000, 0.0000000000000000000 ) ) ;
#83 = ORIENTED_EDGE ( 'NONE', *, *, #109, .F. ) ;
#84 = ORIENTED_EDGE ( 'NONE', *, *, #56, .T. ) ;
#85 = AXIS2_PLACEMENT_3D ( 'NONE', #157, #86, #123 ) ;
#86 = DIRECTION ( 'NONE',  ( 0.0000000000000000000, 0.0000000000000000000, -1.000000000000000000 ) ) ;
#87 = FACE_OUTER_BOUND ( 'NONE', #166, .T. ) ;
#88 = CIRCLE ( 'NONE', #188, 0.1574804999999999955 ) ;
#89 = DIRECTION ( 'NONE',  ( 0.0000000000000000000, 0.0000000000000000000, -1.000000000000000000 ) ) ;
#90 = FACE_OUTER_BOUND ( 'NONE', #79, .T. ) ;
#91 =( NAMED_UNIT ( * ) PLANE_ANGLE_UNIT ( ) SI_UNIT ( $, .RADIAN. ) );
#92 = PRODUCT_RELATED_PRODUCT_CATEGORY ( 'part', '', ( #175 ) ) ;
#93 = VECTOR ( 'NONE', #10, 39.37007874015748143 ) ;
#94 = VERTEX_POINT ( 'NONE', #82 ) ;
#95 = ORIENTED_EDGE ( 'NONE', *, *, #191, .T. ) ;
#96 = ADVANCED_FACE ( 'NONE', ( #98 ), #220, .T. ) ;
#97 = DIRECTION ( 'NONE',  ( 0.0000000000000000000, 0.0000000000000000000, 1.000000000000000000 ) ) ;
#98 = FACE_OUTER_BOUND ( 'NONE', #149, .T. ) ;
#99 = FACE_OUTER_BOUND ( 'NONE', #218, .T. ) ;
#100 = CARTESIAN_POINT ( 'NONE',  ( 0.003936999999999995191, 0.0000000000000000000, 2.480315000000000047 ) ) ;
#101 = DIMENSIONAL_EXPONENTS ( 1.000000000000000000, 0.0000000000000000000, 0.0000000000000000000, 0.0000000000000000000, 0.0000000000000000000, 0.0000000000000000000, 0.0000000000000000000 ) ;
#102 = CARTESIAN_POINT ( 'NONE',  ( 0.003936999999999995191, 0.0000000000000000000, 0.0000000000000000000 ) ) ;
#103 = SURFACE_STYLE_FILL_AREA ( #28 ) ;
#104 = DIRECTION ( 'NONE',  ( -1.000000000000000000, 0.0000000000000000000, 0.0000000000000000000 ) ) ;
#105 = CARTESIAN_POINT ( 'NONE',  ( 0.0000000000000000000, 0.0000000000000000000, 2.480315000000000047 ) ) ;
#106 = PRESENTATION_STYLE_ASSIGNMENT (( #16 ) ) ;
#107 = PRESENTATION_LAYER_ASSIGNMENT (  '', '', ( #222 ) ) ;
#108 = APPLICATION_PROTOCOL_DEFINITION ( 'draft international standard', 'automotive_design', 1998, #80 ) ;
#109 = EDGE_CURVE ( 'NONE', #172, #61, #88, .T. ) ;
#110 = EDGE_LOOP ( 'NONE', ( #4, #235, #116, #55 ) ) ;
#111 = AXIS2_PLACEMENT_3D ( 'NONE', #136, #221, #32 ) ;
#112 =( GEOMETRIC_REPRESENTATION_CONTEXT ( 3 ) GLOBAL_UNCERTAINTY_ASSIGNED_CONTEXT ( ( #76 ) ) GLOBAL_UNIT_ASSIGNED_CONTEXT ( ( #186, #91, #74 ) ) REPRESENTATION_CONTEXT ( 'NONE', 'WORKASPACE' ) );
#113 = ORIENTED_EDGE ( 'NONE', *, *, #231, .F. ) ;
#114 = ADVANCED_FACE ( 'NONE', ( #99 ), #171, .T. ) ;
#115 = PLANE ( 'NONE',  #17 ) ;
#116 = ORIENTED_EDGE ( 'NONE', *, *, #173, .T. ) ;
#117 = CONICAL_SURFACE ( 'NONE', #85, 0.003936999999999995191, 0.2617993877991504625 ) ;
#118 = DIRECTION ( 'NONE',  ( -0.0000000000000000000, -0.0000000000000000000, -1.000000000000000000 ) ) ;
#119 = CARTESIAN_POINT ( 'NONE',  ( 0.0000000000000000000, 0.0000000000000000000, 2.480315000000000047 ) ) ;
#120 = DIRECTION ( 'NONE',  ( 0.0000000000000000000, 0.0000000000000000000, -1.000000000000000000 ) ) ;
#121 = CARTESIAN_POINT ( 'NONE',  ( 0.0000000000000000000, 0.0000000000000000000, 0.0000000000000000000 ) ) ;
#122 = CARTESIAN_POINT ( 'NONE',  ( 0.0000000000000000000, 0.0000000000000000000, 0.0000000000000000000 ) ) ;
#123 = DIRECTION ( 'NONE',  ( 1.000000000000000000, 0.0000000000000000000, 0.0000000000000000000 ) ) ;
#124 = DIRECTION ( 'NONE',  ( -0.0000000000000000000, -0.0000000000000000000, -1.000000000000000000 ) ) ;
#125 = ORIENTED_EDGE ( 'NONE', *, *, #51, .F. ) ;
#126 =( LENGTH_UNIT ( ) NAMED_UNIT ( * ) SI_UNIT ( $, .METRE. ) );
#127 = ORIENTED_EDGE ( 'NONE', *, *, #39, .T. ) ;
#128 = ADVANCED_FACE ( 'NONE', ( #90 ), #117, .T. ) ;
#129 = AXIS2_PLACEMENT_3D ( 'NONE', #158, #124, #104 ) ;
#130 = CARTESIAN_POINT ( 'NONE',  ( -0.003936999999999995191, 9.883971235068394293E-18, 0.0000000000000000000 ) ) ;
#131 = CARTESIAN_POINT ( 'NONE',  ( 0.0000000000000000000, 0.0000000000000000000, 1.907282856828050432 ) ) ;
#132 = ORIENTED_EDGE ( 'NONE', *, *, #231, .T. ) ;
#133 = DIRECTION ( 'NONE',  ( 1.000000000000000000, 0.0000000000000000000, 0.0000000000000000000 ) ) ;
#134 = ORIENTED_EDGE ( 'NONE', *, *, #180, .T. ) ;
#135 = DIRECTION ( 'NONE',  ( -1.000000000000000000, 0.0000000000000000000, 0.0000000000000000000 ) ) ;
#136 = CARTESIAN_POINT ( 'NONE',  ( 0.0000000000000000000, 0.0000000000000000000, 0.0000000000000000000 ) ) ;
#137 = CIRCLE ( 'NONE', #192, 0.003936999999999995191 ) ;
#138 = PRODUCT_DEFINITION_FORMATION_WITH_SPECIFIED_SOURCE ( 'ANY', '', #175, .NOT_KNOWN. ) ;
#139 = CARTESIAN_POINT ( 'NONE',  ( 0.003936999999999995191, 0.0000000000000000000, 2.480315000000000047 ) ) ;
#140 = FACE_OUTER_BOUND ( 'NONE', #155, .T. ) ;
#141 = DIRECTION ( 'NONE',  ( 1.000000000000000000, 0.0000000000000000000, 0.0000000000000000000 ) ) ;
#142 = VECTOR ( 'NONE', #189, 39.37007874015748143 ) ;
#143 =( GEOMETRIC_REPRESENTATION_CONTEXT ( 3 ) GLOBAL_UNCERTAINTY_ASSIGNED_CONTEXT ( ( #161 ) ) GLOBAL_UNIT_ASSIGNED_CONTEXT ( ( #211, #148, #75 ) ) REPRESENTATION_CONTEXT ( 'NONE', 'WORKASPACE' ) );
#144 = EDGE_CURVE ( 'NONE', #3, #153, #160, .T. ) ;
#145 = VECTOR ( 'NONE', #169, 39.37007874015748854 ) ;
#146 = COLOUR_RGB ( '',0.7921568627450980005, 0.8196078431372548767, 0.9333333333333333481 ) ;
#147 = ORIENTED_EDGE ( 'NONE', *, *, #206, .T. ) ;
#148 =( NAMED_UNIT ( * ) PLANE_ANGLE_UNIT ( ) SI_UNIT ( $, .RADIAN. ) );
#149 = EDGE_LOOP ( 'NONE', ( #187, #25, #95, #209 ) ) ;
#150 = LINE ( 'NONE', #195, #142 ) ;
#151 = VECTOR ( 'NONE', #202, 39.37007874015748854 ) ;
#152 = DIRECTION ( 'NONE',  ( -1.000000000000000000, 0.0000000000000000000, 0.0000000000000000000 ) ) ;
#153 = VERTEX_POINT ( 'NONE', #223 ) ;
#154 = CARTESIAN_POINT ( 'NONE',  ( 0.0000000000000000000, 0.0000000000000000000, 0.0000000000000000000 ) ) ;
#155 = EDGE_LOOP ( 'NONE', ( #46, #66, #58, #7 ) ) ;
#156 = DIMENSIONAL_EXPONENTS ( 1.000000000000000000, 0.0000000000000000000, 0.0000000000000000000, 0.0000000000000000000, 0.0000000000000000000, 0.0000000000000000000, 0.0000000000000000000 ) ;
#157 = CARTESIAN_POINT ( 'NONE',  ( 0.0000000000000000000, 0.0000000000000000000, 2.480315000000000047 ) ) ;
#158 = CARTESIAN_POINT ( 'NONE',  ( 0.0000000000000000000, 0.0000000000000000000, 2.480315000000000047 ) ) ;
#159 = SURFACE_SIDE_STYLE ('',( #103 ) ) ;
#160 = LINE ( 'NONE', #139, #232 ) ;
#161 = UNCERTAINTY_MEASURE_WITH_UNIT (LENGTH_MEASURE( 1.000000000000000082E-05 ), #211, 'distance_accuracy_value', 'NONE');
#162 =( NAMED_UNIT ( * ) PLANE_ANGLE_UNIT ( ) SI_UNIT ( $, .RADIAN. ) );
#163 = STYLED_ITEM ( 'NONE', ( #11 ), #245 ) ;
#164 = FILL_AREA_STYLE ('',( #35 ) ) ;
#165 = ADVANCED_FACE ( 'NONE', ( #225 ), #60, .T. ) ;
#166 = EDGE_LOOP ( 'NONE', ( #127, #59 ) ) ;
#167 = ORIENTED_EDGE ( 'NONE', *, *, #15, .F. ) ;
#168 = AXIS2_PLACEMENT_3D ( 'NONE', #67, #204, #201 ) ;
#169 = DIRECTION ( 'NONE',  ( -0.2588190451025217387, 3.169619151431776651E-17, 0.9659258262890679791 ) ) ;
#170 = DIRECTION ( 'NONE',  ( 0.0000000000000000000, 0.0000000000000000000, 1.000000000000000000 ) ) ;
#171 = CYLINDRICAL_SURFACE ( 'NONE', #129, 0.1574804999999999955 ) ;
#172 = VERTEX_POINT ( 'NONE', #249 ) ;
#173 = EDGE_CURVE ( 'NONE', #94, #172, #71, .T. ) ;
#174 = CARTESIAN_POINT ( 'NONE',  ( -0.1574804999999999955, 0.0000000000000000000, 2.480315000000000047 ) ) ;
#175 = PRODUCT ( 'Micro_RTCM-080-2', 'Micro_RTCM-080-2', '', ( #205 ) ) ;
#176 = SURFACE_STYLE_USAGE ( .BOTH. , #159 ) ;
#177 =( CONVERSION_BASED_UNIT ( 'INCH', #29 ) LENGTH_UNIT ( ) NAMED_UNIT ( #101 ) );
#178 = CYLINDRICAL_SURFACE ( 'NONE', #37, 0.1574804999999999955 ) ;
#179 = CARTESIAN_POINT ( 'NONE',  ( 0.0000000000000000000, 0.0000000000000000000, 2.480315000000000047 ) ) ;
#180 = EDGE_CURVE ( 'NONE', #153, #47, #226, .T. ) ;
#181 = CIRCLE ( 'NONE', #215, 0.1574804999999999955 ) ;
#182 = AXIS2_PLACEMENT_3D ( 'NONE', #52, #120, #196 ) ;
#183 = SHAPE_DEFINITION_REPRESENTATION ( #200, #198 ) ;
#184 = UNCERTAINTY_MEASURE_WITH_UNIT (LENGTH_MEASURE( 1.000000000000000082E-05 ), #177, 'distance_accuracy_value', 'NONE');
#185 = ADVANCED_FACE ( 'NONE', ( #14 ), #178, .T. ) ;
#186 =( CONVERSION_BASED_UNIT ( 'INCH', #228 ) LENGTH_UNIT ( ) NAMED_UNIT ( #156 ) );
#187 = ORIENTED_EDGE ( 'NONE', *, *, #237, .F. ) ;
#188 = AXIS2_PLACEMENT_3D ( 'NONE', #216, #118, #24 ) ;
#189 = DIRECTION ( 'NONE',  ( -0.0000000000000000000, -0.0000000000000000000, -1.000000000000000000 ) ) ;
#190 = CARTESIAN_POINT ( 'NONE',  ( 0.0000000000000000000, 0.0000000000000000000, 2.480315000000000047 ) ) ;
#191 = EDGE_CURVE ( 'NONE', #61, #172, #69, .T. ) ;
#192 = AXIS2_PLACEMENT_3D ( 'NONE', #154, #212, #41 ) ;
#193 = CARTESIAN_POINT ( 'NONE',  ( -0.003936999999999995191, -4.821434448243123477E-19, 2.480315000000000047 ) ) ;
#194 = DIRECTION ( 'NONE',  ( 0.0000000000000000000, 0.0000000000000000000, -1.000000000000000000 ) ) ;
#195 = CARTESIAN_POINT ( 'NONE',  ( 0.1574804999999999955, 1.928579902531247412E-17, 2.480315000000000047 ) ) ;
#196 = DIRECTION ( 'NONE',  ( 1.000000000000000000, 0.0000000000000000000, 0.0000000000000000000 ) ) ;
#197 = CONICAL_SURFACE ( 'NONE', #182, 0.003936999999999995191, 0.2617993877991504625 ) ;
#198 = ADVANCED_BREP_SHAPE_REPRESENTATION ( 'Micro_RTCM-080-2', ( #245, #2 ), #112 ) ;
#199 = FILL_AREA_STYLE_COLOUR ( '', #1 ) ;
#200 = PRODUCT_DEFINITION_SHAPE ( 'NONE', 'NONE',  #70 ) ;
#201 = DIRECTION ( 'NONE',  ( -1.000000000000000000, 0.0000000000000000000, 0.0000000000000000000 ) ) ;
#202 = DIRECTION ( 'NONE',  ( 0.2588190451025217387, 0.0000000000000000000, 0.9659258262890679791 ) ) ;
#203 = AXIS2_PLACEMENT_3D ( 'NONE', #43, #170, #133 ) ;
#204 = DIRECTION ( 'NONE',  ( -0.0000000000000000000, -0.0000000000000000000, -1.000000000000000000 ) ) ;
#205 = PRODUCT_CONTEXT ( 'NONE', #34, 'mechanical' ) ;
#206 = EDGE_CURVE ( 'NONE', #243, #3, #207, .T. ) ;
#207 = CIRCLE ( 'NONE', #65, 0.003936999999999995191 ) ;
#208 =( LENGTH_UNIT ( ) NAMED_UNIT ( * ) SI_UNIT ( $, .METRE. ) );
#209 = ORIENTED_EDGE ( 'NONE', *, *, #173, .F. ) ;
#210 = ADVANCED_FACE ( 'NONE', ( #87 ), #246, .F. ) ;
#211 =( CONVERSION_BASED_UNIT ( 'INCH', #229 ) LENGTH_UNIT ( ) NAMED_UNIT ( #30 ) );
#212 = DIRECTION ( 'NONE',  ( -0.0000000000000000000, -0.0000000000000000000, -1.000000000000000000 ) ) ;
#213 = EDGE_LOOP ( 'NONE', ( #167, #8 ) ) ;
#214 = LINE ( 'NONE', #239, #145 ) ;
#215 = AXIS2_PLACEMENT_3D ( 'NONE', #131, #194, #23 ) ;
#216 = CARTESIAN_POINT ( 'NONE',  ( 0.0000000000000000000, 0.0000000000000000000, 0.5730321431719496150 ) ) ;
#217 = ADVANCED_FACE ( 'NONE', ( #140 ), #197, .T. ) ;
#218 = EDGE_LOOP ( 'NONE', ( #84, #81, #21, #113 ) ) ;
#219 = CARTESIAN_POINT ( 'NONE',  ( 0.0000000000000000000, 0.0000000000000000000, 0.0000000000000000000 ) ) ;
#220 = CONICAL_SURFACE ( 'NONE', #203, 0.003936999999999995191, 0.2617993877991504625 ) ;
#221 = DIRECTION ( 'NONE',  ( -0.0000000000000000000, -0.0000000000000000000, -1.000000000000000000 ) ) ;
#222 = STYLED_ITEM ( 'NONE', ( #106 ), #198 ) ;
#223 = CARTESIAN_POINT ( 'NONE',  ( 0.1574804999999999955, 1.928579902531247412E-17, 1.907282856828050432 ) ) ;
#224 = DIRECTION ( 'NONE',  ( 0.0000000000000000000, 0.0000000000000000000, -1.000000000000000000 ) ) ;
#225 = FACE_OUTER_BOUND ( 'NONE', #110, .T. ) ;
#226 = CIRCLE ( 'NONE', #78, 0.1574804999999999955 ) ;
#227 =( GEOMETRIC_REPRESENTATION_CONTEXT ( 3 ) GLOBAL_UNCERTAINTY_ASSIGNED_CONTEXT ( ( #184 ) ) GLOBAL_UNIT_ASSIGNED_CONTEXT ( ( #177, #162, #77 ) ) REPRESENTATION_CONTEXT ( 'NONE', 'WORKASPACE' ) );
#228 = LENGTH_MEASURE_WITH_UNIT ( LENGTH_MEASURE( 0.02539999999999999897 ), #208 );
#229 = LENGTH_MEASURE_WITH_UNIT ( LENGTH_MEASURE( 0.02539999999999999897 ), #126 );
#230 = SURFACE_STYLE_FILL_AREA ( #164 ) ;
#231 = EDGE_CURVE ( 'NONE', #47, #61, #26, .T. ) ;
#232 = VECTOR ( 'NONE', #13, 39.37007874015748854 ) ;
#233 = EDGE_LOOP ( 'NONE', ( #19, #134, #132, #83 ) ) ;
#234 = ORIENTED_EDGE ( 'NONE', *, *, #144, .T. ) ;
#235 = ORIENTED_EDGE ( 'NONE', *, *, #39, .F. ) ;
#236 = CIRCLE ( 'NONE', #49, 0.003936999999999995191 ) ;
#237 = EDGE_CURVE ( 'NONE', #38, #94, #45, .T. ) ;
#238 = DIRECTION ( 'NONE',  ( -0.2588190451025217387, -3.169619151431776651E-17, -0.9659258262890679791 ) ) ;
#239 = CARTESIAN_POINT ( 'NONE',  ( -0.003936999999999995191, 4.821434448243123477E-19, 0.0000000000000000000 ) ) ;
#240 = ORIENTED_EDGE ( 'NONE', *, *, #56, .F. ) ;
#241 = PRESENTATION_LAYER_ASSIGNMENT (  '', '', ( #163 ) ) ;
#242 = MECHANICAL_DESIGN_GEOMETRIC_PRESENTATION_REPRESENTATION (  '', ( #222 ), #143 ) ;
#243 = VERTEX_POINT ( 'NONE', #50 ) ;
#244 = CARTESIAN_POINT ( 'NONE',  ( 0.0000000000000000000, 0.0000000000000000000, 1.907282856828050432 ) ) ;
#245 = MANIFOLD_SOLID_BREP ( 'Mirror1', #5 ) ;
#246 = PLANE ( 'NONE',  #12 ) ;
#247 =( LENGTH_UNIT ( ) NAMED_UNIT ( * ) SI_UNIT ( $, .METRE. ) );
#248 = DIRECTION ( 'NONE',  ( 1.000000000000000000, 0.0000000000000000000, -0.0000000000000000000 ) ) ;
#249 = CARTESIAN_POINT ( 'NONE',  ( 0.1574804999999999955, 1.928579902531247412E-17, 0.5730321431719496150 ) ) ;
ENDSEC;
END-ISO-10303-21;
