ISO-10303-21;
HEADER;
FILE_DESCRIPTION (( 'STEP AP214' ),
    '1' );
FILE_NAME ('17150.STEP',
    '2023-06-30T21:52:29',
    ( '' ),
    ( '' ),
    'SwSTEP 2.0',
    'SolidWorks 2023',
    '' );
FILE_SCHEMA (( 'AUTOMOTIVE_DESIGN' ));
ENDSEC;

DATA;
#1 = SURFACE_STYLE_USAGE ( .BOTH. , #312 ) ;
#2 = EDGE_CURVE ( 'NONE', #331, #326, #150, .T. ) ;
#3 = CARTESIAN_POINT ( 'NONE',  ( -1.530808498934191509E-17, 0.1250000000000000000, 0.000000000000000000 ) ) ;
#4 = CARTESIAN_POINT ( 'NONE',  ( -0.1250000000000000000, 0.1250000000000000278, 1.530808498934191201E-17 ) ) ;
#5 = AXIS2_PLACEMENT_3D ( 'NONE', #319, #31, #352 ) ;
#6 = CARTESIAN_POINT ( 'NONE',  ( -0.1249999999999994171, 0.3749999999999999445, 0.000000000000000000 ) ) ;
#7 = ORIENTED_EDGE ( 'NONE', *, *, #22, .F. ) ;
#8 = EDGE_CURVE ( 'NONE', #40, #295, #104, .T. ) ;
#9 = DIRECTION ( 'NONE',  ( -1.000000000000000000, -1.231882382905062056E-16, 0.000000000000000000 ) ) ;
#10 = LENGTH_MEASURE_WITH_UNIT ( LENGTH_MEASURE( 0.02539999999999999897 ), #353 );
#11 = ORIENTED_EDGE ( 'NONE', *, *, #220, .F. ) ;
#12 = DIRECTION ( 'NONE',  ( -0.000000000000000000, -1.000000000000000000, -0.000000000000000000 ) ) ;
#13 = DIRECTION ( 'NONE',  ( -1.231882382905062056E-16, 1.000000000000000000, -0.000000000000000000 ) ) ;
#14 = VECTOR ( 'NONE', #48, 39.37007874015748143 ) ;
#15 = ORIENTED_EDGE ( 'NONE', *, *, #285, .T. ) ;
#16 = MANIFOLD_SOLID_BREP ( 'Revolve - Tool Body (Straight Shanked)', #275 ) ;
#17 = CARTESIAN_POINT ( 'NONE',  ( -0.1249999999999998057, 2.000000000000000000, 0.000000000000000000 ) ) ;
#18 = ORIENTED_EDGE ( 'NONE', *, *, #270, .T. ) ;
#19 =( NAMED_UNIT ( * ) SI_UNIT ( $, .STERADIAN. ) SOLID_ANGLE_UNIT ( ) );
#20 =( NAMED_UNIT ( * ) SI_UNIT ( $, .STERADIAN. ) SOLID_ANGLE_UNIT ( ) );
#21 =( CONVERSION_BASED_UNIT ( 'INCH', #51 ) LENGTH_UNIT ( ) NAMED_UNIT ( #250 ) );
#22 = EDGE_CURVE ( 'NONE', #274, #331, #366, .T. ) ;
#23 = FILL_AREA_STYLE_COLOUR ( '', #222 ) ;
#24 =( NAMED_UNIT ( * ) PLANE_ANGLE_UNIT ( ) SI_UNIT ( $, .RADIAN. ) );
#25 = STYLED_ITEM ( 'NONE', ( #253 ), #58 ) ;
#26 = SURFACE_STYLE_FILL_AREA ( #103 ) ;
#27 = SURFACE_STYLE_USAGE ( .BOTH. , #165 ) ;
#28 = AXIS2_PLACEMENT_3D ( 'NONE', #245, #192, #195 ) ;
#29 = MANIFOLD_SOLID_BREP ( 'Revolve - Cutting Edge', #372 ) ;
#30 = UNCERTAINTY_MEASURE_WITH_UNIT (LENGTH_MEASURE( 1.000000000000000082E-05 ), #76, 'distance_accuracy_value', 'NONE');
#31 = DIRECTION ( 'NONE',  ( 1.231882382905062056E-16, -1.000000000000000000, 0.000000000000000000 ) ) ;
#32 = FILL_AREA_STYLE_COLOUR ( '', #272 ) ;
#33 = PRESENTATION_LAYER_ASSIGNMENT (  '', '', ( #87 ) ) ;
#34 = DIRECTION ( 'NONE',  ( -0.000000000000000000, -1.000000000000000000, -0.000000000000000000 ) ) ;
#35 = PRESENTATION_LAYER_ASSIGNMENT (  '', '', ( #263 ) ) ;
#36 = DIRECTION ( 'NONE',  ( 1.224646799147353207E-16, -0.000000000000000000, 1.000000000000000000 ) ) ;
#37 = ORIENTED_EDGE ( 'NONE', *, *, #316, .F. ) ;
#38 = AXIS2_PLACEMENT_3D ( 'NONE', #3, #147, #114 ) ;
#39 = PRODUCT_DEFINITION_FORMATION_WITH_SPECIFIED_SOURCE ( 'ANY', '', #307, .NOT_KNOWN. ) ;
#40 = VERTEX_POINT ( 'NONE', #218 ) ;
#41 = COLOUR_RGB ( '',0.7921568627450980005, 0.8196078431372548767, 0.9333333333333333481 ) ;
#42 = ORIENTED_EDGE ( 'NONE', *, *, #8, .T. ) ;
#43 = CIRCLE ( 'NONE', #339, 0.1250000000000000000 ) ;
#44 = SPHERICAL_SURFACE ( 'NONE', #370, 0.1250000000000000000 ) ;
#45 = PRODUCT_CONTEXT ( 'NONE', #225, 'mechanical' ) ;
#46 = ORIENTED_EDGE ( 'NONE', *, *, #316, .T. ) ;
#47 = DIRECTION ( 'NONE',  ( 0.000000000000000000, 0.000000000000000000, -1.000000000000000000 ) ) ;
#48 = DIRECTION ( 'NONE',  ( -1.231882382905062056E-16, 1.000000000000000000, -0.000000000000000000 ) ) ;
#49 =( LENGTH_UNIT ( ) NAMED_UNIT ( * ) SI_UNIT ( $, .METRE. ) );
#50 = LENGTH_MEASURE_WITH_UNIT ( LENGTH_MEASURE( 0.02539999999999999897 ), #304 );
#51 = LENGTH_MEASURE_WITH_UNIT ( LENGTH_MEASURE( 0.02539999999999999897 ), #186 );
#52 = FILL_AREA_STYLE ('',( #32 ) ) ;
#53 = SURFACE_SIDE_STYLE ('',( #26 ) ) ;
#54 = AXIS2_PLACEMENT_3D ( 'NONE', #170, #341, #342 ) ;
#55 =( CONVERSION_BASED_UNIT ( 'INCH', #194 ) LENGTH_UNIT ( ) NAMED_UNIT ( #69 ) );
#56 = DIRECTION ( 'NONE',  ( 0.000000000000000000, 0.000000000000000000, -1.000000000000000000 ) ) ;
#57 =( GEOMETRIC_REPRESENTATION_CONTEXT ( 3 ) GLOBAL_UNCERTAINTY_ASSIGNED_CONTEXT ( ( #291 ) ) GLOBAL_UNIT_ASSIGNED_CONTEXT ( ( #55, #362, #280 ) ) REPRESENTATION_CONTEXT ( 'NONE', 'WORKASPACE' ) );
#58 = ADVANCED_FACE ( 'NONE', ( #303 ), #133, .T. ) ;
#59 =( GEOMETRIC_REPRESENTATION_CONTEXT ( 3 ) GLOBAL_UNCERTAINTY_ASSIGNED_CONTEXT ( ( #286 ) ) GLOBAL_UNIT_ASSIGNED_CONTEXT ( ( #264, #262, #202 ) ) REPRESENTATION_CONTEXT ( 'NONE', 'WORKASPACE' ) );
#60 = MECHANICAL_DESIGN_GEOMETRIC_PRESENTATION_REPRESENTATION (  '', ( #82 ), #105 ) ;
#61 = SURFACE_STYLE_FILL_AREA ( #322 ) ;
#62 = DIRECTION ( 'NONE',  ( -1.000000000000000000, 0.000000000000000000, 0.000000000000000000 ) ) ;
#63 = PRODUCT_RELATED_PRODUCT_CATEGORY ( 'part', '', ( #307 ) ) ;
#64 = ORIENTED_EDGE ( 'NONE', *, *, #369, .T. ) ;
#65 = DIRECTION ( 'NONE',  ( 0.000000000000000000, 0.000000000000000000, -1.000000000000000000 ) ) ;
#66 = VERTEX_POINT ( 'NONE', #223 ) ;
#67 = MECHANICAL_DESIGN_GEOMETRIC_PRESENTATION_REPRESENTATION (  '', ( #373 ), #196 ) ;
#68 = LENGTH_MEASURE_WITH_UNIT ( LENGTH_MEASURE( 0.02539999999999999897 ), #139 );
#69 = DIMENSIONAL_EXPONENTS ( 1.000000000000000000, 0.000000000000000000, 0.000000000000000000, 0.000000000000000000, 0.000000000000000000, 0.000000000000000000, 0.000000000000000000 ) ;
#70 = DIRECTION ( 'NONE',  ( -0.000000000000000000, -1.000000000000000000, -0.000000000000000000 ) ) ;
#71 = SHAPE_DEFINITION_REPRESENTATION ( #255, #112 ) ;
#72 = MECHANICAL_DESIGN_GEOMETRIC_PRESENTATION_REPRESENTATION (  '', ( #25 ), #57 ) ;
#73 = ORIENTED_EDGE ( 'NONE', *, *, #243, .T. ) ;
#74 = EDGE_LOOP ( 'NONE', ( #354, #216, #273, #321 ) ) ;
#75 = CIRCLE ( 'NONE', #240, 0.1250000000000000000 ) ;
#76 =( CONVERSION_BASED_UNIT ( 'INCH', #10 ) LENGTH_UNIT ( ) NAMED_UNIT ( #134 ) );
#77 = FILL_AREA_STYLE ('',( #81 ) ) ;
#78 = CARTESIAN_POINT ( 'NONE',  ( 2.614132271794402599E-16, 0.3749999999999999445, 0.000000000000000000 ) ) ;
#79 =( NAMED_UNIT ( * ) PLANE_ANGLE_UNIT ( ) SI_UNIT ( $, .RADIAN. ) );
#80 = FACE_OUTER_BOUND ( 'NONE', #234, .T. ) ;
#81 = FILL_AREA_STYLE_COLOUR ( '', #281 ) ;
#82 = STYLED_ITEM ( 'NONE', ( #248 ), #261 ) ;
#83 =( CONVERSION_BASED_UNIT ( 'INCH', #251 ) LENGTH_UNIT ( ) NAMED_UNIT ( #219 ) );
#84 = CARTESIAN_POINT ( 'NONE',  ( 0.000000000000000000, 0.000000000000000000, 0.000000000000000000 ) ) ;
#85 = DIRECTION ( 'NONE',  ( 0.000000000000000000, 0.000000000000000000, -1.000000000000000000 ) ) ;
#86 = MECHANICAL_DESIGN_GEOMETRIC_PRESENTATION_REPRESENTATION (  '', ( #246 ), #293 ) ;
#87 = STYLED_ITEM ( 'NONE', ( #137 ), #98 ) ;
#88 = PRODUCT_DEFINITION ( 'UNKNOWN', '', #39, #237 ) ;
#89 = UNCERTAINTY_MEASURE_WITH_UNIT (LENGTH_MEASURE( 1.000000000000000082E-05 ), #338, 'distance_accuracy_value', 'NONE');
#90 =( NAMED_UNIT ( * ) PLANE_ANGLE_UNIT ( ) SI_UNIT ( $, .RADIAN. ) );
#91 = CARTESIAN_POINT ( 'NONE',  ( -1.530808498934191509E-17, 0.1250000000000000000, 0.000000000000000000 ) ) ;
#92 = DIRECTION ( 'NONE',  ( -1.231882382905062056E-16, 1.000000000000000000, 0.000000000000000000 ) ) ;
#93 = VERTEX_POINT ( 'NONE', #308 ) ;
#94 = DIRECTION ( 'NONE',  ( -0.000000000000000000, -1.000000000000000000, -0.000000000000000000 ) ) ;
#95 = APPLICATION_PROTOCOL_DEFINITION ( 'draft international standard', 'automotive_design', 1998, #225 ) ;
#96 = EDGE_LOOP ( 'NONE', ( #126, #210 ) ) ;
#97 = MECHANICAL_DESIGN_GEOMETRIC_PRESENTATION_REPRESENTATION (  '', ( #87 ), #305 ) ;
#98 = ADVANCED_FACE ( 'NONE', ( #343 ), #313, .T. ) ;
#99 = ORIENTED_EDGE ( 'NONE', *, *, #285, .F. ) ;
#100 = ORIENTED_EDGE ( 'NONE', *, *, #243, .F. ) ;
#101 = ORIENTED_EDGE ( 'NONE', *, *, #113, .T. ) ;
#102 = AXIS2_PLACEMENT_3D ( 'NONE', #260, #110, #345 ) ;
#103 = FILL_AREA_STYLE ('',( #221 ) ) ;
#104 = LINE ( 'NONE', #334, #140 ) ;
#105 =( GEOMETRIC_REPRESENTATION_CONTEXT ( 3 ) GLOBAL_UNCERTAINTY_ASSIGNED_CONTEXT ( ( #89 ) ) GLOBAL_UNIT_ASSIGNED_CONTEXT ( ( #338, #160, #19 ) ) REPRESENTATION_CONTEXT ( 'NONE', 'WORKASPACE' ) );
#106 = SURFACE_SIDE_STYLE ('',( #279 ) ) ;
#107 =( LENGTH_UNIT ( ) NAMED_UNIT ( * ) SI_UNIT ( $, .METRE. ) );
#108 = DIRECTION ( 'NONE',  ( 0.000000000000000000, 1.000000000000000000, 0.000000000000000000 ) ) ;
#109 = CIRCLE ( 'NONE', #54, 0.1249999999999998751 ) ;
#110 = DIRECTION ( 'NONE',  ( -1.231882382905062056E-16, 1.000000000000000000, -0.000000000000000000 ) ) ;
#111 = CARTESIAN_POINT ( 'NONE',  ( 6.123233995736766036E-17, 2.000000000000000000, 0.000000000000000000 ) ) ;
#112 = ADVANCED_BREP_SHAPE_REPRESENTATION ( '17150', ( #29, #16, #185 ), #359 ) ;
#113 = EDGE_CURVE ( 'NONE', #247, #66, #109, .T. ) ;
#114 = DIRECTION ( 'NONE',  ( 1.000000000000000000, 0.000000000000000000, 0.000000000000000000 ) ) ;
#115 = FACE_OUTER_BOUND ( 'NONE', #118, .T. ) ;
#116 = AXIS2_PLACEMENT_3D ( 'NONE', #111, #229, #265 ) ;
#117 = PRESENTATION_STYLE_ASSIGNMENT (( #211 ) ) ;
#118 = EDGE_LOOP ( 'NONE', ( #101, #46 ) ) ;
#119 = CARTESIAN_POINT ( 'NONE',  ( -1.530808498934191509E-17, 0.1250000000000000000, 0.000000000000000000 ) ) ;
#120 = CARTESIAN_POINT ( 'NONE',  ( 0.000000000000000000, 0.000000000000000000, 0.000000000000000000 ) ) ;
#121 = EDGE_LOOP ( 'NONE', ( #213, #365, #7, #269, #129 ) ) ;
#122 =( CONVERSION_BASED_UNIT ( 'INCH', #175 ) LENGTH_UNIT ( ) NAMED_UNIT ( #212 ) );
#123 = ADVANCED_FACE ( 'NONE', ( #287 ), #233, .T. ) ;
#124 = CARTESIAN_POINT ( 'NONE',  ( 0.000000000000000000, 0.1250000000000000278, 0.000000000000000000 ) ) ;
#125 =( NAMED_UNIT ( * ) SI_UNIT ( $, .STERADIAN. ) SOLID_ANGLE_UNIT ( ) );
#126 = ORIENTED_EDGE ( 'NONE', *, *, #149, .F. ) ;
#127 = EDGE_CURVE ( 'NONE', #326, #295, #43, .T. ) ;
#128 = MECHANICAL_DESIGN_GEOMETRIC_PRESENTATION_REPRESENTATION (  '', ( #263 ), #330 ) ;
#129 = ORIENTED_EDGE ( 'NONE', *, *, #8, .F. ) ;
#130 = CARTESIAN_POINT ( 'NONE',  ( -0.1249999999999997224, 2.000000000000000000, 0.000000000000000000 ) ) ;
#131 = AXIS2_PLACEMENT_3D ( 'NONE', #208, #34, #65 ) ;
#132 = DIRECTION ( 'NONE',  ( 0.000000000000000000, 0.000000000000000000, 1.000000000000000000 ) ) ;
#133 = PLANE ( 'NONE',  #288 ) ;
#134 = DIMENSIONAL_EXPONENTS ( 1.000000000000000000, 0.000000000000000000, 0.000000000000000000, 0.000000000000000000, 0.000000000000000000, 0.000000000000000000, 0.000000000000000000 ) ;
#135 = SURFACE_STYLE_FILL_AREA ( #52 ) ;
#136 = AXIS2_PLACEMENT_3D ( 'NONE', #236, #239, #320 ) ;
#137 = PRESENTATION_STYLE_ASSIGNMENT (( #1 ) ) ;
#138 = DIRECTION ( 'NONE',  ( -0.000000000000000000, -1.000000000000000000, -0.000000000000000000 ) ) ;
#139 =( LENGTH_UNIT ( ) NAMED_UNIT ( * ) SI_UNIT ( $, .METRE. ) );
#140 = VECTOR ( 'NONE', #166, 39.37007874015748143 ) ;
#141 = CYLINDRICAL_SURFACE ( 'NONE', #102, 0.1249999999999997918 ) ;
#142 = AXIS2_PLACEMENT_3D ( 'NONE', #84, #226, #56 ) ;
#143 = SURFACE_SIDE_STYLE ('',( #61 ) ) ;
#144 = CARTESIAN_POINT ( 'NONE',  ( 0.000000000000000000, 0.000000000000000000, 0.000000000000000000 ) ) ;
#145 = DIRECTION ( 'NONE',  ( -0.000000000000000000, -1.000000000000000000, -0.000000000000000000 ) ) ;
#146 = EDGE_LOOP ( 'NONE', ( #11, #64, #42, #215, #207 ) ) ;
#147 = DIRECTION ( 'NONE',  ( 0.000000000000000000, 0.000000000000000000, 1.000000000000000000 ) ) ;
#148 = ORIENTED_EDGE ( 'NONE', *, *, #2, .T. ) ;
#149 = EDGE_CURVE ( 'NONE', #40, #361, #368, .T. ) ;
#150 = CIRCLE ( 'NONE', #204, 0.1250000000000000000 ) ;
#151 = MECHANICAL_DESIGN_GEOMETRIC_PRESENTATION_REPRESENTATION (  '', ( #277 ), #59 ) ;
#152 = VERTEX_POINT ( 'NONE', #6 ) ;
#153 = CYLINDRICAL_SURFACE ( 'NONE', #28, 0.1249999999999997918 ) ;
#154 = ORIENTED_EDGE ( 'NONE', *, *, #113, .F. ) ;
#155 = CARTESIAN_POINT ( 'NONE',  ( 0.1249999999999998612, 2.000000000000000000, 1.530808498934189044E-17 ) ) ;
#156 = APPLICATION_CONTEXT ( 'automotive_design' ) ;
#157 = LINE ( 'NONE', #130, #256 ) ;
#158 = SURFACE_STYLE_USAGE ( .BOTH. , #337 ) ;
#159 = PRESENTATION_LAYER_ASSIGNMENT (  '', '', ( #277 ) ) ;
#160 =( NAMED_UNIT ( * ) PLANE_ANGLE_UNIT ( ) SI_UNIT ( $, .RADIAN. ) );
#161 = FILL_AREA_STYLE ('',( #224 ) ) ;
#162 = PRESENTATION_STYLE_ASSIGNMENT (( #158 ) ) ;
#163 = CARTESIAN_POINT ( 'NONE',  ( 0.1249999999999999306, 0.3749999999999999445, 1.530808498934189352E-17 ) ) ;
#164 = PRESENTATION_LAYER_ASSIGNMENT (  '', '', ( #246 ) ) ;
#165 = SURFACE_SIDE_STYLE ('',( #371 ) ) ;
#166 = DIRECTION ( 'NONE',  ( -0.000000000000000000, -1.000000000000000000, -0.000000000000000000 ) ) ;
#167 = AXIS2_PLACEMENT_3D ( 'NONE', #349, #318, #62 ) ;
#168 = UNCERTAINTY_MEASURE_WITH_UNIT (LENGTH_MEASURE( 1.000000000000000082E-05 ), #122, 'distance_accuracy_value', 'NONE');
#169 = DIRECTION ( 'NONE',  ( 0.000000000000000000, -0.000000000000000000, 1.000000000000000000 ) ) ;
#170 = CARTESIAN_POINT ( 'NONE',  ( 6.123233995736766036E-17, 2.000000000000000000, 0.000000000000000000 ) ) ;
#171 = VECTOR ( 'NONE', #145, 39.37007874015748143 ) ;
#172 = ADVANCED_FACE ( 'NONE', ( #355 ), #228, .T. ) ;
#173 = CARTESIAN_POINT ( 'NONE',  ( 1.530808498934191201E-17, 0.000000000000000000, 0.1249999999999999584 ) ) ;
#174 = DIRECTION ( 'NONE',  ( -0.000000000000000000, -1.000000000000000000, -0.000000000000000000 ) ) ;
#175 = LENGTH_MEASURE_WITH_UNIT ( LENGTH_MEASURE( 0.02539999999999999897 ), #292 );
#176 =( NAMED_UNIT ( * ) PLANE_ANGLE_UNIT ( ) SI_UNIT ( $, .RADIAN. ) );
#177 = EDGE_LOOP ( 'NONE', ( #100, #357, #15, #37 ) ) ;
#178 = DIMENSIONAL_EXPONENTS ( 1.000000000000000000, 0.000000000000000000, 0.000000000000000000, 0.000000000000000000, 0.000000000000000000, 0.000000000000000000, 0.000000000000000000 ) ;
#179 = CARTESIAN_POINT ( 'NONE',  ( 0.1250000000000000000, 0.1250000000000000278, 0.000000000000000000 ) ) ;
#180 = COLOUR_RGB ( '',1.000000000000000000, 0.000000000000000000, 0.000000000000000000 ) ;
#181 = ORIENTED_EDGE ( 'NONE', *, *, #198, .F. ) ;
#182 = FACE_OUTER_BOUND ( 'NONE', #177, .T. ) ;
#183 = AXIS2_PLACEMENT_3D ( 'NONE', #230, #92, #9 ) ;
#184 = CARTESIAN_POINT ( 'NONE',  ( 0.000000000000000000, 0.1250000000000000278, 0.000000000000000000 ) ) ;
#185 = AXIS2_PLACEMENT_3D ( 'NONE', #120, #360, #356 ) ;
#186 =( LENGTH_UNIT ( ) NAMED_UNIT ( * ) SI_UNIT ( $, .METRE. ) );
#187 = SURFACE_STYLE_FILL_AREA ( #335 ) ;
#188 = ADVANCED_FACE ( 'NONE', ( #268 ), #348, .F. ) ;
#189 = AXIS2_PLACEMENT_3D ( 'NONE', #91, #200, #205 ) ;
#190 = FILL_AREA_STYLE ('',( #314 ) ) ;
#191 = CARTESIAN_POINT ( 'NONE',  ( 0.000000000000000000, 0.1250000000000000278, 0.000000000000000000 ) ) ;
#192 = DIRECTION ( 'NONE',  ( -1.231882382905062056E-16, 1.000000000000000000, -0.000000000000000000 ) ) ;
#193 = AXIS2_PLACEMENT_3D ( 'NONE', #191, #138, #85 ) ;
#194 = LENGTH_MEASURE_WITH_UNIT ( LENGTH_MEASURE( 0.02539999999999999897 ), #340 );
#195 = DIRECTION ( 'NONE',  ( -1.000000000000000000, 0.000000000000000000, 0.000000000000000000 ) ) ;
#196 =( GEOMETRIC_REPRESENTATION_CONTEXT ( 3 ) GLOBAL_UNCERTAINTY_ASSIGNED_CONTEXT ( ( #168 ) ) GLOBAL_UNIT_ASSIGNED_CONTEXT ( ( #122, #327, #296 ) ) REPRESENTATION_CONTEXT ( 'NONE', 'WORKASPACE' ) );
#197 = CARTESIAN_POINT ( 'NONE',  ( 0.000000000000000000, 0.1250000000000000278, 0.000000000000000000 ) ) ;
#198 = EDGE_CURVE ( 'NONE', #274, #93, #344, .T. ) ;
#199 = UNCERTAINTY_MEASURE_WITH_UNIT (LENGTH_MEASURE( 1.000000000000000082E-05 ), #346, 'distance_accuracy_value', 'NONE');
#200 = DIRECTION ( 'NONE',  ( 0.000000000000000000, 0.000000000000000000, -1.000000000000000000 ) ) ;
#201 = AXIS2_PLACEMENT_3D ( 'NONE', #78, #249, #302 ) ;
#202 =( NAMED_UNIT ( * ) SI_UNIT ( $, .STERADIAN. ) SOLID_ANGLE_UNIT ( ) );
#203 = FACE_OUTER_BOUND ( 'NONE', #238, .T. ) ;
#204 = AXIS2_PLACEMENT_3D ( 'NONE', #184, #70, #297 ) ;
#205 = DIRECTION ( 'NONE',  ( -1.000000000000000000, 0.000000000000000000, 0.000000000000000000 ) ) ;
#206 = EDGE_CURVE ( 'NONE', #326, #93, #75, .T. ) ;
#207 = ORIENTED_EDGE ( 'NONE', *, *, #2, .F. ) ;
#208 = CARTESIAN_POINT ( 'NONE',  ( 0.000000000000000000, 0.3750000000000000555, 0.000000000000000000 ) ) ;
#209 = PRESENTATION_LAYER_ASSIGNMENT (  '', '', ( #373 ) ) ;
#210 = ORIENTED_EDGE ( 'NONE', *, *, #369, .F. ) ;
#211 = SURFACE_STYLE_USAGE ( .BOTH. , #143 ) ;
#212 = DIMENSIONAL_EXPONENTS ( 1.000000000000000000, 0.000000000000000000, 0.000000000000000000, 0.000000000000000000, 0.000000000000000000, 0.000000000000000000, 0.000000000000000000 ) ;
#213 = ORIENTED_EDGE ( 'NONE', *, *, #149, .T. ) ;
#214 = SURFACE_STYLE_USAGE ( .BOTH. , #252 ) ;
#215 = ORIENTED_EDGE ( 'NONE', *, *, #127, .F. ) ;
#216 = ORIENTED_EDGE ( 'NONE', *, *, #127, .T. ) ;
#217 = CARTESIAN_POINT ( 'NONE',  ( -1.530808498934191509E-17, 0.1250000000000000000, 0.000000000000000000 ) ) ;
#218 = CARTESIAN_POINT ( 'NONE',  ( 0.000000000000000000, 0.3750000000000000555, -0.1249999999999999445 ) ) ;
#219 = DIMENSIONAL_EXPONENTS ( 1.000000000000000000, 0.000000000000000000, 0.000000000000000000, 0.000000000000000000, 0.000000000000000000, 0.000000000000000000, 0.000000000000000000 ) ;
#220 = EDGE_CURVE ( 'NONE', #361, #331, #235, .T. ) ;
#221 = FILL_AREA_STYLE_COLOUR ( '', #41 ) ;
#222 = COLOUR_RGB ( '',1.000000000000000000, 0.000000000000000000, 0.000000000000000000 ) ;
#223 = CARTESIAN_POINT ( 'NONE',  ( 0.1249999999999999445, 2.000000000000000000, 1.530808498934189660E-17 ) ) ;
#224 = FILL_AREA_STYLE_COLOUR ( '', #180 ) ;
#225 = APPLICATION_CONTEXT ( 'automotive_design' ) ;
#226 = DIRECTION ( 'NONE',  ( -0.000000000000000000, -1.000000000000000000, -0.000000000000000000 ) ) ;
#227 = PRESENTATION_LAYER_ASSIGNMENT (  '', '', ( #25 ) ) ;
#228 = CYLINDRICAL_SURFACE ( 'NONE', #271, 0.1249999999999999584 ) ;
#229 = DIRECTION ( 'NONE',  ( -1.231882382905062056E-16, 1.000000000000000000, -0.000000000000000000 ) ) ;
#230 = CARTESIAN_POINT ( 'NONE',  ( 2.614132271794402599E-16, 0.3750000000000000555, 0.000000000000000000 ) ) ;
#231 = CIRCLE ( 'NONE', #116, 0.1249999999999998751 ) ;
#232 = PLANE ( 'NONE',  #5 ) ;
#233 = SPHERICAL_SURFACE ( 'NONE', #38, 0.1250000000000000000 ) ;
#234 = EDGE_LOOP ( 'NONE', ( #148, #367, #181, #267 ) ) ;
#235 = LINE ( 'NONE', #173, #171 ) ;
#236 = CARTESIAN_POINT ( 'NONE',  ( 0.000000000000000000, 0.3750000000000000555, 0.000000000000000000 ) ) ;
#237 = PRODUCT_DEFINITION_CONTEXT ( 'detailed design', #156, 'design' ) ;
#238 = EDGE_LOOP ( 'NONE', ( #18, #73, #154, #99 ) ) ;
#239 = DIRECTION ( 'NONE',  ( -0.000000000000000000, -1.000000000000000000, -0.000000000000000000 ) ) ;
#240 = AXIS2_PLACEMENT_3D ( 'NONE', #119, #36, #317 ) ;
#241 = EDGE_LOOP ( 'NONE', ( #244, #329 ) ) ;
#242 = DIRECTION ( 'NONE',  ( 1.000000000000000000, 0.000000000000000000, 0.000000000000000000 ) ) ;
#243 = EDGE_CURVE ( 'NONE', #299, #66, #278, .T. ) ;
#244 = ORIENTED_EDGE ( 'NONE', *, *, #270, .F. ) ;
#245 = CARTESIAN_POINT ( 'NONE',  ( 6.123233995736766036E-17, 2.000000000000000000, 0.000000000000000000 ) ) ;
#246 = STYLED_ITEM ( 'NONE', ( #258 ), #16 ) ;
#247 = VERTEX_POINT ( 'NONE', #17 ) ;
#248 = PRESENTATION_STYLE_ASSIGNMENT (( #214 ) ) ;
#249 = DIRECTION ( 'NONE',  ( -1.231882382905062056E-16, 1.000000000000000000, -0.000000000000000000 ) ) ;
#250 = DIMENSIONAL_EXPONENTS ( 1.000000000000000000, 0.000000000000000000, 0.000000000000000000, 0.000000000000000000, 0.000000000000000000, 0.000000000000000000, 0.000000000000000000 ) ;
#251 = LENGTH_MEASURE_WITH_UNIT ( LENGTH_MEASURE( 0.02539999999999999897 ), #49 );
#252 = SURFACE_SIDE_STYLE ('',( #187 ) ) ;
#253 = PRESENTATION_STYLE_ASSIGNMENT (( #282 ) ) ;
#254 = DIMENSIONAL_EXPONENTS ( 1.000000000000000000, 0.000000000000000000, 0.000000000000000000, 0.000000000000000000, 0.000000000000000000, 0.000000000000000000, 0.000000000000000000 ) ;
#255 = PRODUCT_DEFINITION_SHAPE ( 'NONE', 'NONE',  #88 ) ;
#256 = VECTOR ( 'NONE', #13, 39.37007874015748143 ) ;
#257 = PRESENTATION_STYLE_ASSIGNMENT (( #27 ) ) ;
#258 = PRESENTATION_STYLE_ASSIGNMENT (( #306 ) ) ;
#259 =( NAMED_UNIT ( * ) SI_UNIT ( $, .STERADIAN. ) SOLID_ANGLE_UNIT ( ) );
#260 = CARTESIAN_POINT ( 'NONE',  ( 6.123233995736766036E-17, 2.000000000000000000, 0.000000000000000000 ) ) ;
#261 = ADVANCED_FACE ( 'NONE', ( #80 ), #44, .T. ) ;
#262 =( NAMED_UNIT ( * ) PLANE_ANGLE_UNIT ( ) SI_UNIT ( $, .RADIAN. ) );
#263 = STYLED_ITEM ( 'NONE', ( #162 ), #29 ) ;
#264 =( CONVERSION_BASED_UNIT ( 'INCH', #68 ) LENGTH_UNIT ( ) NAMED_UNIT ( #178 ) );
#265 = DIRECTION ( 'NONE',  ( -1.000000000000000000, 0.000000000000000000, 0.000000000000000000 ) ) ;
#266 = CIRCLE ( 'NONE', #310, 0.1250000000000000000 ) ;
#267 = ORIENTED_EDGE ( 'NONE', *, *, #22, .T. ) ;
#268 = FACE_OUTER_BOUND ( 'NONE', #241, .T. ) ;
#269 = ORIENTED_EDGE ( 'NONE', *, *, #364, .F. ) ;
#270 = EDGE_CURVE ( 'NONE', #152, #299, #315, .T. ) ;
#271 = AXIS2_PLACEMENT_3D ( 'NONE', #144, #174, #294 ) ;
#272 = COLOUR_RGB ( '',1.000000000000000000, 0.000000000000000000, 0.000000000000000000 ) ;
#273 = ORIENTED_EDGE ( 'NONE', *, *, #364, .T. ) ;
#274 = VERTEX_POINT ( 'NONE', #179 ) ;
#275 = CLOSED_SHELL ( 'NONE', ( #350, #188, #298, #332 ) ) ;
#276 =( NAMED_UNIT ( * ) SI_UNIT ( $, .STERADIAN. ) SOLID_ANGLE_UNIT ( ) );
#277 = STYLED_ITEM ( 'NONE', ( #257 ), #123 ) ;
#278 = LINE ( 'NONE', #155, #14 ) ;
#279 = SURFACE_STYLE_FILL_AREA ( #161 ) ;
#280 =( NAMED_UNIT ( * ) SI_UNIT ( $, .STERADIAN. ) SOLID_ANGLE_UNIT ( ) );
#281 = COLOUR_RGB ( '',0.7921568627450980005, 0.8196078431372548767, 0.9333333333333333481 ) ;
#282 = SURFACE_STYLE_USAGE ( .BOTH. , #106 ) ;
#283 = LENGTH_MEASURE_WITH_UNIT ( LENGTH_MEASURE( 0.02539999999999999897 ), #107 );
#284 = CARTESIAN_POINT ( 'NONE',  ( 1.530808498934191509E-17, 0.1250000000000000278, 0.1250000000000000000 ) ) ;
#285 = EDGE_CURVE ( 'NONE', #152, #247, #157, .T. ) ;
#286 = UNCERTAINTY_MEASURE_WITH_UNIT (LENGTH_MEASURE( 1.000000000000000082E-05 ), #264, 'distance_accuracy_value', 'NONE');
#287 = FACE_OUTER_BOUND ( 'NONE', #74, .T. ) ;
#288 = AXIS2_PLACEMENT_3D ( 'NONE', #309, #108, #169 ) ;
#289 = PRESENTATION_LAYER_ASSIGNMENT (  '', '', ( #82 ) ) ;
#290 = DIRECTION ( 'NONE',  ( 0.000000000000000000, 0.000000000000000000, -1.000000000000000000 ) ) ;
#291 = UNCERTAINTY_MEASURE_WITH_UNIT (LENGTH_MEASURE( 1.000000000000000082E-05 ), #55, 'distance_accuracy_value', 'NONE');
#292 =( LENGTH_UNIT ( ) NAMED_UNIT ( * ) SI_UNIT ( $, .METRE. ) );
#293 =( GEOMETRIC_REPRESENTATION_CONTEXT ( 3 ) GLOBAL_UNCERTAINTY_ASSIGNED_CONTEXT ( ( #311 ) ) GLOBAL_UNIT_ASSIGNED_CONTEXT ( ( #83, #79, #20 ) ) REPRESENTATION_CONTEXT ( 'NONE', 'WORKASPACE' ) );
#294 = DIRECTION ( 'NONE',  ( 0.000000000000000000, 0.000000000000000000, -1.000000000000000000 ) ) ;
#295 = VERTEX_POINT ( 'NONE', #363 ) ;
#296 =( NAMED_UNIT ( * ) SI_UNIT ( $, .STERADIAN. ) SOLID_ANGLE_UNIT ( ) );
#297 = DIRECTION ( 'NONE',  ( 0.000000000000000000, 0.000000000000000000, -1.000000000000000000 ) ) ;
#298 = ADVANCED_FACE ( 'NONE', ( #182 ), #153, .T. ) ;
#299 = VERTEX_POINT ( 'NONE', #163 ) ;
#300 = CIRCLE ( 'NONE', #136, 0.1249999999999999445 ) ;
#301 = SURFACE_STYLE_FILL_AREA ( #77 ) ;
#302 = DIRECTION ( 'NONE',  ( -1.000000000000000000, 0.000000000000000000, 0.000000000000000000 ) ) ;
#303 = FACE_OUTER_BOUND ( 'NONE', #96, .T. ) ;
#304 =( LENGTH_UNIT ( ) NAMED_UNIT ( * ) SI_UNIT ( $, .METRE. ) );
#305 =( GEOMETRIC_REPRESENTATION_CONTEXT ( 3 ) GLOBAL_UNCERTAINTY_ASSIGNED_CONTEXT ( ( #199 ) ) GLOBAL_UNIT_ASSIGNED_CONTEXT ( ( #346, #90, #259 ) ) REPRESENTATION_CONTEXT ( 'NONE', 'WORKASPACE' ) );
#306 = SURFACE_STYLE_USAGE ( .BOTH. , #53 ) ;
#307 = PRODUCT ( '17150', '17150', '', ( #45 ) ) ;
#308 = CARTESIAN_POINT ( 'NONE',  ( -7.654042494670957545E-18, 0.000000000000000000, 0.000000000000000000 ) ) ;
#309 = CARTESIAN_POINT ( 'NONE',  ( 0.000000000000000000, 0.3750000000000000555, 0.000000000000000000 ) ) ;
#310 = AXIS2_PLACEMENT_3D ( 'NONE', #124, #12, #47 ) ;
#311 = UNCERTAINTY_MEASURE_WITH_UNIT (LENGTH_MEASURE( 1.000000000000000082E-05 ), #83, 'distance_accuracy_value', 'NONE');
#312 = SURFACE_SIDE_STYLE ('',( #135 ) ) ;
#313 = CYLINDRICAL_SURFACE ( 'NONE', #142, 0.1249999999999999584 ) ;
#314 = FILL_AREA_STYLE_COLOUR ( '', #323 ) ;
#315 = CIRCLE ( 'NONE', #201, 0.1249999999999996808 ) ;
#316 = EDGE_CURVE ( 'NONE', #66, #247, #231, .T. ) ;
#317 = DIRECTION ( 'NONE',  ( 1.000000000000000000, 0.000000000000000000, -1.224646799147353207E-16 ) ) ;
#318 = DIRECTION ( 'NONE',  ( -1.231882382905062056E-16, 1.000000000000000000, -0.000000000000000000 ) ) ;
#319 = CARTESIAN_POINT ( 'NONE',  ( 0.1249999999999999445, 2.000000000000000000, 0.000000000000000000 ) ) ;
#320 = DIRECTION ( 'NONE',  ( 0.000000000000000000, 0.000000000000000000, -1.000000000000000000 ) ) ;
#321 = ORIENTED_EDGE ( 'NONE', *, *, #198, .T. ) ;
#322 = FILL_AREA_STYLE ('',( #351 ) ) ;
#323 = COLOUR_RGB ( '',1.000000000000000000, 0.000000000000000000, 0.000000000000000000 ) ;
#324 = CARTESIAN_POINT ( 'NONE',  ( 1.530808498934190893E-17, 0.3750000000000000555, 0.1249999999999999445 ) ) ;
#325 = EDGE_CURVE ( 'NONE', #299, #152, #333, .T. ) ;
#326 = VERTEX_POINT ( 'NONE', #4 ) ;
#327 =( NAMED_UNIT ( * ) PLANE_ANGLE_UNIT ( ) SI_UNIT ( $, .RADIAN. ) );
#328 = APPLICATION_PROTOCOL_DEFINITION ( 'draft international standard', 'automotive_design', 1998, #156 ) ;
#329 = ORIENTED_EDGE ( 'NONE', *, *, #325, .F. ) ;
#330 =( GEOMETRIC_REPRESENTATION_CONTEXT ( 3 ) GLOBAL_UNCERTAINTY_ASSIGNED_CONTEXT ( ( #347 ) ) GLOBAL_UNIT_ASSIGNED_CONTEXT ( ( #21, #24, #276 ) ) REPRESENTATION_CONTEXT ( 'NONE', 'WORKASPACE' ) );
#331 = VERTEX_POINT ( 'NONE', #284 ) ;
#332 = ADVANCED_FACE ( 'NONE', ( #115 ), #232, .F. ) ;
#333 = CIRCLE ( 'NONE', #167, 0.1249999999999996808 ) ;
#334 = CARTESIAN_POINT ( 'NONE',  ( 0.000000000000000000, 0.000000000000000000, -0.1249999999999999584 ) ) ;
#335 = FILL_AREA_STYLE ('',( #23 ) ) ;
#336 = DIMENSIONAL_EXPONENTS ( 1.000000000000000000, 0.000000000000000000, 0.000000000000000000, 0.000000000000000000, 0.000000000000000000, 0.000000000000000000, 0.000000000000000000 ) ;
#337 = SURFACE_SIDE_STYLE ('',( #301 ) ) ;
#338 =( CONVERSION_BASED_UNIT ( 'INCH', #50 ) LENGTH_UNIT ( ) NAMED_UNIT ( #254 ) );
#339 = AXIS2_PLACEMENT_3D ( 'NONE', #197, #94, #290 ) ;
#340 =( LENGTH_UNIT ( ) NAMED_UNIT ( * ) SI_UNIT ( $, .METRE. ) );
#341 = DIRECTION ( 'NONE',  ( -1.231882382905062056E-16, 1.000000000000000000, -0.000000000000000000 ) ) ;
#342 = DIRECTION ( 'NONE',  ( -1.000000000000000000, 0.000000000000000000, 0.000000000000000000 ) ) ;
#343 = FACE_OUTER_BOUND ( 'NONE', #146, .T. ) ;
#344 = CIRCLE ( 'NONE', #189, 0.1250000000000000000 ) ;
#345 = DIRECTION ( 'NONE',  ( -1.000000000000000000, 0.000000000000000000, 0.000000000000000000 ) ) ;
#346 =( CONVERSION_BASED_UNIT ( 'INCH', #283 ) LENGTH_UNIT ( ) NAMED_UNIT ( #336 ) );
#347 = UNCERTAINTY_MEASURE_WITH_UNIT (LENGTH_MEASURE( 1.000000000000000082E-05 ), #21, 'distance_accuracy_value', 'NONE');
#348 = PLANE ( 'NONE',  #183 ) ;
#349 = CARTESIAN_POINT ( 'NONE',  ( 2.614132271794402599E-16, 0.3749999999999999445, 0.000000000000000000 ) ) ;
#350 = ADVANCED_FACE ( 'NONE', ( #203 ), #141, .T. ) ;
#351 = FILL_AREA_STYLE_COLOUR ( '', #358 ) ;
#352 = DIRECTION ( 'NONE',  ( 1.000000000000000000, 1.231882382905062056E-16, 0.000000000000000000 ) ) ;
#353 =( LENGTH_UNIT ( ) NAMED_UNIT ( * ) SI_UNIT ( $, .METRE. ) );
#354 = ORIENTED_EDGE ( 'NONE', *, *, #206, .F. ) ;
#355 = FACE_OUTER_BOUND ( 'NONE', #121, .T. ) ;
#356 = DIRECTION ( 'NONE',  ( 1.000000000000000000, 0.000000000000000000, 0.000000000000000000 ) ) ;
#357 = ORIENTED_EDGE ( 'NONE', *, *, #325, .T. ) ;
#358 = COLOUR_RGB ( '',1.000000000000000000, 0.000000000000000000, 0.000000000000000000 ) ;
#359 =( GEOMETRIC_REPRESENTATION_CONTEXT ( 3 ) GLOBAL_UNCERTAINTY_ASSIGNED_CONTEXT ( ( #30 ) ) GLOBAL_UNIT_ASSIGNED_CONTEXT ( ( #76, #176, #125 ) ) REPRESENTATION_CONTEXT ( 'NONE', 'WORKASPACE' ) );
#360 = DIRECTION ( 'NONE',  ( 0.000000000000000000, 0.000000000000000000, 1.000000000000000000 ) ) ;
#361 = VERTEX_POINT ( 'NONE', #324 ) ;
#362 =( NAMED_UNIT ( * ) PLANE_ANGLE_UNIT ( ) SI_UNIT ( $, .RADIAN. ) );
#363 = CARTESIAN_POINT ( 'NONE',  ( 0.000000000000000000, 0.1250000000000000278, -0.1250000000000000000 ) ) ;
#364 = EDGE_CURVE ( 'NONE', #295, #274, #266, .T. ) ;
#365 = ORIENTED_EDGE ( 'NONE', *, *, #220, .T. ) ;
#366 = CIRCLE ( 'NONE', #193, 0.1250000000000000000 ) ;
#367 = ORIENTED_EDGE ( 'NONE', *, *, #206, .T. ) ;
#368 = CIRCLE ( 'NONE', #131, 0.1249999999999999445 ) ;
#369 = EDGE_CURVE ( 'NONE', #361, #40, #300, .T. ) ;
#370 = AXIS2_PLACEMENT_3D ( 'NONE', #217, #132, #242 ) ;
#371 = SURFACE_STYLE_FILL_AREA ( #190 ) ;
#372 = CLOSED_SHELL ( 'NONE', ( #261, #172, #58, #98, #123 ) ) ;
#373 = STYLED_ITEM ( 'NONE', ( #117 ), #172 ) ;
ENDSEC;
END-ISO-10303-21;
