ISO-10303-21;
HEADER;
FILE_DESCRIPTION (( 'STEP AP214' ),
    '1' );
FILE_NAME ('Micro_BEMM-030-4.STEP',
    '2021-09-03T13:22:26',
    ( '' ),
    ( '' ),
    'SwSTEP 2.0',
    'SolidWorks 2020',
    '' );
FILE_SCHEMA (( 'AUTOMOTIVE_DESIGN' ));
ENDSEC;

DATA;
#1 = DIRECTION ( 'NONE',  ( -0.7071067811865536790, 0.0000000000000000000, -0.7071067811865412445 ) ) ;
#2 = DIRECTION ( 'NONE',  ( 0.0000000000000000000, 0.0000000000000000000, 1.000000000000000000 ) ) ;
#3 = LINE ( 'NONE', #176, #173 ) ;
#4 = LINE ( 'NONE', #129, #215 ) ;
#5 = LINE ( 'NONE', #226, #190 ) ;
#6 = EDGE_CURVE ( 'NONE', #314, #211, #18, .T. ) ;
#7 = VERTEX_POINT ( 'NONE', #321 ) ;
#8 = CONICAL_SURFACE ( 'NONE', #89, 0.05899594499999997327, 0.1745329251994346687 ) ;
#9 = CARTESIAN_POINT ( 'NONE',  ( 0.0000000000000000000, 0.0000000000000000000, 1.496062999999999921 ) ) ;
#10 = PRODUCT_RELATED_PRODUCT_CATEGORY ( 'part', '', ( #31 ) ) ;
#11 = CYLINDRICAL_SURFACE ( 'NONE', #82, 0.05905499999999998251 ) ;
#12 = ORIENTED_EDGE ( 'NONE', *, *, #63, .T. ) ;
#13 = CARTESIAN_POINT ( 'NONE',  ( 0.0000000000000000000, 0.0000000000000000000, 1.496062999999999921 ) ) ;
#14 = AXIS2_PLACEMENT_3D ( 'NONE', #317, #319, #70 ) ;
#15 = DIRECTION ( 'NONE',  ( 0.0000000000000000000, 0.0000000000000000000, -1.000000000000000000 ) ) ;
#16 = DIRECTION ( 'NONE',  ( -1.000000000000000000, 0.0000000000000000000, 1.447052840699615392E-16 ) ) ;
#17 = ORIENTED_EDGE ( 'NONE', *, *, #264, .F. ) ;
#18 = CIRCLE ( 'NONE', #74, 0.04405500000000001082 ) ;
#19 = STYLED_ITEM ( 'NONE', ( #236 ), #276 ) ;
#20 =( GEOMETRIC_REPRESENTATION_CONTEXT ( 3 ) GLOBAL_UNCERTAINTY_ASSIGNED_CONTEXT ( ( #40 ) ) GLOBAL_UNIT_ASSIGNED_CONTEXT ( ( #94, #245, #323 ) ) REPRESENTATION_CONTEXT ( 'NONE', 'WORKASPACE' ) );
#21 = ORIENTED_EDGE ( 'NONE', *, *, #52, .F. ) ;
#22 = FILL_AREA_STYLE_COLOUR ( '', #27 ) ;
#23 = DIRECTION ( 'NONE',  ( -1.000000000000000000, 0.0000000000000000000, 0.0000000000000000000 ) ) ;
#24 = EDGE_LOOP ( 'NONE', ( #46, #12, #266 ) ) ;
#25 = CLOSED_SHELL ( 'NONE', ( #170, #240, #138, #140, #180, #308, #130, #222, #232, #90, #217 ) ) ;
#26 = FACE_OUTER_BOUND ( 'NONE', #194, .T. ) ;
#27 = COLOUR_RGB ( '',0.7921568627450980005, 0.8196078431372548767, 0.9333333333333333481 ) ;
#28 = LENGTH_MEASURE_WITH_UNIT ( LENGTH_MEASURE( 0.02539999999999999897 ), #199 );
#29 = DIRECTION ( 'NONE',  ( -1.224646799147352961E-16, -0.0000000000000000000, -1.000000000000000000 ) ) ;
#30 = SURFACE_STYLE_USAGE ( .BOTH. , #102 ) ;
#31 = PRODUCT ( 'Micro_BEMM-030-4', 'Micro_BEMM-030-4', '', ( #294 ) ) ;
#32 = SPHERICAL_SURFACE ( 'NONE', #119, 0.05899594499999999409 ) ;
#33 = DIRECTION ( 'NONE',  ( -1.224646799147352961E-16, -0.0000000000000000000, -1.000000000000000000 ) ) ;
#34 = CIRCLE ( 'NONE', #149, 0.05905499999999998251 ) ;
#35 = DIRECTION ( 'NONE',  ( -1.224646799147352961E-16, -0.0000000000000000000, -1.000000000000000000 ) ) ;
#36 = LENGTH_MEASURE_WITH_UNIT ( LENGTH_MEASURE( 0.02539999999999999897 ), #313 );
#37 = DIRECTION ( 'NONE',  ( 1.000000000000000000, 0.0000000000000000000, 0.0000000000000000000 ) ) ;
#38 = AXIS2_PLACEMENT_3D ( 'NONE', #179, #111, #139 ) ;
#39 = CARTESIAN_POINT ( 'NONE',  ( 0.04405500000000001082, 6.313666573004179469E-18, 1.496062999999999921 ) ) ;
#40 = UNCERTAINTY_MEASURE_WITH_UNIT (LENGTH_MEASURE( 1.000000000000000082E-05 ), #94, 'distance_accuracy_value', 'NONE');
#41 = DIRECTION ( 'NONE',  ( -0.0000000000000000000, -0.0000000000000000000, -1.000000000000000000 ) ) ;
#42 = ORIENTED_EDGE ( 'NONE', *, *, #99, .T. ) ;
#43 = UNCERTAINTY_MEASURE_WITH_UNIT (LENGTH_MEASURE( 1.000000000000000082E-05 ), #125, 'distance_accuracy_value', 'NONE');
#44 = VERTEX_POINT ( 'NONE', #169 ) ;
#45 = CARTESIAN_POINT ( 'NONE',  ( 0.04405500000000001082, 5.395181473643666598E-18, 1.496062999999999921 ) ) ;
#46 = ORIENTED_EDGE ( 'NONE', *, *, #324, .F. ) ;
#47 = APPLICATION_PROTOCOL_DEFINITION ( 'draft international standard', 'automotive_design', 1998, #198 ) ;
#48 = VECTOR ( 'NONE', #310, 39.37007874015748143 ) ;
#49 = EDGE_LOOP ( 'NONE', ( #133, #273, #100, #117 ) ) ;
#50 = DIRECTION ( 'NONE',  ( 0.0000000000000000000, 0.0000000000000000000, 1.000000000000000000 ) ) ;
#51 = ORIENTED_EDGE ( 'NONE', *, *, #201, .T. ) ;
#52 = EDGE_CURVE ( 'NONE', #314, #88, #220, .T. ) ;
#53 = DIRECTION ( 'NONE',  ( 1.000000000000000000, 0.0000000000000000000, 0.0000000000000000000 ) ) ;
#54 = DIRECTION ( 'NONE',  ( 1.000000000000000000, 0.0000000000000000000, 0.0000000000000000000 ) ) ;
#55 = DIRECTION ( 'NONE',  ( 1.000000000000000000, 0.0000000000000000000, 0.0000000000000000000 ) ) ;
#56 =( GEOMETRIC_REPRESENTATION_CONTEXT ( 3 ) GLOBAL_UNCERTAINTY_ASSIGNED_CONTEXT ( ( #43 ) ) GLOBAL_UNIT_ASSIGNED_CONTEXT ( ( #125, #96, #164 ) ) REPRESENTATION_CONTEXT ( 'NONE', 'WORKASPACE' ) );
#57 = EDGE_CURVE ( 'NONE', #246, #109, #309, .T. ) ;
#58 = CARTESIAN_POINT ( 'NONE',  ( 0.0000000000000000000, 0.0000000000000000000, 0.0000000000000000000 ) ) ;
#59 = CYLINDRICAL_SURFACE ( 'NONE', #61, 0.05899594499999997327 ) ;
#60 = CARTESIAN_POINT ( 'NONE',  ( 1.083737928103849376E-17, 0.0000000000000000000, 0.0000000000000000000 ) ) ;
#61 = AXIS2_PLACEMENT_3D ( 'NONE', #58, #33, #84 ) ;
#62 = DIRECTION ( 'NONE',  ( 1.000000000000000000, 0.0000000000000000000, 0.0000000000000000000 ) ) ;
#63 = EDGE_CURVE ( 'NONE', #116, #109, #254, .T. ) ;
#64 = CYLINDRICAL_SURFACE ( 'NONE', #301, 0.05899594499999997327 ) ;
#65 = DIRECTION ( 'NONE',  ( -1.000000000000000000, 0.0000000000000000000, 1.447052840699615392E-16 ) ) ;
#66 = CIRCLE ( 'NONE', #177, 0.05899594499999997327 ) ;
#67 = CARTESIAN_POINT ( 'NONE',  ( -0.05905499999999998251, 0.0000000000000000000, 1.496062999999999921 ) ) ;
#68 = CARTESIAN_POINT ( 'NONE',  ( 0.0000000000000000000, 0.0000000000000000000, 0.0000000000000000000 ) ) ;
#69 = AXIS2_PLACEMENT_3D ( 'NONE', #107, #252, #83 ) ;
#70 = DIRECTION ( 'NONE',  ( -1.000000000000000000, 1.224646799147353454E-16, 0.0000000000000000000 ) ) ;
#71 = CARTESIAN_POINT ( 'NONE',  ( 7.232163918832683761E-17, 0.0000000000000000000, 0.5905510000000000481 ) ) ;
#72 = EDGE_CURVE ( 'NONE', #292, #44, #318, .T. ) ;
#73 = EDGE_LOOP ( 'NONE', ( #275, #145 ) ) ;
#74 = AXIS2_PLACEMENT_3D ( 'NONE', #95, #297, #78 ) ;
#75 = AXIS2_PLACEMENT_3D ( 'NONE', #181, #285, #37 ) ;
#76 = EDGE_CURVE ( 'NONE', #292, #109, #121, .T. ) ;
#77 = ORIENTED_EDGE ( 'NONE', *, *, #188, .F. ) ;
#78 = DIRECTION ( 'NONE',  ( 1.000000000000000000, 0.0000000000000000000, 0.0000000000000000000 ) ) ;
#79 = EDGE_CURVE ( 'NONE', #88, #7, #203, .T. ) ;
#80 = CARTESIAN_POINT ( 'NONE',  ( 0.0000000000000000000, 0.0000000000000000000, 1.496062999999999921 ) ) ;
#81 = AXIS2_PLACEMENT_3D ( 'NONE', #213, #241, #16 ) ;
#82 = AXIS2_PLACEMENT_3D ( 'NONE', #9, #41, #110 ) ;
#83 = DIRECTION ( 'NONE',  ( -1.000000000000000000, 0.0000000000000000000, 0.0000000000000000000 ) ) ;
#84 = DIRECTION ( 'NONE',  ( -1.000000000000000000, 0.0000000000000000000, 1.224646799147352714E-16 ) ) ;
#85 = DIRECTION ( 'NONE',  ( -1.000000000000000000, 0.0000000000000000000, 0.0000000000000000000 ) ) ;
#86 = AXIS2_PLACEMENT_3D ( 'NONE', #218, #208, #62 ) ;
#87 = FILL_AREA_STYLE ('',( #320 ) ) ;
#88 = VERTEX_POINT ( 'NONE', #299 ) ;
#89 = AXIS2_PLACEMENT_3D ( 'NONE', #153, #249, #200 ) ;
#90 = ADVANCED_FACE ( 'NONE', ( #281 ), #59, .T. ) ;
#91 = VERTEX_POINT ( 'NONE', #124 ) ;
#92 = CONICAL_SURFACE ( 'NONE', #295, 0.05899594499999997327, 0.1745329251994346687 ) ;
#93 = ORIENTED_EDGE ( 'NONE', *, *, #305, .F. ) ;
#94 =( CONVERSION_BASED_UNIT ( 'INCH', #127 ) LENGTH_UNIT ( ) NAMED_UNIT ( #137 ) );
#95 = CARTESIAN_POINT ( 'NONE',  ( 0.0000000000000000000, 0.0000000000000000000, 1.496062999999999921 ) ) ;
#96 =( NAMED_UNIT ( * ) PLANE_ANGLE_UNIT ( ) SI_UNIT ( $, .RADIAN. ) );
#97 = ORIENTED_EDGE ( 'NONE', *, *, #72, .T. ) ;
#98 = AXIS2_PLACEMENT_3D ( 'NONE', #225, #229, #202 ) ;
#99 = EDGE_CURVE ( 'NONE', #211, #91, #5, .T. ) ;
#100 = ORIENTED_EDGE ( 'NONE', *, *, #76, .T. ) ;
#101 = DIRECTION ( 'NONE',  ( -0.0000000000000000000, -0.0000000000000000000, -1.000000000000000000 ) ) ;
#102 = SURFACE_SIDE_STYLE ('',( #147 ) ) ;
#103 = CARTESIAN_POINT ( 'NONE',  ( 0.0000000000000000000, 0.0000000000000000000, 1.481063000000000240 ) ) ;
#104 = AXIS2_PLACEMENT_3D ( 'NONE', #307, #174, #55 ) ;
#105 = PRODUCT_DEFINITION_SHAPE ( 'NONE', 'NONE',  #280 ) ;
#106 = CARTESIAN_POINT ( 'NONE',  ( 0.0000000000000000000, 0.0000000000000000000, 1.496062999999999921 ) ) ;
#107 = CARTESIAN_POINT ( 'NONE',  ( 0.0000000000000000000, 0.0000000000000000000, 1.496062999999999921 ) ) ;
#108 = CARTESIAN_POINT ( 'NONE',  ( -0.04405500000000001082, 0.0000000000000000000, 1.496062999999999921 ) ) ;
#109 = VERTEX_POINT ( 'NONE', #303 ) ;
#110 = DIRECTION ( 'NONE',  ( -1.000000000000000000, 0.0000000000000000000, 0.0000000000000000000 ) ) ;
#111 = DIRECTION ( 'NONE',  ( 0.0000000000000000000, 1.000000000000000000, 0.0000000000000000000 ) ) ;
#112 = ORIENTED_EDGE ( 'NONE', *, *, #212, .F. ) ;
#113 = DIRECTION ( 'NONE',  ( 1.224646799147352961E-16, 0.0000000000000000000, 1.000000000000000000 ) ) ;
#114 = AXIS2_PLACEMENT_3D ( 'NONE', #80, #2, #126 ) ;
#115 = SURFACE_STYLE_FILL_AREA ( #87 ) ;
#116 = VERTEX_POINT ( 'NONE', #60 ) ;
#117 = ORIENTED_EDGE ( 'NONE', *, *, #253, .T. ) ;
#118 = AXIS2_PLACEMENT_3D ( 'NONE', #13, #15, #265 ) ;
#119 = AXIS2_PLACEMENT_3D ( 'NONE', #128, #231, #150 ) ;
#120 = ORIENTED_EDGE ( 'NONE', *, *, #72, .F. ) ;
#121 = LINE ( 'NONE', #142, #135 ) ;
#122 = ORIENTED_EDGE ( 'NONE', *, *, #205, .T. ) ;
#123 = PRESENTATION_LAYER_ASSIGNMENT (  '', '', ( #19 ) ) ;
#124 = CARTESIAN_POINT ( 'NONE',  ( -0.05905499999999998251, 0.0000000000000000000, 1.481063000000000240 ) ) ;
#125 =( CONVERSION_BASED_UNIT ( 'INCH', #28 ) LENGTH_UNIT ( ) NAMED_UNIT ( #258 ) );
#126 = DIRECTION ( 'NONE',  ( 1.000000000000000000, 0.0000000000000000000, 0.0000000000000000000 ) ) ;
#127 = LENGTH_MEASURE_WITH_UNIT ( LENGTH_MEASURE( 0.02539999999999999897 ), #221 );
#128 = CARTESIAN_POINT ( 'NONE',  ( 7.224919520692328148E-18, 0.0000000000000000000, 0.05899594499999999409 ) ) ;
#129 = CARTESIAN_POINT ( 'NONE',  ( 0.05899594499999997327, 7.224919520692326607E-18, -7.224919520692323526E-18 ) ) ;
#130 = ADVANCED_FACE ( 'NONE', ( #278 ), #155, .T. ) ;
#131 = DIRECTION ( 'NONE',  ( -1.000000000000000000, 0.0000000000000000000, 0.0000000000000000000 ) ) ;
#132 = FACE_OUTER_BOUND ( 'NONE', #143, .T. ) ;
#133 = ORIENTED_EDGE ( 'NONE', *, *, #205, .F. ) ;
#134 = FACE_OUTER_BOUND ( 'NONE', #219, .T. ) ;
#135 = VECTOR ( 'NONE', #242, 39.37007874015748143 ) ;
#136 = CARTESIAN_POINT ( 'NONE',  ( 7.224919520692328148E-18, 0.0000000000000000000, 0.05899594499999999409 ) ) ;
#137 = DIMENSIONAL_EXPONENTS ( 1.000000000000000000, 0.0000000000000000000, 0.0000000000000000000, 0.0000000000000000000, 0.0000000000000000000, 0.0000000000000000000, 0.0000000000000000000 ) ;
#138 = ADVANCED_FACE ( 'NONE', ( #256 ), #8, .T. ) ;
#139 = DIRECTION ( 'NONE',  ( 1.000000000000000000, 0.0000000000000000000, 0.0000000000000000000 ) ) ;
#140 = ADVANCED_FACE ( 'NONE', ( #26 ), #260, .T. ) ;
#141 = DIRECTION ( 'NONE',  ( 0.7071067811865536790, 8.659560562355008046E-17, -0.7071067811865412445 ) ) ;
#142 = CARTESIAN_POINT ( 'NONE',  ( -0.05899594499999997327, 0.0000000000000000000, 7.224919520692323526E-18 ) ) ;
#143 = EDGE_LOOP ( 'NONE', ( #97, #122, #189, #270 ) ) ;
#144 = AXIS2_PLACEMENT_3D ( 'NONE', #71, #162, #23 ) ;
#145 = ORIENTED_EDGE ( 'NONE', *, *, #6, .T. ) ;
#146 = EDGE_LOOP ( 'NONE', ( #21, #112, #42, #185 ) ) ;
#147 = SURFACE_STYLE_FILL_AREA ( #171 ) ;
#148 = FACE_OUTER_BOUND ( 'NONE', #146, .T. ) ;
#149 = AXIS2_PLACEMENT_3D ( 'NONE', #103, #204, #54 ) ;
#150 = DIRECTION ( 'NONE',  ( 1.000000000000000000, 0.0000000000000000000, 0.0000000000000000000 ) ) ;
#151 = CARTESIAN_POINT ( 'NONE',  ( 0.0000000000000000000, 0.0000000000000000000, 0.0000000000000000000 ) ) ;
#152 = CARTESIAN_POINT ( 'NONE',  ( 7.232163918832683761E-17, 0.0000000000000000000, 0.5905510000000000481 ) ) ;
#153 = CARTESIAN_POINT ( 'NONE',  ( 7.232163918832683761E-17, 0.0000000000000000000, 0.5905510000000000481 ) ) ;
#154 = UNCERTAINTY_MEASURE_WITH_UNIT (LENGTH_MEASURE( 1.000000000000000082E-05 ), #316, 'distance_accuracy_value', 'NONE');
#155 = PLANE ( 'NONE',  #98 ) ;
#156 = DIMENSIONAL_EXPONENTS ( 1.000000000000000000, 0.0000000000000000000, 0.0000000000000000000, 0.0000000000000000000, 0.0000000000000000000, 0.0000000000000000000, 0.0000000000000000000 ) ;
#157 = CIRCLE ( 'NONE', #86, 0.05905499999999998251 ) ;
#158 = DIRECTION ( 'NONE',  ( -1.000000000000000000, 0.0000000000000000000, 1.224646799147352714E-16 ) ) ;
#159 = DIRECTION ( 'NONE',  ( 0.0000000000000000000, 0.0000000000000000000, -1.000000000000000000 ) ) ;
#160 = EDGE_CURVE ( 'NONE', #91, #88, #279, .T. ) ;
#161 = MECHANICAL_DESIGN_GEOMETRIC_PRESENTATION_REPRESENTATION (  '', ( #19 ), #183 ) ;
#162 = DIRECTION ( 'NONE',  ( -1.224646799147352961E-16, -0.0000000000000000000, -1.000000000000000000 ) ) ;
#163 = ORIENTED_EDGE ( 'NONE', *, *, #201, .F. ) ;
#164 =( NAMED_UNIT ( * ) SI_UNIT ( $, .STERADIAN. ) SOLID_ANGLE_UNIT ( ) );
#165 = EDGE_CURVE ( 'NONE', #44, #292, #66, .T. ) ;
#166 = ORIENTED_EDGE ( 'NONE', *, *, #253, .F. ) ;
#167 = VECTOR ( 'NONE', #277, 39.37007874015748854 ) ;
#168 = ORIENTED_EDGE ( 'NONE', *, *, #52, .T. ) ;
#169 = CARTESIAN_POINT ( 'NONE',  ( 0.05899594500000004266, 0.0000000000000000000, 0.5905510000000000481 ) ) ;
#170 = ADVANCED_FACE ( 'NONE', ( #172 ), #32, .T. ) ;
#171 = FILL_AREA_STYLE ('',( #22 ) ) ;
#172 = FACE_OUTER_BOUND ( 'NONE', #24, .T. ) ;
#173 = VECTOR ( 'NONE', #283, 39.37007874015748143 ) ;
#174 = DIRECTION ( 'NONE',  ( 0.0000000000000000000, 0.0000000000000000000, -1.000000000000000000 ) ) ;
#175 = CYLINDRICAL_SURFACE ( 'NONE', #315, 0.05905499999999998251 ) ;
#176 = CARTESIAN_POINT ( 'NONE',  ( -0.05899594499999990388, 7.224919520692326607E-18, 0.5905510000000000481 ) ) ;
#177 = AXIS2_PLACEMENT_3D ( 'NONE', #152, #35, #85 ) ;
#178 = AXIS2_PLACEMENT_3D ( 'NONE', #151, #50, #53 ) ;
#179 = CARTESIAN_POINT ( 'NONE',  ( 7.224919520692328148E-18, 0.0000000000000000000, 0.05899594499999999409 ) ) ;
#180 = ADVANCED_FACE ( 'NONE', ( #306 ), #175, .T. ) ;
#181 = CARTESIAN_POINT ( 'NONE',  ( 7.236265475862304269E-17, 0.0000000000000000000, 0.5908859175478575754 ) ) ;
#182 = FACE_OUTER_BOUND ( 'NONE', #214, .T. ) ;
#183 =( GEOMETRIC_REPRESENTATION_CONTEXT ( 3 ) GLOBAL_UNCERTAINTY_ASSIGNED_CONTEXT ( ( #154 ) ) GLOBAL_UNIT_ASSIGNED_CONTEXT ( ( #316, #262, #259 ) ) REPRESENTATION_CONTEXT ( 'NONE', 'WORKASPACE' ) );
#184 = CARTESIAN_POINT ( 'NONE',  ( -0.05905499999999991312, 0.0000000000000000000, 0.5908859175478575754 ) ) ;
#185 = ORIENTED_EDGE ( 'NONE', *, *, #216, .F. ) ;
#186 = SPHERICAL_SURFACE ( 'NONE', #38, 0.05899594499999999409 ) ;
#187 = ORIENTED_EDGE ( 'NONE', *, *, #216, .T. ) ;
#188 = EDGE_CURVE ( 'NONE', #44, #7, #227, .T. ) ;
#189 = ORIENTED_EDGE ( 'NONE', *, *, #57, .T. ) ;
#190 = VECTOR ( 'NONE', #1, 39.37007874015748854 ) ;
#191 = STYLED_ITEM ( 'NONE', ( #248 ), #304 ) ;
#192 = EDGE_LOOP ( 'NONE', ( #196, #223, #93, #234 ) ) ;
#193 = EDGE_LOOP ( 'NONE', ( #120, #51, #293, #77 ) ) ;
#194 = EDGE_LOOP ( 'NONE', ( #311, #168, #296, #209 ) ) ;
#195 = CIRCLE ( 'NONE', #114, 0.04405500000000001082 ) ;
#196 = ORIENTED_EDGE ( 'NONE', *, *, #160, .T. ) ;
#197 = DIRECTION ( 'NONE',  ( -0.0000000000000000000, -0.0000000000000000000, -1.000000000000000000 ) ) ;
#198 = APPLICATION_CONTEXT ( 'automotive_design' ) ;
#199 =( LENGTH_UNIT ( ) NAMED_UNIT ( * ) SI_UNIT ( $, .METRE. ) );
#200 = DIRECTION ( 'NONE',  ( 1.000000000000000000, 0.0000000000000000000, 0.0000000000000000000 ) ) ;
#201 = EDGE_CURVE ( 'NONE', #292, #325, #3, .T. ) ;
#202 = DIRECTION ( 'NONE',  ( 1.000000000000000000, 0.0000000000000000000, -0.0000000000000000000 ) ) ;
#203 = LINE ( 'NONE', #251, #243 ) ;
#204 = DIRECTION ( 'NONE',  ( 0.0000000000000000000, 0.0000000000000000000, -1.000000000000000000 ) ) ;
#205 = EDGE_CURVE ( 'NONE', #44, #246, #4, .T. ) ;
#206 = ORIENTED_EDGE ( 'NONE', *, *, #324, .T. ) ;
#207 = CARTESIAN_POINT ( 'NONE',  ( 7.224919520692328148E-18, 0.0000000000000000000, 0.05899594499999999409 ) ) ;
#208 = DIRECTION ( 'NONE',  ( -1.224646799147352961E-16, -0.0000000000000000000, -1.000000000000000000 ) ) ;
#209 = ORIENTED_EDGE ( 'NONE', *, *, #99, .F. ) ;
#210 = SURFACE_STYLE_USAGE ( .BOTH. , #289 ) ;
#211 = VERTEX_POINT ( 'NONE', #108 ) ;
#212 = EDGE_CURVE ( 'NONE', #211, #314, #195, .T. ) ;
#213 = CARTESIAN_POINT ( 'NONE',  ( 7.224919520692328148E-18, 0.0000000000000000000, 0.05899594499999999409 ) ) ;
#214 = EDGE_LOOP ( 'NONE', ( #163, #247, #322, #271 ) ) ;
#215 = VECTOR ( 'NONE', #29, 39.37007874015748143 ) ;
#216 = EDGE_CURVE ( 'NONE', #88, #91, #34, .T. ) ;
#217 = ADVANCED_FACE ( 'NONE', ( #300 ), #186, .T. ) ;
#218 = CARTESIAN_POINT ( 'NONE',  ( 7.236265475862304269E-17, 0.0000000000000000000, 0.5908859175478575754 ) ) ;
#219 = EDGE_LOOP ( 'NONE', ( #288, #187, #244, #17 ) ) ;
#220 = LINE ( 'NONE', #45, #237 ) ;
#221 =( LENGTH_UNIT ( ) NAMED_UNIT ( * ) SI_UNIT ( $, .METRE. ) );
#222 = ADVANCED_FACE ( 'NONE', ( #148 ), #302, .T. ) ;
#223 = ORIENTED_EDGE ( 'NONE', *, *, #79, .T. ) ;
#224 = CIRCLE ( 'NONE', #250, 0.05899594499999997327 ) ;
#225 = CARTESIAN_POINT ( 'NONE',  ( 0.0000000000000000000, 0.0000000000000000000, 1.496062999999999921 ) ) ;
#226 = CARTESIAN_POINT ( 'NONE',  ( -0.04405500000000001082, 0.0000000000000000000, 1.496062999999999921 ) ) ;
#227 = LINE ( 'NONE', #282, #167 ) ;
#228 = PRESENTATION_LAYER_ASSIGNMENT (  '', '', ( #191 ) ) ;
#229 = DIRECTION ( 'NONE',  ( 0.0000000000000000000, 0.0000000000000000000, 1.000000000000000000 ) ) ;
#230 = APPLICATION_CONTEXT ( 'automotive_design' ) ;
#231 = DIRECTION ( 'NONE',  ( 0.0000000000000000000, 1.000000000000000000, 0.0000000000000000000 ) ) ;
#232 = ADVANCED_FACE ( 'NONE', ( #182 ), #92, .T. ) ;
#233 = LINE ( 'NONE', #67, #48 ) ;
#234 = ORIENTED_EDGE ( 'NONE', *, *, #298, .F. ) ;
#235 = PRODUCT_DEFINITION_FORMATION_WITH_SPECIFIED_SOURCE ( 'ANY', '', #31, .NOT_KNOWN. ) ;
#236 = PRESENTATION_STYLE_ASSIGNMENT (( #210 ) ) ;
#237 = VECTOR ( 'NONE', #141, 39.37007874015748854 ) ;
#238 = DIRECTION ( 'NONE',  ( 1.224646799147352961E-16, 0.0000000000000000000, 1.000000000000000000 ) ) ;
#239 = PRODUCT_DEFINITION_CONTEXT ( 'detailed design', #198, 'design' ) ;
#240 = ADVANCED_FACE ( 'NONE', ( #132 ), #64, .T. ) ;
#241 = DIRECTION ( 'NONE',  ( 1.224646799147352961E-16, 0.0000000000000000000, 1.000000000000000000 ) ) ;
#242 = DIRECTION ( 'NONE',  ( -1.224646799147352961E-16, -0.0000000000000000000, -1.000000000000000000 ) ) ;
#243 = VECTOR ( 'NONE', #197, 39.37007874015748143 ) ;
#244 = ORIENTED_EDGE ( 'NONE', *, *, #298, .T. ) ;
#245 =( NAMED_UNIT ( * ) PLANE_ANGLE_UNIT ( ) SI_UNIT ( $, .RADIAN. ) );
#246 = VERTEX_POINT ( 'NONE', #312 ) ;
#247 = ORIENTED_EDGE ( 'NONE', *, *, #165, .F. ) ;
#248 = PRESENTATION_STYLE_ASSIGNMENT (( #30 ) ) ;
#249 = DIRECTION ( 'NONE',  ( 1.224646799147352961E-16, 0.0000000000000000000, 1.000000000000000000 ) ) ;
#250 = AXIS2_PLACEMENT_3D ( 'NONE', #136, #238, #65 ) ;
#251 = CARTESIAN_POINT ( 'NONE',  ( 0.05905499999999998251, 7.232151672364692341E-18, 1.496062999999999921 ) ) ;
#252 = DIRECTION ( 'NONE',  ( 0.0000000000000000000, 0.0000000000000000000, -1.000000000000000000 ) ) ;
#253 = EDGE_CURVE ( 'NONE', #109, #246, #224, .T. ) ;
#254 = CIRCLE ( 'NONE', #14, 0.05899594499999999409 ) ;
#255 = CIRCLE ( 'NONE', #268, 0.05899594499999999409 ) ;
#256 = FACE_OUTER_BOUND ( 'NONE', #193, .T. ) ;
#257 = CARTESIAN_POINT ( 'NONE',  ( 7.232163918832683761E-17, 0.0000000000000000000, 0.5905510000000000481 ) ) ;
#258 = DIMENSIONAL_EXPONENTS ( 1.000000000000000000, 0.0000000000000000000, 0.0000000000000000000, 0.0000000000000000000, 0.0000000000000000000, 0.0000000000000000000, 0.0000000000000000000 ) ;
#259 =( NAMED_UNIT ( * ) SI_UNIT ( $, .STERADIAN. ) SOLID_ANGLE_UNIT ( ) );
#260 = CONICAL_SURFACE ( 'NONE', #69, 0.04405500000000001082, 0.7853981633974570498 ) ;
#261 = CIRCLE ( 'NONE', #75, 0.05905499999999998251 ) ;
#262 =( NAMED_UNIT ( * ) PLANE_ANGLE_UNIT ( ) SI_UNIT ( $, .RADIAN. ) );
#263 = DIRECTION ( 'NONE',  ( 1.000000000000000000, 0.0000000000000000000, 0.0000000000000000000 ) ) ;
#264 = EDGE_CURVE ( 'NONE', #7, #325, #157, .T. ) ;
#265 = DIRECTION ( 'NONE',  ( -1.000000000000000000, 0.0000000000000000000, 0.0000000000000000000 ) ) ;
#266 = ORIENTED_EDGE ( 'NONE', *, *, #57, .F. ) ;
#267 = COLOUR_RGB ( '',0.7921568627450980005, 0.8196078431372548767, 0.9333333333333333481 ) ;
#268 = AXIS2_PLACEMENT_3D ( 'NONE', #207, #286, #159 ) ;
#269 = EDGE_LOOP ( 'NONE', ( #291, #206, #166 ) ) ;
#270 = ORIENTED_EDGE ( 'NONE', *, *, #76, .F. ) ;
#271 = ORIENTED_EDGE ( 'NONE', *, *, #264, .T. ) ;
#272 = APPLICATION_PROTOCOL_DEFINITION ( 'draft international standard', 'automotive_design', 1998, #230 ) ;
#273 = ORIENTED_EDGE ( 'NONE', *, *, #165, .T. ) ;
#274 = SHAPE_DEFINITION_REPRESENTATION ( #105, #304 ) ;
#275 = ORIENTED_EDGE ( 'NONE', *, *, #212, .T. ) ;
#276 = MANIFOLD_SOLID_BREP ( 'Fillet1', #25 ) ;
#277 = DIRECTION ( 'NONE',  ( 0.1736481776669321631, 0.0000000000000000000, 0.9848077530122076872 ) ) ;
#278 = FACE_OUTER_BOUND ( 'NONE', #73, .T. ) ;
#279 = CIRCLE ( 'NONE', #104, 0.05905499999999998251 ) ;
#280 = PRODUCT_DEFINITION ( 'UNKNOWN', '', #235, #239 ) ;
#281 = FACE_OUTER_BOUND ( 'NONE', #49, .T. ) ;
#282 = CARTESIAN_POINT ( 'NONE',  ( 0.05899594500000004266, 0.0000000000000000000, 0.5905510000000000481 ) ) ;
#283 = DIRECTION ( 'NONE',  ( -0.1736481776669319688, 2.126576849575792869E-17, 0.9848077530122077983 ) ) ;
#284 = DIRECTION ( 'NONE',  ( -1.224646799147352961E-16, -0.0000000000000000000, -1.000000000000000000 ) ) ;
#285 = DIRECTION ( 'NONE',  ( -1.224646799147352961E-16, -0.0000000000000000000, -1.000000000000000000 ) ) ;
#286 = DIRECTION ( 'NONE',  ( 0.0000000000000000000, -1.000000000000000000, 0.0000000000000000000 ) ) ;
#287 = CARTESIAN_POINT ( 'NONE',  ( -0.05899594499999990388, 7.228535596528510244E-18, 0.5905510000000000481 ) ) ;
#288 = ORIENTED_EDGE ( 'NONE', *, *, #79, .F. ) ;
#289 = SURFACE_SIDE_STYLE ('',( #115 ) ) ;
#290 = MECHANICAL_DESIGN_GEOMETRIC_PRESENTATION_REPRESENTATION (  '', ( #191 ), #20 ) ;
#291 = ORIENTED_EDGE ( 'NONE', *, *, #63, .F. ) ;
#292 = VERTEX_POINT ( 'NONE', #287 ) ;
#293 = ORIENTED_EDGE ( 'NONE', *, *, #305, .T. ) ;
#294 = PRODUCT_CONTEXT ( 'NONE', #230, 'mechanical' ) ;
#295 = AXIS2_PLACEMENT_3D ( 'NONE', #257, #113, #263 ) ;
#296 = ORIENTED_EDGE ( 'NONE', *, *, #160, .F. ) ;
#297 = DIRECTION ( 'NONE',  ( 0.0000000000000000000, 0.0000000000000000000, 1.000000000000000000 ) ) ;
#298 = EDGE_CURVE ( 'NONE', #91, #325, #233, .T. ) ;
#299 = CARTESIAN_POINT ( 'NONE',  ( 0.05905499999999998251, 7.232151672364692341E-18, 1.481063000000000240 ) ) ;
#300 = FACE_OUTER_BOUND ( 'NONE', #269, .T. ) ;
#301 = AXIS2_PLACEMENT_3D ( 'NONE', #68, #284, #158 ) ;
#302 = CONICAL_SURFACE ( 'NONE', #118, 0.04405500000000001082, 0.7853981633974570498 ) ;
#303 = CARTESIAN_POINT ( 'NONE',  ( -0.05899594499999995939, 0.0000000000000000000, 0.05899594500000000796 ) ) ;
#304 = ADVANCED_BREP_SHAPE_REPRESENTATION ( 'Micro_BEMM-030-4', ( #276, #178 ), #56 ) ;
#305 = EDGE_CURVE ( 'NONE', #325, #7, #261, .T. ) ;
#306 = FACE_OUTER_BOUND ( 'NONE', #192, .T. ) ;
#307 = CARTESIAN_POINT ( 'NONE',  ( 0.0000000000000000000, 0.0000000000000000000, 1.481063000000000240 ) ) ;
#308 = ADVANCED_FACE ( 'NONE', ( #134 ), #11, .T. ) ;
#309 = CIRCLE ( 'NONE', #81, 0.05899594499999997327 ) ;
#310 = DIRECTION ( 'NONE',  ( -0.0000000000000000000, -0.0000000000000000000, -1.000000000000000000 ) ) ;
#311 = ORIENTED_EDGE ( 'NONE', *, *, #6, .F. ) ;
#312 = CARTESIAN_POINT ( 'NONE',  ( 0.05899594499999998021, 7.224919520692326607E-18, 0.05899594499999998715 ) ) ;
#313 =( LENGTH_UNIT ( ) NAMED_UNIT ( * ) SI_UNIT ( $, .METRE. ) );
#314 = VERTEX_POINT ( 'NONE', #39 ) ;
#315 = AXIS2_PLACEMENT_3D ( 'NONE', #106, #101, #131 ) ;
#316 =( CONVERSION_BASED_UNIT ( 'INCH', #36 ) LENGTH_UNIT ( ) NAMED_UNIT ( #156 ) );
#317 = CARTESIAN_POINT ( 'NONE',  ( 7.224919520692328148E-18, 0.0000000000000000000, 0.05899594499999999409 ) ) ;
#318 = CIRCLE ( 'NONE', #144, 0.05899594499999997327 ) ;
#319 = DIRECTION ( 'NONE',  ( 1.224646799147353207E-16, 1.000000000000000000, -0.0000000000000000000 ) ) ;
#320 = FILL_AREA_STYLE_COLOUR ( '', #267 ) ;
#321 = CARTESIAN_POINT ( 'NONE',  ( 0.05905500000000004496, 7.232151672364700045E-18, 0.5908859175478575754 ) ) ;
#322 = ORIENTED_EDGE ( 'NONE', *, *, #188, .T. ) ;
#323 =( NAMED_UNIT ( * ) SI_UNIT ( $, .STERADIAN. ) SOLID_ANGLE_UNIT ( ) );
#324 = EDGE_CURVE ( 'NONE', #116, #246, #255, .T. ) ;
#325 = VERTEX_POINT ( 'NONE', #184 ) ;
ENDSEC;
END-ISO-10303-21;
