ISO-10303-21;
HEADER;
FILE_DESCRIPTION (( 'STEP AP214' ),
    '1' );
FILE_NAME ('Micro_GEC-625-2-020.STEP',
    '2021-09-03T17:25:24',
    ( '' ),
    ( '' ),
    'SwSTEP 2.0',
    'SolidWorks 2020',
    '' );
FILE_SCHEMA (( 'AUTOMOTIVE_DESIGN' ));
ENDSEC;

DATA;
#1 = DIRECTION ( 'NONE',  ( 1.000000000000000000, 0.0000000000000000000, 0.0000000000000000000 ) ) ;
#2 = EDGE_CURVE ( 'NONE', #310, #132, #140, .T. ) ;
#3 = SURFACE_STYLE_FILL_AREA ( #305 ) ;
#4 = CARTESIAN_POINT ( 'NONE',  ( 0.3125000000000001665, 3.827021247335480159E-17, 1.251772275568631132 ) ) ;
#5 = CARTESIAN_POINT ( 'NONE',  ( 0.3121875000000000622, 0.0000000000000000000, 1.250000000000000000 ) ) ;
#6 = EDGE_CURVE ( 'NONE', #43, #69, #271, .T. ) ;
#7 = COLOUR_RGB ( '',0.7921568627450980005, 0.8196078431372548767, 0.9333333333333333481 ) ;
#8 = FILL_AREA_STYLE_COLOUR ( '', #7 ) ;
#9 = ORIENTED_EDGE ( 'NONE', *, *, #6, .T. ) ;
#10 = PRODUCT ( 'Micro_GEC-625-2-020', 'Micro_GEC-625-2-020', '', ( #296 ) ) ;
#11 = EDGE_CURVE ( 'NONE', #98, #43, #303, .T. ) ;
#12 = FACE_OUTER_BOUND ( 'NONE', #287, .T. ) ;
#13 = ORIENTED_EDGE ( 'NONE', *, *, #275, .F. ) ;
#14 = EDGE_CURVE ( 'NONE', #310, #263, #344, .T. ) ;
#15 =( NAMED_UNIT ( * ) SI_UNIT ( $, .STERADIAN. ) SOLID_ANGLE_UNIT ( ) );
#16 = DIMENSIONAL_EXPONENTS ( 1.000000000000000000, 0.0000000000000000000, 0.0000000000000000000, 0.0000000000000000000, 0.0000000000000000000, 0.0000000000000000000, 0.0000000000000000000 ) ;
#17 = EDGE_CURVE ( 'NONE', #285, #95, #200, .T. ) ;
#18 = DIRECTION ( 'NONE',  ( 0.0000000000000000000, 0.0000000000000000000, 1.000000000000000000 ) ) ;
#19 = ADVANCED_FACE ( 'NONE', ( #292 ), #228, .T. ) ;
#20 = AXIS2_PLACEMENT_3D ( 'NONE', #75, #188, #47 ) ;
#21 = ORIENTED_EDGE ( 'NONE', *, *, #2, .T. ) ;
#22 = ADVANCED_FACE ( 'NONE', ( #211 ), #295, .T. ) ;
#23 = EDGE_LOOP ( 'NONE', ( #313, #66, #238, #293 ) ) ;
#24 = VERTEX_POINT ( 'NONE', #76 ) ;
#25 = DIRECTION ( 'NONE',  ( -1.000000000000000000, 0.0000000000000000000, 0.0000000000000000000 ) ) ;
#26 = CIRCLE ( 'NONE', #343, 0.2975000000000003197 ) ;
#27 =( NAMED_UNIT ( * ) SI_UNIT ( $, .STERADIAN. ) SOLID_ANGLE_UNIT ( ) );
#28 = LINE ( 'NONE', #216, #244 ) ;
#29 = SHAPE_DEFINITION_REPRESENTATION ( #203, #46 ) ;
#30 = DIRECTION ( 'NONE',  ( -1.224646799147353207E-16, -0.0000000000000000000, -1.000000000000000000 ) ) ;
#31 = CARTESIAN_POINT ( 'NONE',  ( 0.2975000000000003197, 3.735172737399428256E-17, 3.500000000000000000 ) ) ;
#32 = AXIS2_PLACEMENT_3D ( 'NONE', #253, #39, #156 ) ;
#33 = CARTESIAN_POINT ( 'NONE',  ( 1.532978910536522803E-16, 0.0000000000000000000, 1.251772275568631132 ) ) ;
#34 = LINE ( 'NONE', #276, #173 ) ;
#35 = VERTEX_POINT ( 'NONE', #4 ) ;
#36 = CONICAL_SURFACE ( 'NONE', #281, 0.2975000000000003197, 0.7853981633974300713 ) ;
#37 = CIRCLE ( 'NONE', #89, 0.2975000000000003197 ) ;
#38 = ORIENTED_EDGE ( 'NONE', *, *, #14, .T. ) ;
#39 = DIRECTION ( 'NONE',  ( 0.0000000000000000000, 0.0000000000000000000, 1.000000000000000000 ) ) ;
#40 = CARTESIAN_POINT ( 'NONE',  ( 0.0000000000000000000, 0.0000000000000000000, 0.0000000000000000000 ) ) ;
#41 = ORIENTED_EDGE ( 'NONE', *, *, #149, .F. ) ;
#42 = ADVANCED_FACE ( 'NONE', ( #64 ), #36, .T. ) ;
#43 = VERTEX_POINT ( 'NONE', #172 ) ;
#44 = LENGTH_MEASURE_WITH_UNIT ( LENGTH_MEASURE( 0.02539999999999999897 ), #205 );
#45 = EDGE_LOOP ( 'NONE', ( #207, #150, #157, #347 ) ) ;
#46 = ADVANCED_BREP_SHAPE_REPRESENTATION ( 'Micro_GEC-625-2-020', ( #103, #350 ), #128 ) ;
#47 = DIRECTION ( 'NONE',  ( -1.000000000000000000, 0.0000000000000000000, 0.0000000000000000000 ) ) ;
#48 = CARTESIAN_POINT ( 'NONE',  ( 2.449293598294706769E-18, 0.0000000000000000000, 0.02000000000000000042 ) ) ;
#49 = AXIS2_PLACEMENT_3D ( 'NONE', #331, #219, #294 ) ;
#50 = ORIENTED_EDGE ( 'NONE', *, *, #11, .F. ) ;
#51 = VERTEX_POINT ( 'NONE', #31 ) ;
#52 = PLANE ( 'NONE',  #71 ) ;
#53 = DIRECTION ( 'NONE',  ( -0.1736481776669313026, 2.126576849575784549E-17, 0.9848077530122077983 ) ) ;
#54 = AXIS2_PLACEMENT_3D ( 'NONE', #349, #218, #190 ) ;
#55 = CARTESIAN_POINT ( 'NONE',  ( 0.0000000000000000000, 0.0000000000000000000, 3.484999999999999432 ) ) ;
#56 = UNCERTAINTY_MEASURE_WITH_UNIT (LENGTH_MEASURE( 1.000000000000000082E-05 ), #279, 'distance_accuracy_value', 'NONE');
#57 = DIRECTION ( 'NONE',  ( -1.000000000000000000, 1.224646799147354933E-16, 0.0000000000000000000 ) ) ;
#58 = CARTESIAN_POINT ( 'NONE',  ( 0.3125000000000000000, 3.827021247335478926E-17, 3.484999999999999432 ) ) ;
#59 = DIRECTION ( 'NONE',  ( 1.000000000000000000, 0.0000000000000000000, 0.0000000000000000000 ) ) ;
#60 = DIRECTION ( 'NONE',  ( 0.0000000000000000000, 0.0000000000000000000, 1.000000000000000000 ) ) ;
#61 = DIRECTION ( 'NONE',  ( -1.000000000000000000, 0.0000000000000000000, 0.0000000000000000000 ) ) ;
#62 = VECTOR ( 'NONE', #53, 39.37007874015748143 ) ;
#63 = STYLED_ITEM ( 'NONE', ( #314 ), #46 ) ;
#64 = FACE_OUTER_BOUND ( 'NONE', #342, .T. ) ;
#65 = DIRECTION ( 'NONE',  ( -1.000000000000000000, 0.0000000000000000000, 0.0000000000000000000 ) ) ;
#66 = ORIENTED_EDGE ( 'NONE', *, *, #133, .T. ) ;
#67 = EDGE_CURVE ( 'NONE', #69, #43, #339, .T. ) ;
#68 = STYLED_ITEM ( 'NONE', ( #302 ), #103 ) ;
#69 = VERTEX_POINT ( 'NONE', #139 ) ;
#70 = UNCERTAINTY_MEASURE_WITH_UNIT (LENGTH_MEASURE( 1.000000000000000082E-05 ), #227, 'distance_accuracy_value', 'NONE');
#71 = AXIS2_PLACEMENT_3D ( 'NONE', #85, #232, #319 ) ;
#72 = PLANE ( 'NONE',  #32 ) ;
#73 = ORIENTED_EDGE ( 'NONE', *, *, #275, .T. ) ;
#74 = EDGE_CURVE ( 'NONE', #285, #69, #193, .T. ) ;
#75 = CARTESIAN_POINT ( 'NONE',  ( 1.530808498934191571E-16, 0.0000000000000000000, 1.250000000000000000 ) ) ;
#76 = CARTESIAN_POINT ( 'NONE',  ( -0.2921874999999999334, 3.700729546173406481E-17, 0.0000000000000000000 ) ) ;
#77 = DIRECTION ( 'NONE',  ( -0.0000000000000000000, -0.0000000000000000000, -1.000000000000000000 ) ) ;
#78 = AXIS2_PLACEMENT_3D ( 'NONE', #48, #289, #330 ) ;
#79 = DIRECTION ( 'NONE',  ( 1.000000000000000000, 0.0000000000000000000, 0.0000000000000000000 ) ) ;
#80 = AXIS2_PLACEMENT_3D ( 'NONE', #221, #84, #59 ) ;
#81 = DIRECTION ( 'NONE',  ( 0.0000000000000000000, 0.0000000000000000000, -1.000000000000000000 ) ) ;
#82 = DIRECTION ( 'NONE',  ( 1.000000000000000000, 0.0000000000000000000, 0.0000000000000000000 ) ) ;
#83 = CARTESIAN_POINT ( 'NONE',  ( -0.3121874999999997846, 3.823194226088142147E-17, 1.250000000000000000 ) ) ;
#84 = DIRECTION ( 'NONE',  ( 1.224646799147353207E-16, 0.0000000000000000000, 1.000000000000000000 ) ) ;
#85 = CARTESIAN_POINT ( 'NONE',  ( 0.0000000000000000000, 0.0000000000000000000, 3.500000000000000000 ) ) ;
#86 = DIRECTION ( 'NONE',  ( 1.224646799147353207E-16, 1.000000000000000000, -0.0000000000000000000 ) ) ;
#87 = DIRECTION ( 'NONE',  ( 1.000000000000000000, 0.0000000000000000000, 0.0000000000000000000 ) ) ;
#88 = AXIS2_PLACEMENT_3D ( 'NONE', #33, #30, #87 ) ;
#89 = AXIS2_PLACEMENT_3D ( 'NONE', #304, #115, #122 ) ;
#90 = CARTESIAN_POINT ( 'NONE',  ( -0.2975000000000003197, 0.0000000000000000000, 3.500000000000000000 ) ) ;
#91 =( CONVERSION_BASED_UNIT ( 'INCH', #175 ) LENGTH_UNIT ( ) NAMED_UNIT ( #96 ) );
#92 = FACE_OUTER_BOUND ( 'NONE', #261, .T. ) ;
#93 = EDGE_CURVE ( 'NONE', #35, #263, #290, .T. ) ;
#94 = FACE_OUTER_BOUND ( 'NONE', #112, .T. ) ;
#95 = VERTEX_POINT ( 'NONE', #5 ) ;
#96 = DIMENSIONAL_EXPONENTS ( 1.000000000000000000, 0.0000000000000000000, 0.0000000000000000000, 0.0000000000000000000, 0.0000000000000000000, 0.0000000000000000000, 0.0000000000000000000 ) ;
#97 = DIRECTION ( 'NONE',  ( -0.7071067811865346942, 0.0000000000000000000, -0.7071067811865603403 ) ) ;
#98 = VERTEX_POINT ( 'NONE', #247 ) ;
#99 = DIRECTION ( 'NONE',  ( -1.000000000000000000, 0.0000000000000000000, 0.0000000000000000000 ) ) ;
#100 = ORIENTED_EDGE ( 'NONE', *, *, #306, .T. ) ;
#101 = VECTOR ( 'NONE', #245, 39.37007874015748143 ) ;
#102 = DIRECTION ( 'NONE',  ( -0.0000000000000000000, -0.0000000000000000000, -1.000000000000000000 ) ) ;
#103 = MANIFOLD_SOLID_BREP ( 'Fillet1', #286 ) ;
#104 = CARTESIAN_POINT ( 'NONE',  ( -0.3125000000000000000, 0.0000000000000000000, 3.484999999999999432 ) ) ;
#105 = CARTESIAN_POINT ( 'NONE',  ( 0.0000000000000000000, 0.0000000000000000000, 0.0000000000000000000 ) ) ;
#106 = AXIS2_PLACEMENT_3D ( 'NONE', #327, #81, #346 ) ;
#107 = CIRCLE ( 'NONE', #231, 0.3125000000000000000 ) ;
#108 = ORIENTED_EDGE ( 'NONE', *, *, #6, .F. ) ;
#109 = CARTESIAN_POINT ( 'NONE',  ( 2.449293598294707154E-18, 0.0000000000000000000, 0.02000000000000000389 ) ) ;
#110 = ORIENTED_EDGE ( 'NONE', *, *, #74, .T. ) ;
#111 = DIRECTION ( 'NONE',  ( 0.0000000000000000000, 0.0000000000000000000, -1.000000000000000000 ) ) ;
#112 = EDGE_LOOP ( 'NONE', ( #136, #100, #108, #50 ) ) ;
#113 = CARTESIAN_POINT ( 'NONE',  ( -0.3124999999999998890, 0.0000000000000000000, 1.251772275568631132 ) ) ;
#114 = CARTESIAN_POINT ( 'NONE',  ( 2.449293598294706769E-18, 0.0000000000000000000, 0.02000000000000000042 ) ) ;
#115 = DIRECTION ( 'NONE',  ( 0.0000000000000000000, 0.0000000000000000000, 1.000000000000000000 ) ) ;
#116 =( LENGTH_UNIT ( ) NAMED_UNIT ( * ) SI_UNIT ( $, .METRE. ) );
#117 = PRODUCT_DEFINITION_FORMATION_WITH_SPECIFIED_SOURCE ( 'ANY', '', #10, .NOT_KNOWN. ) ;
#118 = CARTESIAN_POINT ( 'NONE',  ( 0.0000000000000000000, 0.0000000000000000000, 3.500000000000000000 ) ) ;
#119 = DIRECTION ( 'NONE',  ( 0.0000000000000000000, 0.0000000000000000000, -1.000000000000000000 ) ) ;
#120 = DIRECTION ( 'NONE',  ( 0.0000000000000000000, 0.0000000000000000000, -1.000000000000000000 ) ) ;
#121 = CARTESIAN_POINT ( 'NONE',  ( 2.449293598294707154E-18, 0.0000000000000000000, 0.02000000000000000389 ) ) ;
#122 = DIRECTION ( 'NONE',  ( 1.000000000000000000, 0.0000000000000000000, 0.0000000000000000000 ) ) ;
#123 = LINE ( 'NONE', #126, #345 ) ;
#124 = AXIS2_PLACEMENT_3D ( 'NONE', #114, #329, #82 ) ;
#125 = SURFACE_STYLE_FILL_AREA ( #312 ) ;
#126 = CARTESIAN_POINT ( 'NONE',  ( 0.3121874999999998956, 3.823194226088142147E-17, -3.823194226088142147E-17 ) ) ;
#127 = MECHANICAL_DESIGN_GEOMETRIC_PRESENTATION_REPRESENTATION (  '', ( #68 ), #323 ) ;
#128 =( GEOMETRIC_REPRESENTATION_CONTEXT ( 3 ) GLOBAL_UNCERTAINTY_ASSIGNED_CONTEXT ( ( #56 ) ) GLOBAL_UNIT_ASSIGNED_CONTEXT ( ( #279, #255, #15 ) ) REPRESENTATION_CONTEXT ( 'NONE', 'WORKASPACE' ) );
#129 = ORIENTED_EDGE ( 'NONE', *, *, #133, .F. ) ;
#130 = LENGTH_MEASURE_WITH_UNIT ( LENGTH_MEASURE( 0.02539999999999999897 ), #250 );
#131 = ORIENTED_EDGE ( 'NONE', *, *, #233, .T. ) ;
#132 = VERTEX_POINT ( 'NONE', #58 ) ;
#133 = EDGE_CURVE ( 'NONE', #285, #263, #328, .T. ) ;
#134 = MECHANICAL_DESIGN_GEOMETRIC_PRESENTATION_REPRESENTATION (  '', ( #63 ), #226 ) ;
#135 = ORIENTED_EDGE ( 'NONE', *, *, #2, .F. ) ;
#136 = ORIENTED_EDGE ( 'NONE', *, *, #213, .F. ) ;
#137 = ORIENTED_EDGE ( 'NONE', *, *, #259, .T. ) ;
#138 = LINE ( 'NONE', #239, #297 ) ;
#139 = CARTESIAN_POINT ( 'NONE',  ( -0.3121874999999998956, 0.0000000000000000000, 0.02000000000000000389 ) ) ;
#140 = CIRCLE ( 'NONE', #106, 0.3125000000000000000 ) ;
#141 = DIRECTION ( 'NONE',  ( -0.0000000000000000000, -0.0000000000000000000, -1.000000000000000000 ) ) ;
#142 = CIRCLE ( 'NONE', #174, 0.2921874999999999334 ) ;
#143 = SURFACE_STYLE_USAGE ( .BOTH. , #333 ) ;
#144 = CYLINDRICAL_SURFACE ( 'NONE', #283, 0.3121874999999998956 ) ;
#145 = CARTESIAN_POINT ( 'NONE',  ( -0.2921874999999999334, 3.578264866258671431E-17, 0.02000000000000000042 ) ) ;
#146 = AXIS2_PLACEMENT_3D ( 'NONE', #118, #77, #25 ) ;
#147 = FACE_OUTER_BOUND ( 'NONE', #182, .T. ) ;
#148 = FACE_OUTER_BOUND ( 'NONE', #336, .T. ) ;
#149 = EDGE_CURVE ( 'NONE', #263, #35, #334, .T. ) ;
#150 = ORIENTED_EDGE ( 'NONE', *, *, #224, .F. ) ;
#151 = EDGE_CURVE ( 'NONE', #254, #51, #26, .T. ) ;
#152 = CARTESIAN_POINT ( 'NONE',  ( 0.0000000000000000000, 0.0000000000000000000, 3.500000000000000000 ) ) ;
#153 = ORIENTED_EDGE ( 'NONE', *, *, #266, .T. ) ;
#154 = VECTOR ( 'NONE', #192, 39.37007874015748143 ) ;
#155 = AXIS2_PLACEMENT_3D ( 'NONE', #152, #102, #99 ) ;
#156 = DIRECTION ( 'NONE',  ( 1.000000000000000000, 0.0000000000000000000, -0.0000000000000000000 ) ) ;
#157 = ORIENTED_EDGE ( 'NONE', *, *, #11, .T. ) ;
#158 = ORIENTED_EDGE ( 'NONE', *, *, #151, .F. ) ;
#159 = CIRCLE ( 'NONE', #49, 0.2921874999999999334 ) ;
#160 = ORIENTED_EDGE ( 'NONE', *, *, #288, .T. ) ;
#161 = ORIENTED_EDGE ( 'NONE', *, *, #300, .T. ) ;
#162 = CARTESIAN_POINT ( 'NONE',  ( 2.449293598294706769E-18, 0.0000000000000000000, 0.0000000000000000000 ) ) ;
#163 = ADVANCED_FACE ( 'NONE', ( #12 ), #52, .T. ) ;
#164 = ORIENTED_EDGE ( 'NONE', *, *, #233, .F. ) ;
#165 = PRESENTATION_LAYER_ASSIGNMENT (  '', '', ( #68 ) ) ;
#166 = VECTOR ( 'NONE', #97, 39.37007874015748143 ) ;
#167 = DIRECTION ( 'NONE',  ( 0.0000000000000000000, 0.0000000000000000000, 1.000000000000000000 ) ) ;
#168 = FACE_OUTER_BOUND ( 'NONE', #23, .T. ) ;
#169 = DIRECTION ( 'NONE',  ( 1.000000000000000000, 0.0000000000000000000, 0.0000000000000000000 ) ) ;
#170 = CARTESIAN_POINT ( 'NONE',  ( -0.3121874999999997846, 3.825107736711810845E-17, 1.250000000000000000 ) ) ;
#171 = CARTESIAN_POINT ( 'NONE',  ( 0.0000000000000000000, 0.0000000000000000000, 0.0000000000000000000 ) ) ;
#172 = CARTESIAN_POINT ( 'NONE',  ( 0.3121874999999998956, 3.823194226088142147E-17, 0.02000000000000000389 ) ) ;
#173 = VECTOR ( 'NONE', #202, 39.37007874015748143 ) ;
#174 = AXIS2_PLACEMENT_3D ( 'NONE', #162, #348, #262 ) ;
#175 = LENGTH_MEASURE_WITH_UNIT ( LENGTH_MEASURE( 0.02539999999999999897 ), #116 );
#176 = CARTESIAN_POINT ( 'NONE',  ( 1.530808498934191571E-16, 0.0000000000000000000, 1.250000000000000000 ) ) ;
#177 = ORIENTED_EDGE ( 'NONE', *, *, #14, .F. ) ;
#178 = DIRECTION ( 'NONE',  ( 1.000000000000000000, 0.0000000000000000000, 0.0000000000000000000 ) ) ;
#179 = AXIS2_PLACEMENT_3D ( 'NONE', #109, #18, #79 ) ;
#180 =( NAMED_UNIT ( * ) SI_UNIT ( $, .STERADIAN. ) SOLID_ANGLE_UNIT ( ) );
#181 = ADVANCED_FACE ( 'NONE', ( #94 ), #264, .T. ) ;
#182 = EDGE_LOOP ( 'NONE', ( #189, #257 ) ) ;
#183 = LINE ( 'NONE', #309, #166 ) ;
#184 = AXIS2_PLACEMENT_3D ( 'NONE', #241, #199, #1 ) ;
#185 = AXIS2_PLACEMENT_3D ( 'NONE', #145, #86, #57 ) ;
#186 = EDGE_LOOP ( 'NONE', ( #13, #160, #110, #236 ) ) ;
#187 = DIMENSIONAL_EXPONENTS ( 1.000000000000000000, 0.0000000000000000000, 0.0000000000000000000, 0.0000000000000000000, 0.0000000000000000000, 0.0000000000000000000, 0.0000000000000000000 ) ;
#188 = DIRECTION ( 'NONE',  ( -1.224646799147353207E-16, -0.0000000000000000000, -1.000000000000000000 ) ) ;
#189 = ORIENTED_EDGE ( 'NONE', *, *, #224, .T. ) ;
#190 = DIRECTION ( 'NONE',  ( 0.0000000000000000000, 0.0000000000000000000, -1.000000000000000000 ) ) ;
#191 = FACE_OUTER_BOUND ( 'NONE', #234, .T. ) ;
#192 = DIRECTION ( 'NONE',  ( -0.0000000000000000000, -0.0000000000000000000, -1.000000000000000000 ) ) ;
#193 = LINE ( 'NONE', #223, #101 ) ;
#194 = UNCERTAINTY_MEASURE_WITH_UNIT (LENGTH_MEASURE( 1.000000000000000082E-05 ), #91, 'distance_accuracy_value', 'NONE');
#195 = AXIS2_PLACEMENT_3D ( 'NONE', #176, #274, #61 ) ;
#196 = ADVANCED_FACE ( 'NONE', ( #148 ), #222, .T. ) ;
#197 = DIRECTION ( 'NONE',  ( 1.000000000000000000, 0.0000000000000000000, 0.0000000000000000000 ) ) ;
#198 = DIRECTION ( 'NONE',  ( -1.224646799147353207E-16, -0.0000000000000000000, -1.000000000000000000 ) ) ;
#199 = DIRECTION ( 'NONE',  ( -1.224646799147353207E-16, -0.0000000000000000000, -1.000000000000000000 ) ) ;
#200 = CIRCLE ( 'NONE', #20, 0.3121874999999998956 ) ;
#201 = DIRECTION ( 'NONE',  ( -1.000000000000000000, 0.0000000000000000000, 1.224646799147353207E-16 ) ) ;
#202 = DIRECTION ( 'NONE',  ( 0.1736481776669315247, 0.0000000000000000000, 0.9848077530122077983 ) ) ;
#203 = PRODUCT_DEFINITION_SHAPE ( 'NONE', 'NONE',  #235 ) ;
#204 = ORIENTED_EDGE ( 'NONE', *, *, #151, .T. ) ;
#205 =( LENGTH_UNIT ( ) NAMED_UNIT ( * ) SI_UNIT ( $, .METRE. ) );
#206 = DIRECTION ( 'NONE',  ( 1.000000000000000000, 0.0000000000000000000, 0.0000000000000000000 ) ) ;
#207 = ORIENTED_EDGE ( 'NONE', *, *, #306, .F. ) ;
#208 = PRODUCT_RELATED_PRODUCT_CATEGORY ( 'part', '', ( #10 ) ) ;
#209 = APPLICATION_PROTOCOL_DEFINITION ( 'draft international standard', 'automotive_design', 1998, #315 ) ;
#210 = SURFACE_SIDE_STYLE ('',( #125 ) ) ;
#211 = FACE_OUTER_BOUND ( 'NONE', #45, .T. ) ;
#212 = ORIENTED_EDGE ( 'NONE', *, *, #259, .F. ) ;
#213 = EDGE_CURVE ( 'NONE', #24, #98, #159, .T. ) ;
#214 = CARTESIAN_POINT ( 'NONE',  ( -0.3125000000000000000, 0.0000000000000000000, 3.500000000000000000 ) ) ;
#215 = EDGE_CURVE ( 'NONE', #132, #310, #107, .T. ) ;
#216 = CARTESIAN_POINT ( 'NONE',  ( 0.3125000000000000000, 3.827021247335478926E-17, 3.500000000000000000 ) ) ;
#217 = AXIS2_PLACEMENT_3D ( 'NONE', #269, #340, #178 ) ;
#218 = DIRECTION ( 'NONE',  ( 0.0000000000000000000, -1.000000000000000000, 0.0000000000000000000 ) ) ;
#219 = DIRECTION ( 'NONE',  ( -0.0000000000000000000, -0.0000000000000000000, -1.000000000000000000 ) ) ;
#220 = CARTESIAN_POINT ( 'NONE',  ( 0.0000000000000000000, 0.0000000000000000000, 3.500000000000000000 ) ) ;
#221 = CARTESIAN_POINT ( 'NONE',  ( 1.530808498934191571E-16, 0.0000000000000000000, 1.250000000000000000 ) ) ;
#222 = CONICAL_SURFACE ( 'NONE', #80, 0.3121874999999998956, 0.1745329251994340303 ) ;
#223 = CARTESIAN_POINT ( 'NONE',  ( -0.3121874999999998956, 0.0000000000000000000, 3.823194226088142147E-17 ) ) ;
#224 = EDGE_CURVE ( 'NONE', #98, #24, #142, .T. ) ;
#225 = ORIENTED_EDGE ( 'NONE', *, *, #215, .T. ) ;
#226 =( GEOMETRIC_REPRESENTATION_CONTEXT ( 3 ) GLOBAL_UNCERTAINTY_ASSIGNED_CONTEXT ( ( #70 ) ) GLOBAL_UNIT_ASSIGNED_CONTEXT ( ( #227, #337, #180 ) ) REPRESENTATION_CONTEXT ( 'NONE', 'WORKASPACE' ) );
#227 =( CONVERSION_BASED_UNIT ( 'INCH', #130 ) LENGTH_UNIT ( ) NAMED_UNIT ( #16 ) );
#228 = CYLINDRICAL_SURFACE ( 'NONE', #248, 0.3121874999999998956 ) ;
#229 = ORIENTED_EDGE ( 'NONE', *, *, #288, .F. ) ;
#230 = COLOUR_RGB ( '',0.7921568627450980005, 0.8196078431372548767, 0.9333333333333333481 ) ;
#231 = AXIS2_PLACEMENT_3D ( 'NONE', #55, #111, #321 ) ;
#232 = DIRECTION ( 'NONE',  ( 0.0000000000000000000, 0.0000000000000000000, 1.000000000000000000 ) ) ;
#233 = EDGE_CURVE ( 'NONE', #132, #35, #28, .T. ) ;
#234 = EDGE_LOOP ( 'NONE', ( #21, #131, #41, #177 ) ) ;
#235 = PRODUCT_DEFINITION ( 'UNKNOWN', '', #117, #268 ) ;
#236 = ORIENTED_EDGE ( 'NONE', *, *, #67, .T. ) ;
#237 = APPLICATION_CONTEXT ( 'automotive_design' ) ;
#238 = ORIENTED_EDGE ( 'NONE', *, *, #149, .T. ) ;
#239 = CARTESIAN_POINT ( 'NONE',  ( 0.2975000000000003197, 3.643324227463378817E-17, 3.500000000000000000 ) ) ;
#240 =( NAMED_UNIT ( * ) PLANE_ANGLE_UNIT ( ) SI_UNIT ( $, .RADIAN. ) );
#241 = CARTESIAN_POINT ( 'NONE',  ( 1.532978910536522803E-16, 0.0000000000000000000, 1.251772275568631132 ) ) ;
#242 = DIRECTION ( 'NONE',  ( -1.000000000000000000, 0.0000000000000000000, 0.0000000000000000000 ) ) ;
#243 = CYLINDRICAL_SURFACE ( 'NONE', #146, 0.3125000000000000000 ) ;
#244 = VECTOR ( 'NONE', #141, 39.37007874015748143 ) ;
#245 = DIRECTION ( 'NONE',  ( -1.224646799147353207E-16, -0.0000000000000000000, -1.000000000000000000 ) ) ;
#246 = FACE_OUTER_BOUND ( 'NONE', #186, .T. ) ;
#247 = CARTESIAN_POINT ( 'NONE',  ( 0.2921874999999999334, 0.0000000000000000000, 0.0000000000000000000 ) ) ;
#248 = AXIS2_PLACEMENT_3D ( 'NONE', #105, #258, #320 ) ;
#249 = ADVANCED_FACE ( 'NONE', ( #191 ), #243, .T. ) ;
#250 =( LENGTH_UNIT ( ) NAMED_UNIT ( * ) SI_UNIT ( $, .METRE. ) );
#251 = DIRECTION ( 'NONE',  ( 0.0000000000000000000, 0.0000000000000000000, 1.000000000000000000 ) ) ;
#252 = ORIENTED_EDGE ( 'NONE', *, *, #332, .T. ) ;
#253 = CARTESIAN_POINT ( 'NONE',  ( 0.0000000000000000000, 0.0000000000000000000, 0.0000000000000000000 ) ) ;
#254 = VERTEX_POINT ( 'NONE', #90 ) ;
#255 =( NAMED_UNIT ( * ) PLANE_ANGLE_UNIT ( ) SI_UNIT ( $, .RADIAN. ) );
#256 = EDGE_LOOP ( 'NONE', ( #164, #225, #38, #338 ) ) ;
#257 = ORIENTED_EDGE ( 'NONE', *, *, #213, .T. ) ;
#258 = DIRECTION ( 'NONE',  ( -1.224646799147353207E-16, -0.0000000000000000000, -1.000000000000000000 ) ) ;
#259 = EDGE_CURVE ( 'NONE', #51, #132, #138, .T. ) ;
#260 = EDGE_LOOP ( 'NONE', ( #282, #73, #9, #322 ) ) ;
#261 = EDGE_LOOP ( 'NONE', ( #318, #137, #135, #307 ) ) ;
#262 = DIRECTION ( 'NONE',  ( 1.000000000000000000, 0.0000000000000000000, 0.0000000000000000000 ) ) ;
#263 = VERTEX_POINT ( 'NONE', #113 ) ;
#264 = TOROIDAL_SURFACE ( 'NONE', #124, 0.2921874999999999334, 0.02000000000000000042 ) ;
#265 = FILL_AREA_STYLE_COLOUR ( '', #230 ) ;
#266 = EDGE_CURVE ( 'NONE', #95, #35, #34, .T. ) ;
#267 = APPLICATION_PROTOCOL_DEFINITION ( 'draft international standard', 'automotive_design', 1998, #237 ) ;
#268 = PRODUCT_DEFINITION_CONTEXT ( 'detailed design', #237, 'design' ) ;
#269 = CARTESIAN_POINT ( 'NONE',  ( 1.530808498934191571E-16, 0.0000000000000000000, 1.250000000000000000 ) ) ;
#270 = CARTESIAN_POINT ( 'NONE',  ( 0.0000000000000000000, 0.0000000000000000000, 3.500000000000000000 ) ) ;
#271 = CIRCLE ( 'NONE', #179, 0.3121874999999998956 ) ;
#272 = AXIS2_PLACEMENT_3D ( 'NONE', #121, #60, #169 ) ;
#273 = CIRCLE ( 'NONE', #195, 0.3121874999999998956 ) ;
#274 = DIRECTION ( 'NONE',  ( -1.224646799147353207E-16, -0.0000000000000000000, -1.000000000000000000 ) ) ;
#275 = EDGE_CURVE ( 'NONE', #95, #43, #123, .T. ) ;
#276 = CARTESIAN_POINT ( 'NONE',  ( 0.3121875000000000622, 0.0000000000000000000, 1.250000000000000000 ) ) ;
#277 = ORIENTED_EDGE ( 'NONE', *, *, #215, .F. ) ;
#278 = PRESENTATION_LAYER_ASSIGNMENT (  '', '', ( #63 ) ) ;
#279 =( CONVERSION_BASED_UNIT ( 'INCH', #44 ) LENGTH_UNIT ( ) NAMED_UNIT ( #187 ) );
#280 = ADVANCED_FACE ( 'NONE', ( #92 ), #291, .T. ) ;
#281 = AXIS2_PLACEMENT_3D ( 'NONE', #220, #119, #242 ) ;
#282 = ORIENTED_EDGE ( 'NONE', *, *, #17, .T. ) ;
#283 = AXIS2_PLACEMENT_3D ( 'NONE', #171, #298, #201 ) ;
#284 = CYLINDRICAL_SURFACE ( 'NONE', #155, 0.3125000000000000000 ) ;
#285 = VERTEX_POINT ( 'NONE', #170 ) ;
#286 = CLOSED_SHELL ( 'NONE', ( #181, #19, #308, #280, #249, #335, #163, #42, #196, #299, #325, #22 ) ) ;
#287 = EDGE_LOOP ( 'NONE', ( #204, #161 ) ) ;
#288 = EDGE_CURVE ( 'NONE', #95, #285, #273, .T. ) ;
#289 = DIRECTION ( 'NONE',  ( 0.0000000000000000000, 0.0000000000000000000, 1.000000000000000000 ) ) ;
#290 = CIRCLE ( 'NONE', #88, 0.3125000000000000000 ) ;
#291 = CONICAL_SURFACE ( 'NONE', #317, 0.2975000000000003197, 0.7853981633974300713 ) ;
#292 = FACE_OUTER_BOUND ( 'NONE', #260, .T. ) ;
#293 = ORIENTED_EDGE ( 'NONE', *, *, #266, .F. ) ;
#294 = DIRECTION ( 'NONE',  ( 1.000000000000000000, 0.0000000000000000000, 0.0000000000000000000 ) ) ;
#295 = TOROIDAL_SURFACE ( 'NONE', #78, 0.2921874999999999334, 0.02000000000000000042 ) ;
#296 = PRODUCT_CONTEXT ( 'NONE', #315, 'mechanical' ) ;
#297 = VECTOR ( 'NONE', #351, 39.37007874015748143 ) ;
#298 = DIRECTION ( 'NONE',  ( -1.224646799147353207E-16, -0.0000000000000000000, -1.000000000000000000 ) ) ;
#299 = ADVANCED_FACE ( 'NONE', ( #246 ), #144, .T. ) ;
#300 = EDGE_CURVE ( 'NONE', #51, #254, #37, .T. ) ;
#301 = CARTESIAN_POINT ( 'NONE',  ( 0.0000000000000000000, 0.0000000000000000000, 3.500000000000000000 ) ) ;
#302 = PRESENTATION_STYLE_ASSIGNMENT (( #143 ) ) ;
#303 = CIRCLE ( 'NONE', #54, 0.02000000000000000042 ) ;
#304 = CARTESIAN_POINT ( 'NONE',  ( 0.0000000000000000000, 0.0000000000000000000, 3.500000000000000000 ) ) ;
#305 = FILL_AREA_STYLE ('',( #265 ) ) ;
#306 = EDGE_CURVE ( 'NONE', #24, #69, #324, .T. ) ;
#307 = ORIENTED_EDGE ( 'NONE', *, *, #332, .F. ) ;
#308 = ADVANCED_FACE ( 'NONE', ( #168 ), #326, .T. ) ;
#309 = CARTESIAN_POINT ( 'NONE',  ( -0.2975000000000003197, 0.0000000000000000000, 3.500000000000000000 ) ) ;
#310 = VERTEX_POINT ( 'NONE', #104 ) ;
#311 = FACE_OUTER_BOUND ( 'NONE', #256, .T. ) ;
#312 = FILL_AREA_STYLE ('',( #8 ) ) ;
#313 = ORIENTED_EDGE ( 'NONE', *, *, #17, .F. ) ;
#314 = PRESENTATION_STYLE_ASSIGNMENT (( #316 ) ) ;
#315 = APPLICATION_CONTEXT ( 'automotive_design' ) ;
#316 = SURFACE_STYLE_USAGE ( .BOTH. , #210 ) ;
#317 = AXIS2_PLACEMENT_3D ( 'NONE', #301, #120, #65 ) ;
#318 = ORIENTED_EDGE ( 'NONE', *, *, #300, .F. ) ;
#319 = DIRECTION ( 'NONE',  ( 1.000000000000000000, 0.0000000000000000000, -0.0000000000000000000 ) ) ;
#320 = DIRECTION ( 'NONE',  ( -1.000000000000000000, 0.0000000000000000000, 1.224646799147353207E-16 ) ) ;
#321 = DIRECTION ( 'NONE',  ( 1.000000000000000000, 0.0000000000000000000, 0.0000000000000000000 ) ) ;
#322 = ORIENTED_EDGE ( 'NONE', *, *, #74, .F. ) ;
#323 =( GEOMETRIC_REPRESENTATION_CONTEXT ( 3 ) GLOBAL_UNCERTAINTY_ASSIGNED_CONTEXT ( ( #194 ) ) GLOBAL_UNIT_ASSIGNED_CONTEXT ( ( #91, #240, #27 ) ) REPRESENTATION_CONTEXT ( 'NONE', 'WORKASPACE' ) );
#324 = CIRCLE ( 'NONE', #185, 0.01999999999999999001 ) ;
#325 = ADVANCED_FACE ( 'NONE', ( #147 ), #72, .F. ) ;
#326 = CONICAL_SURFACE ( 'NONE', #217, 0.3121874999999998956, 0.1745329251994340303 ) ;
#327 = CARTESIAN_POINT ( 'NONE',  ( 0.0000000000000000000, 0.0000000000000000000, 3.484999999999999432 ) ) ;
#328 = LINE ( 'NONE', #83, #62 ) ;
#329 = DIRECTION ( 'NONE',  ( 0.0000000000000000000, 0.0000000000000000000, 1.000000000000000000 ) ) ;
#330 = DIRECTION ( 'NONE',  ( 1.000000000000000000, 0.0000000000000000000, 0.0000000000000000000 ) ) ;
#331 = CARTESIAN_POINT ( 'NONE',  ( 2.449293598294706769E-18, 0.0000000000000000000, 0.0000000000000000000 ) ) ;
#332 = EDGE_CURVE ( 'NONE', #254, #310, #183, .T. ) ;
#333 = SURFACE_SIDE_STYLE ('',( #3 ) ) ;
#334 = CIRCLE ( 'NONE', #184, 0.3125000000000000000 ) ;
#335 = ADVANCED_FACE ( 'NONE', ( #311 ), #284, .T. ) ;
#336 = EDGE_LOOP ( 'NONE', ( #129, #229, #153, #341 ) ) ;
#337 =( NAMED_UNIT ( * ) PLANE_ANGLE_UNIT ( ) SI_UNIT ( $, .RADIAN. ) );
#338 = ORIENTED_EDGE ( 'NONE', *, *, #93, .F. ) ;
#339 = CIRCLE ( 'NONE', #272, 0.3121874999999998956 ) ;
#340 = DIRECTION ( 'NONE',  ( 1.224646799147353207E-16, 0.0000000000000000000, 1.000000000000000000 ) ) ;
#341 = ORIENTED_EDGE ( 'NONE', *, *, #93, .T. ) ;
#342 = EDGE_LOOP ( 'NONE', ( #212, #158, #252, #277 ) ) ;
#343 = AXIS2_PLACEMENT_3D ( 'NONE', #270, #251, #206 ) ;
#344 = LINE ( 'NONE', #214, #154 ) ;
#345 = VECTOR ( 'NONE', #198, 39.37007874015748143 ) ;
#346 = DIRECTION ( 'NONE',  ( 1.000000000000000000, 0.0000000000000000000, 0.0000000000000000000 ) ) ;
#347 = ORIENTED_EDGE ( 'NONE', *, *, #67, .F. ) ;
#348 = DIRECTION ( 'NONE',  ( -0.0000000000000000000, -0.0000000000000000000, -1.000000000000000000 ) ) ;
#349 = CARTESIAN_POINT ( 'NONE',  ( 0.2921874999999999334, 0.0000000000000000000, 0.02000000000000000042 ) ) ;
#350 = AXIS2_PLACEMENT_3D ( 'NONE', #40, #167, #197 ) ;
#351 = DIRECTION ( 'NONE',  ( 0.7071067811865346942, 8.659560562354773853E-17, -0.7071067811865603403 ) ) ;
ENDSEC;
END-ISO-10303-21;
