ISO-10303-21;
HEADER;
FILE_DESCRIPTION (( 'STEP AP214' ),
    '1' );
FILE_NAME ('Micro_AEMM-045-4X.STEP',
    '2022-03-15T14:26:01',
    ( '' ),
    ( '' ),
    'SwSTEP 2.0',
    'SolidWorks 2022',
    '' );
FILE_SCHEMA (( 'AUTOMOTIVE_DESIGN' ));
ENDSEC;

DATA;
#1 = DIRECTION ( 'NONE',  ( -1.000000000000000000, 0.000000000000000000, 0.000000000000000000 ) ) ;
#2 = PRESENTATION_STYLE_ASSIGNMENT (( #42 ) ) ;
#3 = DIRECTION ( 'NONE',  ( 0.1736481776669313304, 0.000000000000000000, 0.9848077530122077983 ) ) ;
#4 = ORIENTED_EDGE ( 'NONE', *, *, #138, .T. ) ;
#5 = CONICAL_SURFACE ( 'NONE', #237, 0.08849391750000001888, 0.1745329251994338360 ) ;
#6 = PRESENTATION_LAYER_ASSIGNMENT (  '', '', ( #256 ) ) ;
#7 = CYLINDRICAL_SURFACE ( 'NONE', #92, 0.08849391750000001888 ) ;
#8 = EDGE_CURVE ( 'NONE', #140, #278, #160, .T. ) ;
#9 = ORIENTED_EDGE ( 'NONE', *, *, #23, .T. ) ;
#10 = DIRECTION ( 'NONE',  ( -0.000000000000000000, -0.000000000000000000, -1.000000000000000000 ) ) ;
#11 = APPLICATION_PROTOCOL_DEFINITION ( 'draft international standard', 'automotive_design', 1998, #70 ) ;
#12 = FACE_OUTER_BOUND ( 'NONE', #142, .T. ) ;
#13 = DIRECTION ( 'NONE',  ( 1.000000000000000000, 0.000000000000000000, 0.000000000000000000 ) ) ;
#14 = DIRECTION ( 'NONE',  ( -1.000000000000000000, 0.000000000000000000, 1.224646799147353207E-16 ) ) ;
#15 = DIRECTION ( 'NONE',  ( -1.000000000000000000, 0.000000000000000000, 0.000000000000000000 ) ) ;
#16 = DIRECTION ( 'NONE',  ( 0.000000000000000000, 0.000000000000000000, 1.000000000000000000 ) ) ;
#17 = PRODUCT_DEFINITION_CONTEXT ( 'detailed design', #151, 'design' ) ;
#18 = ADVANCED_FACE ( 'NONE', ( #154 ), #101, .T. ) ;
#19 = DIRECTION ( 'NONE',  ( 1.000000000000000000, 0.000000000000000000, 0.000000000000000000 ) ) ;
#20 =( LENGTH_UNIT ( ) NAMED_UNIT ( * ) SI_UNIT ( $, .METRE. ) );
#21 = VERTEX_POINT ( 'NONE', #128 ) ;
#22 = ORIENTED_EDGE ( 'NONE', *, *, #284, .T. ) ;
#23 = EDGE_CURVE ( 'NONE', #278, #210, #97, .T. ) ;
#24 = VECTOR ( 'NONE', #96, 39.37007874015748854 ) ;
#25 = ORIENTED_EDGE ( 'NONE', *, *, #8, .F. ) ;
#26 = SURFACE_STYLE_FILL_AREA ( #197 ) ;
#27 = ORIENTED_EDGE ( 'NONE', *, *, #156, .T. ) ;
#28 = LINE ( 'NONE', #280, #52 ) ;
#29 = DIRECTION ( 'NONE',  ( -0.000000000000000000, -0.000000000000000000, -1.000000000000000000 ) ) ;
#30 =( NAMED_UNIT ( * ) SI_UNIT ( $, .STERADIAN. ) SOLID_ANGLE_UNIT ( ) );
#31 = ORIENTED_EDGE ( 'NONE', *, *, #164, .T. ) ;
#32 = EDGE_LOOP ( 'NONE', ( #45, #223, #22, #25 ) ) ;
#33 = CARTESIAN_POINT ( 'NONE',  ( 0.000000000000000000, 0.000000000000000000, 2.244094000000000033 ) ) ;
#34 = CARTESIAN_POINT ( 'NONE',  ( 5.303590139535433909E-17, 0.000000000000000000, 0.4330709999999999837 ) ) ;
#35 = DIRECTION ( 'NONE',  ( 1.000000000000000000, 0.000000000000000000, 0.000000000000000000 ) ) ;
#36 = AXIS2_PLACEMENT_3D ( 'NONE', #254, #79, #13 ) ;
#37 = DIMENSIONAL_EXPONENTS ( 1.000000000000000000, 0.000000000000000000, 0.000000000000000000, 0.000000000000000000, 0.000000000000000000, 0.000000000000000000, 0.000000000000000000 ) ;
#38 = MECHANICAL_DESIGN_GEOMETRIC_PRESENTATION_REPRESENTATION (  '', ( #256 ), #238 ) ;
#39 = PRODUCT_CONTEXT ( 'NONE', #70, 'mechanical' ) ;
#40 = EDGE_LOOP ( 'NONE', ( #75, #31, #188, #296 ) ) ;
#41 = CIRCLE ( 'NONE', #83, 0.08849391750000000501 ) ;
#42 = SURFACE_STYLE_USAGE ( .BOTH. , #155 ) ;
#43 = COLOUR_RGB ( '',0.7921568627450980005, 0.8196078431372548767, 0.9333333333333333481 ) ;
#44 = EDGE_CURVE ( 'NONE', #140, #21, #227, .T. ) ;
#45 = ORIENTED_EDGE ( 'NONE', *, *, #156, .F. ) ;
#46 = AXIS2_PLACEMENT_3D ( 'NONE', #173, #267, #282 ) ;
#47 = CARTESIAN_POINT ( 'NONE',  ( 0.000000000000000000, 0.000000000000000000, 0.000000000000000000 ) ) ;
#48 = DIRECTION ( 'NONE',  ( -1.000000000000000000, 0.000000000000000000, 1.224646799147353207E-16 ) ) ;
#49 = FACE_OUTER_BOUND ( 'NONE', #32, .T. ) ;
#50 = LINE ( 'NONE', #217, #130 ) ;
#51 = DIRECTION ( 'NONE',  ( 0.000000000000000000, 0.000000000000000000, -1.000000000000000000 ) ) ;
#52 = VECTOR ( 'NONE', #3, 39.37007874015748143 ) ;
#53 = CARTESIAN_POINT ( 'NONE',  ( 7.360520989889838000E-17, 0.000000000000000000, 0.6010321502505472369 ) ) ;
#54 = CARTESIAN_POINT ( 'NONE',  ( 1.327196184766963528E-33, 0.000000000000000000, 1.083737928103849530E-17 ) ) ;
#55 = DIRECTION ( 'NONE',  ( 0.000000000000000000, 0.000000000000000000, -1.000000000000000000 ) ) ;
#56 = EDGE_CURVE ( 'NONE', #127, #194, #71, .T. ) ;
#57 = EDGE_CURVE ( 'NONE', #225, #299, #180, .T. ) ;
#58 = DIRECTION ( 'NONE',  ( -1.000000000000000000, 0.000000000000000000, 0.000000000000000000 ) ) ;
#59 =( NAMED_UNIT ( * ) PLANE_ANGLE_UNIT ( ) SI_UNIT ( $, .RADIAN. ) );
#60 = DIRECTION ( 'NONE',  ( -1.000000000000000000, 0.000000000000000000, 1.224646799147353207E-16 ) ) ;
#61 = MECHANICAL_DESIGN_GEOMETRIC_PRESENTATION_REPRESENTATION (  '', ( #287 ), #205 ) ;
#62 = AXIS2_PLACEMENT_3D ( 'NONE', #67, #263, #145 ) ;
#63 = EDGE_CURVE ( 'NONE', #21, #210, #228, .T. ) ;
#64 = VERTEX_POINT ( 'NONE', #191 ) ;
#65 = ADVANCED_FACE ( 'NONE', ( #49 ), #215, .T. ) ;
#66 = CIRCLE ( 'NONE', #116, 0.1031100000000002570 ) ;
#67 = CARTESIAN_POINT ( 'NONE',  ( 7.360520989889838000E-17, 0.000000000000000000, 0.6010321502505472369 ) ) ;
#68 = PRESENTATION_STYLE_ASSIGNMENT (( #285 ) ) ;
#69 = ORIENTED_EDGE ( 'NONE', *, *, #136, .T. ) ;
#70 = APPLICATION_CONTEXT ( 'automotive_design' ) ;
#71 = LINE ( 'NONE', #95, #213 ) ;
#72 = FACE_OUTER_BOUND ( 'NONE', #94, .T. ) ;
#73 = EDGE_CURVE ( 'NONE', #120, #127, #167, .T. ) ;
#74 = AXIS2_PLACEMENT_3D ( 'NONE', #152, #169, #250 ) ;
#75 = ORIENTED_EDGE ( 'NONE', *, *, #73, .F. ) ;
#76 = PRODUCT_RELATED_PRODUCT_CATEGORY ( 'part', '', ( #135 ) ) ;
#77 = PLANE ( 'NONE',  #111 ) ;
#78 = EDGE_LOOP ( 'NONE', ( #272, #240, #117, #218 ) ) ;
#79 = DIRECTION ( 'NONE',  ( 0.000000000000000000, 0.000000000000000000, -1.000000000000000000 ) ) ;
#80 = CARTESIAN_POINT ( 'NONE',  ( 0.08849391750000007439, 0.000000000000000000, 0.4330709999999999837 ) ) ;
#81 = DIRECTION ( 'NONE',  ( 1.224646799147353207E-16, 0.000000000000000000, 1.000000000000000000 ) ) ;
#82 = CLOSED_SHELL ( 'NONE', ( #186, #268, #99, #113, #187, #18, #65, #257, #266, #258 ) ) ;
#83 = AXIS2_PLACEMENT_3D ( 'NONE', #202, #230, #14 ) ;
#84 = DIRECTION ( 'NONE',  ( 1.000000000000000000, 0.000000000000000000, 0.000000000000000000 ) ) ;
#85 = CARTESIAN_POINT ( 'NONE',  ( 5.303590139535433909E-17, 0.000000000000000000, 0.4330709999999999837 ) ) ;
#86 = DIRECTION ( 'NONE',  ( 1.000000000000000000, 0.000000000000000000, 0.000000000000000000 ) ) ;
#87 = AXIS2_PLACEMENT_3D ( 'NONE', #134, #199, #15 ) ;
#88 = ORIENTED_EDGE ( 'NONE', *, *, #235, .T. ) ;
#89 = ORIENTED_EDGE ( 'NONE', *, *, #63, .F. ) ;
#90 = ADVANCED_BREP_SHAPE_REPRESENTATION ( 'Micro_AEMM-045-4X', ( #184, #162 ), #269 ) ;
#91 = AXIS2_PLACEMENT_3D ( 'NONE', #281, #196, #170 ) ;
#92 = AXIS2_PLACEMENT_3D ( 'NONE', #47, #224, #48 ) ;
#93 = ORIENTED_EDGE ( 'NONE', *, *, #200, .T. ) ;
#94 = EDGE_LOOP ( 'NONE', ( #166, #298, #9, #89 ) ) ;
#95 = CARTESIAN_POINT ( 'NONE',  ( 0.08849391750000001888, 1.083737928103849684E-17, -1.083737928103849684E-17 ) ) ;
#96 = DIRECTION ( 'NONE',  ( 0.7071067811865358044, 8.659560562354788645E-17, -0.7071067811865590080 ) ) ;
#97 = LINE ( 'NONE', #283, #103 ) ;
#98 = ORIENTED_EDGE ( 'NONE', *, *, #177, .T. ) ;
#99 = ADVANCED_FACE ( 'NONE', ( #123 ), #259, .T. ) ;
#100 =( LENGTH_UNIT ( ) NAMED_UNIT ( * ) SI_UNIT ( $, .METRE. ) );
#101 = PLANE ( 'NONE',  #91 ) ;
#102 = SURFACE_STYLE_FILL_AREA ( #274 ) ;
#103 = VECTOR ( 'NONE', #29, 39.37007874015748143 ) ;
#104 = CIRCLE ( 'NONE', #36, 0.1181100000000000066 ) ;
#105 = DIRECTION ( 'NONE',  ( 0.000000000000000000, 0.000000000000000000, -1.000000000000000000 ) ) ;
#106 = LENGTH_MEASURE_WITH_UNIT ( LENGTH_MEASURE( 0.02539999999999999897 ), #229 );
#107 = CARTESIAN_POINT ( 'NONE',  ( 0.000000000000000000, 0.000000000000000000, 2.244094000000000033 ) ) ;
#108 = CYLINDRICAL_SURFACE ( 'NONE', #141, 0.08849391750000001888 ) ;
#109 = LINE ( 'NONE', #112, #209 ) ;
#110 = VECTOR ( 'NONE', #10, 39.37007874015748143 ) ;
#111 = AXIS2_PLACEMENT_3D ( 'NONE', #291, #16, #294 ) ;
#112 = CARTESIAN_POINT ( 'NONE',  ( -0.08849391750000001888, 0.000000000000000000, 1.083737928103849684E-17 ) ) ;
#113 = ADVANCED_FACE ( 'NONE', ( #12 ), #201, .T. ) ;
#114 = CARTESIAN_POINT ( 'NONE',  ( 0.000000000000000000, 0.000000000000000000, 0.000000000000000000 ) ) ;
#115 = EDGE_CURVE ( 'NONE', #210, #21, #161, .T. ) ;
#116 = AXIS2_PLACEMENT_3D ( 'NONE', #107, #239, #264 ) ;
#117 = ORIENTED_EDGE ( 'NONE', *, *, #136, .F. ) ;
#118 = EDGE_LOOP ( 'NONE', ( #4, #198 ) ) ;
#119 = ORIENTED_EDGE ( 'NONE', *, *, #23, .F. ) ;
#120 = VERTEX_POINT ( 'NONE', #290 ) ;
#121 =( NAMED_UNIT ( * ) SI_UNIT ( $, .STERADIAN. ) SOLID_ANGLE_UNIT ( ) );
#122 = CARTESIAN_POINT ( 'NONE',  ( 0.000000000000000000, 0.000000000000000000, 2.244094000000000033 ) ) ;
#123 = FACE_OUTER_BOUND ( 'NONE', #275, .T. ) ;
#124 = AXIS2_PLACEMENT_3D ( 'NONE', #33, #51, #147 ) ;
#125 = LENGTH_MEASURE_WITH_UNIT ( LENGTH_MEASURE( 0.02539999999999999897 ), #100 );
#126 = ORIENTED_EDGE ( 'NONE', *, *, #249, .T. ) ;
#127 = VERTEX_POINT ( 'NONE', #80 ) ;
#128 = CARTESIAN_POINT ( 'NONE',  ( 0.1181100000000000899, 1.446430334472940009E-17, 0.6010321502505472369 ) ) ;
#129 = CARTESIAN_POINT ( 'NONE',  ( -0.1031100000000002570, 0.000000000000000000, 2.244094000000000033 ) ) ;
#130 = VECTOR ( 'NONE', #146, 39.37007874015747433 ) ;
#131 = DIRECTION ( 'NONE',  ( -1.224646799147353207E-16, -0.000000000000000000, -1.000000000000000000 ) ) ;
#132 = DIRECTION ( 'NONE',  ( -0.7071067811865358044, 0.000000000000000000, -0.7071067811865590080 ) ) ;
#133 = FACE_OUTER_BOUND ( 'NONE', #40, .T. ) ;
#134 = CARTESIAN_POINT ( 'NONE',  ( 5.303590139535433909E-17, 0.000000000000000000, 0.4330709999999999837 ) ) ;
#135 = PRODUCT ( 'Micro_AEMM-045-4X', 'Micro_AEMM-045-4X', '', ( #39 ) ) ;
#136 = EDGE_CURVE ( 'NONE', #64, #194, #41, .T. ) ;
#137 = UNCERTAINTY_MEASURE_WITH_UNIT (LENGTH_MEASURE( 1.000000000000000082E-05 ), #231, 'distance_accuracy_value', 'NONE');
#138 = EDGE_CURVE ( 'NONE', #299, #225, #66, .T. ) ;
#139 = SHAPE_DEFINITION_REPRESENTATION ( #295, #90 ) ;
#140 = VERTEX_POINT ( 'NONE', #168 ) ;
#141 = AXIS2_PLACEMENT_3D ( 'NONE', #175, #255, #60 ) ;
#142 = EDGE_LOOP ( 'NONE', ( #189, #143, #182, #119 ) ) ;
#143 = ORIENTED_EDGE ( 'NONE', *, *, #44, .T. ) ;
#144 = DIRECTION ( 'NONE',  ( -0.000000000000000000, -0.000000000000000000, -1.000000000000000000 ) ) ;
#145 = DIRECTION ( 'NONE',  ( 1.000000000000000000, 0.000000000000000000, 0.000000000000000000 ) ) ;
#146 = DIRECTION ( 'NONE',  ( -0.1736481776669311639, 2.126576849575782392E-17, 0.9848077530122080203 ) ) ;
#147 = DIRECTION ( 'NONE',  ( -1.000000000000000000, 0.000000000000000000, 0.000000000000000000 ) ) ;
#148 = COLOUR_RGB ( '',0.7921568627450980005, 0.8196078431372548767, 0.9333333333333333481 ) ;
#149 = DIRECTION ( 'NONE',  ( 1.000000000000000000, 0.000000000000000000, 0.000000000000000000 ) ) ;
#150 = DIRECTION ( 'NONE',  ( -1.224646799147353207E-16, -0.000000000000000000, -1.000000000000000000 ) ) ;
#151 = APPLICATION_CONTEXT ( 'automotive_design' ) ;
#152 = CARTESIAN_POINT ( 'NONE',  ( 5.303590139535433909E-17, 0.000000000000000000, 0.4330709999999999837 ) ) ;
#153 = FACE_OUTER_BOUND ( 'NONE', #234, .T. ) ;
#154 = FACE_OUTER_BOUND ( 'NONE', #118, .T. ) ;
#155 = SURFACE_SIDE_STYLE ('',( #102 ) ) ;
#156 = EDGE_CURVE ( 'NONE', #225, #140, #190, .T. ) ;
#157 = CARTESIAN_POINT ( 'NONE',  ( -0.1181100000000000066, 0.000000000000000000, 2.229093999999999465 ) ) ;
#158 = CIRCLE ( 'NONE', #87, 0.08849391750000001888 ) ;
#159 =( CONVERSION_BASED_UNIT ( 'INCH', #276 ) LENGTH_UNIT ( ) NAMED_UNIT ( #248 ) );
#160 = CIRCLE ( 'NONE', #236, 0.1181100000000000066 ) ;
#161 = CIRCLE ( 'NONE', #62, 0.1181100000000000066 ) ;
#162 = AXIS2_PLACEMENT_3D ( 'NONE', #114, #208, #86 ) ;
#163 = ORIENTED_EDGE ( 'NONE', *, *, #63, .T. ) ;
#164 = EDGE_CURVE ( 'NONE', #120, #210, #50, .T. ) ;
#165 = CARTESIAN_POINT ( 'NONE',  ( 0.1031100000000002570, 1.262733314600838667E-17, 2.244094000000000033 ) ) ;
#166 = ORIENTED_EDGE ( 'NONE', *, *, #44, .F. ) ;
#167 = CIRCLE ( 'NONE', #74, 0.08849391750000001888 ) ;
#168 = CARTESIAN_POINT ( 'NONE',  ( 0.1181100000000000066, 1.446430334472939084E-17, 2.229093999999999465 ) ) ;
#169 = DIRECTION ( 'NONE',  ( -1.224646799147353207E-16, -0.000000000000000000, -1.000000000000000000 ) ) ;
#170 = DIRECTION ( 'NONE',  ( 1.000000000000000000, 0.000000000000000000, -0.000000000000000000 ) ) ;
#171 = ORIENTED_EDGE ( 'NONE', *, *, #211, .F. ) ;
#172 = CARTESIAN_POINT ( 'NONE',  ( 0.08849391750000000501, 1.083737928103849530E-17, -1.895600338963814870E-33 ) ) ;
#173 = CARTESIAN_POINT ( 'NONE',  ( 0.000000000000000000, 0.000000000000000000, 2.244094000000000033 ) ) ;
#174 = EDGE_LOOP ( 'NONE', ( #246, #88, #126, #277 ) ) ;
#175 = CARTESIAN_POINT ( 'NONE',  ( 0.000000000000000000, 0.000000000000000000, 0.000000000000000000 ) ) ;
#176 = FILL_AREA_STYLE_COLOUR ( '', #43 ) ;
#177 = EDGE_CURVE ( 'NONE', #127, #21, #28, .T. ) ;
#178 = UNCERTAINTY_MEASURE_WITH_UNIT (LENGTH_MEASURE( 1.000000000000000082E-05 ), #279, 'distance_accuracy_value', 'NONE');
#179 = APPLICATION_PROTOCOL_DEFINITION ( 'draft international standard', 'automotive_design', 1998, #151 ) ;
#180 = CIRCLE ( 'NONE', #46, 0.1031100000000002570 ) ;
#181 = CIRCLE ( 'NONE', #292, 0.08849391750000000501 ) ;
#182 = ORIENTED_EDGE ( 'NONE', *, *, #115, .F. ) ;
#183 = ORIENTED_EDGE ( 'NONE', *, *, #235, .F. ) ;
#184 = MANIFOLD_SOLID_BREP ( 'Cut-Revolve1', #82 ) ;
#185 = AXIS2_PLACEMENT_3D ( 'NONE', #53, #131, #149 ) ;
#186 = ADVANCED_FACE ( 'NONE', ( #262 ), #7, .T. ) ;
#187 = ADVANCED_FACE ( 'NONE', ( #72 ), #270, .T. ) ;
#188 = ORIENTED_EDGE ( 'NONE', *, *, #115, .T. ) ;
#189 = ORIENTED_EDGE ( 'NONE', *, *, #211, .T. ) ;
#190 = LINE ( 'NONE', #165, #24 ) ;
#191 = CARTESIAN_POINT ( 'NONE',  ( -0.08849391750000000501, 0.000000000000000000, 2.167475856207699061E-17 ) ) ;
#192 = AXIS2_PLACEMENT_3D ( 'NONE', #271, #55, #58 ) ;
#193 = PRODUCT_DEFINITION_FORMATION_WITH_SPECIFIED_SOURCE ( 'ANY', '', #135, .NOT_KNOWN. ) ;
#194 = VERTEX_POINT ( 'NONE', #172 ) ;
#195 = FILL_AREA_STYLE_COLOUR ( '', #148 ) ;
#196 = DIRECTION ( 'NONE',  ( 0.000000000000000000, 0.000000000000000000, 1.000000000000000000 ) ) ;
#197 = FILL_AREA_STYLE ('',( #195 ) ) ;
#198 = ORIENTED_EDGE ( 'NONE', *, *, #57, .T. ) ;
#199 = DIRECTION ( 'NONE',  ( -1.224646799147353207E-16, -0.000000000000000000, -1.000000000000000000 ) ) ;
#200 = EDGE_CURVE ( 'NONE', #194, #64, #181, .T. ) ;
#201 = CYLINDRICAL_SURFACE ( 'NONE', #222, 0.1181100000000000066 ) ;
#202 = CARTESIAN_POINT ( 'NONE',  ( 1.327196184766963528E-33, 0.000000000000000000, 1.083737928103849530E-17 ) ) ;
#203 = DIRECTION ( 'NONE',  ( 1.224646799147353207E-16, 0.000000000000000000, 1.000000000000000000 ) ) ;
#204 = LINE ( 'NONE', #288, #261 ) ;
#205 =( GEOMETRIC_REPRESENTATION_CONTEXT ( 3 ) GLOBAL_UNCERTAINTY_ASSIGNED_CONTEXT ( ( #178 ) ) GLOBAL_UNIT_ASSIGNED_CONTEXT ( ( #279, #243, #30 ) ) REPRESENTATION_CONTEXT ( 'NONE', 'WORKASPACE' ) );
#206 = DIRECTION ( 'NONE',  ( -1.224646799147353207E-16, -0.000000000000000000, -1.000000000000000000 ) ) ;
#207 = UNCERTAINTY_MEASURE_WITH_UNIT (LENGTH_MEASURE( 1.000000000000000082E-05 ), #159, 'distance_accuracy_value', 'NONE');
#208 = DIRECTION ( 'NONE',  ( 0.000000000000000000, 0.000000000000000000, 1.000000000000000000 ) ) ;
#209 = VECTOR ( 'NONE', #206, 39.37007874015748143 ) ;
#210 = VERTEX_POINT ( 'NONE', #247 ) ;
#211 = EDGE_CURVE ( 'NONE', #278, #140, #104, .T. ) ;
#212 = PRODUCT_DEFINITION ( 'UNKNOWN', '', #193, #17 ) ;
#213 = VECTOR ( 'NONE', #286, 39.37007874015748143 ) ;
#214 = ORIENTED_EDGE ( 'NONE', *, *, #164, .F. ) ;
#215 = CONICAL_SURFACE ( 'NONE', #192, 0.1031100000000002570, 0.7853981633974318477 ) ;
#216 = AXIS2_PLACEMENT_3D ( 'NONE', #85, #81, #84 ) ;
#217 = CARTESIAN_POINT ( 'NONE',  ( -0.08849391749999997725, 1.083737928103849684E-17, 0.4330709999999999837 ) ) ;
#218 = ORIENTED_EDGE ( 'NONE', *, *, #249, .F. ) ;
#219 = DIRECTION ( 'NONE',  ( -1.000000000000000000, 0.000000000000000000, 0.000000000000000000 ) ) ;
#220 = DIMENSIONAL_EXPONENTS ( 1.000000000000000000, 0.000000000000000000, 0.000000000000000000, 0.000000000000000000, 0.000000000000000000, 0.000000000000000000, 0.000000000000000000 ) ;
#221 = ORIENTED_EDGE ( 'NONE', *, *, #57, .F. ) ;
#222 = AXIS2_PLACEMENT_3D ( 'NONE', #244, #252, #1 ) ;
#223 = ORIENTED_EDGE ( 'NONE', *, *, #138, .F. ) ;
#224 = DIRECTION ( 'NONE',  ( -1.224646799147353207E-16, -0.000000000000000000, -1.000000000000000000 ) ) ;
#225 = VERTEX_POINT ( 'NONE', #232 ) ;
#226 =( NAMED_UNIT ( * ) SI_UNIT ( $, .STERADIAN. ) SOLID_ANGLE_UNIT ( ) );
#227 = LINE ( 'NONE', #265, #110 ) ;
#228 = CIRCLE ( 'NONE', #185, 0.1181100000000000066 ) ;
#229 =( LENGTH_UNIT ( ) NAMED_UNIT ( * ) SI_UNIT ( $, .METRE. ) );
#230 = DIRECTION ( 'NONE',  ( -1.224646799147353207E-16, -0.000000000000000000, -1.000000000000000000 ) ) ;
#231 =( CONVERSION_BASED_UNIT ( 'INCH', #106 ) LENGTH_UNIT ( ) NAMED_UNIT ( #37 ) );
#232 = CARTESIAN_POINT ( 'NONE',  ( 0.1031100000000002570, 1.354581824536888722E-17, 2.244094000000000033 ) ) ;
#233 = AXIS2_PLACEMENT_3D ( 'NONE', #122, #144, #219 ) ;
#234 = EDGE_LOOP ( 'NONE', ( #214, #183, #98, #163 ) ) ;
#235 = EDGE_CURVE ( 'NONE', #127, #120, #158, .T. ) ;
#236 = AXIS2_PLACEMENT_3D ( 'NONE', #242, #105, #35 ) ;
#237 = AXIS2_PLACEMENT_3D ( 'NONE', #34, #203, #19 ) ;
#238 =( GEOMETRIC_REPRESENTATION_CONTEXT ( 3 ) GLOBAL_UNCERTAINTY_ASSIGNED_CONTEXT ( ( #207 ) ) GLOBAL_UNIT_ASSIGNED_CONTEXT ( ( #159, #297, #121 ) ) REPRESENTATION_CONTEXT ( 'NONE', 'WORKASPACE' ) );
#239 = DIRECTION ( 'NONE',  ( 0.000000000000000000, 0.000000000000000000, 1.000000000000000000 ) ) ;
#240 = ORIENTED_EDGE ( 'NONE', *, *, #56, .T. ) ;
#241 = DIRECTION ( 'NONE',  ( -1.000000000000000000, 0.000000000000000000, 1.224646799147353207E-16 ) ) ;
#242 = CARTESIAN_POINT ( 'NONE',  ( 0.000000000000000000, 0.000000000000000000, 2.229093999999999465 ) ) ;
#243 =( NAMED_UNIT ( * ) PLANE_ANGLE_UNIT ( ) SI_UNIT ( $, .RADIAN. ) );
#244 = CARTESIAN_POINT ( 'NONE',  ( 0.000000000000000000, 0.000000000000000000, 2.244094000000000033 ) ) ;
#245 = SURFACE_SIDE_STYLE ('',( #26 ) ) ;
#246 = ORIENTED_EDGE ( 'NONE', *, *, #56, .F. ) ;
#247 = CARTESIAN_POINT ( 'NONE',  ( -0.1181099999999999373, 0.000000000000000000, 0.6010321502505472369 ) ) ;
#248 = DIMENSIONAL_EXPONENTS ( 1.000000000000000000, 0.000000000000000000, 0.000000000000000000, 0.000000000000000000, 0.000000000000000000, 0.000000000000000000, 0.000000000000000000 ) ;
#249 = EDGE_CURVE ( 'NONE', #120, #64, #109, .T. ) ;
#250 = DIRECTION ( 'NONE',  ( -1.000000000000000000, 0.000000000000000000, 0.000000000000000000 ) ) ;
#251 = FACE_OUTER_BOUND ( 'NONE', #260, .T. ) ;
#252 = DIRECTION ( 'NONE',  ( -0.000000000000000000, -0.000000000000000000, -1.000000000000000000 ) ) ;
#253 = CONICAL_SURFACE ( 'NONE', #216, 0.08849391750000001888, 0.1745329251994338360 ) ;
#254 = CARTESIAN_POINT ( 'NONE',  ( 0.000000000000000000, 0.000000000000000000, 2.229093999999999465 ) ) ;
#255 = DIRECTION ( 'NONE',  ( -1.224646799147353207E-16, -0.000000000000000000, -1.000000000000000000 ) ) ;
#256 = STYLED_ITEM ( 'NONE', ( #2 ), #90 ) ;
#257 = ADVANCED_FACE ( 'NONE', ( #153 ), #5, .T. ) ;
#258 = ADVANCED_FACE ( 'NONE', ( #251 ), #77, .F. ) ;
#259 = CONICAL_SURFACE ( 'NONE', #124, 0.1031100000000002570, 0.7853981633974318477 ) ;
#260 = EDGE_LOOP ( 'NONE', ( #69, #93 ) ) ;
#261 = VECTOR ( 'NONE', #132, 39.37007874015748854 ) ;
#262 = FACE_OUTER_BOUND ( 'NONE', #78, .T. ) ;
#263 = DIRECTION ( 'NONE',  ( -1.224646799147353207E-16, -0.000000000000000000, -1.000000000000000000 ) ) ;
#264 = DIRECTION ( 'NONE',  ( 1.000000000000000000, 0.000000000000000000, 0.000000000000000000 ) ) ;
#265 = CARTESIAN_POINT ( 'NONE',  ( 0.1181100000000000066, 1.446430334472939084E-17, 2.244094000000000033 ) ) ;
#266 = ADVANCED_FACE ( 'NONE', ( #293 ), #108, .T. ) ;
#267 = DIRECTION ( 'NONE',  ( 0.000000000000000000, 0.000000000000000000, 1.000000000000000000 ) ) ;
#268 = ADVANCED_FACE ( 'NONE', ( #133 ), #253, .T. ) ;
#269 =( GEOMETRIC_REPRESENTATION_CONTEXT ( 3 ) GLOBAL_UNCERTAINTY_ASSIGNED_CONTEXT ( ( #137 ) ) GLOBAL_UNIT_ASSIGNED_CONTEXT ( ( #231, #59, #226 ) ) REPRESENTATION_CONTEXT ( 'NONE', 'WORKASPACE' ) );
#270 = CYLINDRICAL_SURFACE ( 'NONE', #233, 0.1181100000000000066 ) ;
#271 = CARTESIAN_POINT ( 'NONE',  ( 0.000000000000000000, 0.000000000000000000, 2.244094000000000033 ) ) ;
#272 = ORIENTED_EDGE ( 'NONE', *, *, #73, .T. ) ;
#273 = PRESENTATION_LAYER_ASSIGNMENT (  '', '', ( #287 ) ) ;
#274 = FILL_AREA_STYLE ('',( #176 ) ) ;
#275 = EDGE_LOOP ( 'NONE', ( #221, #27, #171, #289 ) ) ;
#276 = LENGTH_MEASURE_WITH_UNIT ( LENGTH_MEASURE( 0.02539999999999999897 ), #20 );
#277 = ORIENTED_EDGE ( 'NONE', *, *, #200, .F. ) ;
#278 = VERTEX_POINT ( 'NONE', #157 ) ;
#279 =( CONVERSION_BASED_UNIT ( 'INCH', #125 ) LENGTH_UNIT ( ) NAMED_UNIT ( #220 ) );
#280 = CARTESIAN_POINT ( 'NONE',  ( 0.08849391750000007439, 0.000000000000000000, 0.4330709999999999837 ) ) ;
#281 = CARTESIAN_POINT ( 'NONE',  ( 0.000000000000000000, 0.000000000000000000, 2.244094000000000033 ) ) ;
#282 = DIRECTION ( 'NONE',  ( 1.000000000000000000, 0.000000000000000000, 0.000000000000000000 ) ) ;
#283 = CARTESIAN_POINT ( 'NONE',  ( -0.1181100000000000066, 0.000000000000000000, 2.244094000000000033 ) ) ;
#284 = EDGE_CURVE ( 'NONE', #299, #278, #204, .T. ) ;
#285 = SURFACE_STYLE_USAGE ( .BOTH. , #245 ) ;
#286 = DIRECTION ( 'NONE',  ( -1.224646799147353207E-16, -0.000000000000000000, -1.000000000000000000 ) ) ;
#287 = STYLED_ITEM ( 'NONE', ( #68 ), #184 ) ;
#288 = CARTESIAN_POINT ( 'NONE',  ( -0.1031100000000002570, 0.000000000000000000, 2.244094000000000033 ) ) ;
#289 = ORIENTED_EDGE ( 'NONE', *, *, #284, .F. ) ;
#290 = CARTESIAN_POINT ( 'NONE',  ( -0.08849391749999997725, 1.265084131288394307E-17, 0.4330709999999999837 ) ) ;
#291 = CARTESIAN_POINT ( 'NONE',  ( 0.000000000000000000, 0.000000000000000000, 0.000000000000000000 ) ) ;
#292 = AXIS2_PLACEMENT_3D ( 'NONE', #54, #150, #241 ) ;
#293 = FACE_OUTER_BOUND ( 'NONE', #174, .T. ) ;
#294 = DIRECTION ( 'NONE',  ( 1.000000000000000000, 0.000000000000000000, -0.000000000000000000 ) ) ;
#295 = PRODUCT_DEFINITION_SHAPE ( 'NONE', 'NONE',  #212 ) ;
#296 = ORIENTED_EDGE ( 'NONE', *, *, #177, .F. ) ;
#297 =( NAMED_UNIT ( * ) PLANE_ANGLE_UNIT ( ) SI_UNIT ( $, .RADIAN. ) );
#298 = ORIENTED_EDGE ( 'NONE', *, *, #8, .T. ) ;
#299 = VERTEX_POINT ( 'NONE', #129 ) ;
ENDSEC;
END-ISO-10303-21;
