ISO-10303-21;
HEADER;
FILE_DESCRIPTION (( 'STEP AP214' ),
    '1' );
FILE_NAME ('84991.STEP',
    '2023-06-23T15:21:55',
    ( '' ),
    ( '' ),
    'SwSTEP 2.0',
    'SolidWorks 2023',
    '' );
FILE_SCHEMA (( 'AUTOMOTIVE_DESIGN' ));
ENDSEC;

DATA;
#1 = CLOSED_SHELL ( 'NONE', ( #85, #62, #167, #107 ) ) ;
#2 = CIRCLE ( 'NONE', #182, 0.1562500000000000000 ) ;
#3 = SURFACE_STYLE_FILL_AREA ( #172 ) ;
#4 = LINE ( 'NONE', #137, #18 ) ;
#5 = PRESENTATION_STYLE_ASSIGNMENT (( #237 ) ) ;
#6 = CYLINDRICAL_SURFACE ( 'NONE', #73, 0.1562500000000000000 ) ;
#7 = PRODUCT_DEFINITION_FORMATION_WITH_SPECIFIED_SOURCE ( 'ANY', '', #84, .NOT_KNOWN. ) ;
#8 = LENGTH_MEASURE_WITH_UNIT ( LENGTH_MEASURE( 0.02539999999999999897 ), #204 );
#9 = APPLICATION_PROTOCOL_DEFINITION ( 'draft international standard', 'automotive_design', 1998, #87 ) ;
#10 = PRODUCT_DEFINITION ( 'UNKNOWN', '', #7, #79 ) ;
#11 = PRESENTATION_LAYER_ASSIGNMENT (  '', '', ( #176 ) ) ;
#12 = CYLINDRICAL_SURFACE ( 'NONE', #181, 0.1562499999999997780 ) ;
#13 = VERTEX_POINT ( 'NONE', #46 ) ;
#14 = EDGE_CURVE ( 'NONE', #227, #13, #236, .T. ) ;
#15 = DIMENSIONAL_EXPONENTS ( 1.000000000000000000, 0.000000000000000000, 0.000000000000000000, 0.000000000000000000, 0.000000000000000000, 0.000000000000000000, 0.000000000000000000 ) ;
#16 = UNCERTAINTY_MEASURE_WITH_UNIT (LENGTH_MEASURE( 1.000000000000000082E-05 ), #268, 'distance_accuracy_value', 'NONE');
#17 = ORIENTED_EDGE ( 'NONE', *, *, #54, .F. ) ;
#18 = VECTOR ( 'NONE', #170, 39.37007874015748143 ) ;
#19 = PRESENTATION_LAYER_ASSIGNMENT (  '', '', ( #273 ) ) ;
#20 = FACE_OUTER_BOUND ( 'NONE', #208, .T. ) ;
#21 = CARTESIAN_POINT ( 'NONE',  ( 0.000000000000000000, 0.000000000000000000, 0.000000000000000000 ) ) ;
#22 = ORIENTED_EDGE ( 'NONE', *, *, #302, .F. ) ;
#23 = SURFACE_STYLE_FILL_AREA ( #299 ) ;
#24 = ADVANCED_FACE ( 'NONE', ( #20 ), #232, .F. ) ;
#25 = AXIS2_PLACEMENT_3D ( 'NONE', #156, #101, #186 ) ;
#26 = MECHANICAL_DESIGN_GEOMETRIC_PRESENTATION_REPRESENTATION (  '', ( #301 ), #197 ) ;
#27 = FACE_OUTER_BOUND ( 'NONE', #221, .T. ) ;
#28 = DIRECTION ( 'NONE',  ( 0.000000000000000000, 0.000000000000000000, -1.000000000000000000 ) ) ;
#29 = ADVANCED_FACE ( 'NONE', ( #76 ), #12, .T. ) ;
#30 = CARTESIAN_POINT ( 'NONE',  ( 4.898587196589411843E-16, 3.000000000000000444, 0.000000000000000000 ) ) ;
#31 = FACE_OUTER_BOUND ( 'NONE', #68, .T. ) ;
#32 = DIMENSIONAL_EXPONENTS ( 1.000000000000000000, 0.000000000000000000, 0.000000000000000000, 0.000000000000000000, 0.000000000000000000, 0.000000000000000000, 0.000000000000000000 ) ;
#33 = UNCERTAINTY_MEASURE_WITH_UNIT (LENGTH_MEASURE( 1.000000000000000082E-05 ), #65, 'distance_accuracy_value', 'NONE');
#34 = PRESENTATION_LAYER_ASSIGNMENT (  '', '', ( #218 ) ) ;
#35 = SURFACE_SIDE_STYLE ('',( #243 ) ) ;
#36 = DIMENSIONAL_EXPONENTS ( 1.000000000000000000, 0.000000000000000000, 0.000000000000000000, 0.000000000000000000, 0.000000000000000000, 0.000000000000000000, 0.000000000000000000 ) ;
#37 = EDGE_CURVE ( 'NONE', #13, #227, #264, .T. ) ;
#38 = EDGE_LOOP ( 'NONE', ( #185, #252, #40, #159 ) ) ;
#39 = MECHANICAL_DESIGN_GEOMETRIC_PRESENTATION_REPRESENTATION (  '', ( #273 ), #270 ) ;
#40 = ORIENTED_EDGE ( 'NONE', *, *, #217, .T. ) ;
#41 = SURFACE_STYLE_USAGE ( .BOTH. , #96 ) ;
#42 = FILL_AREA_STYLE_COLOUR ( '', #139 ) ;
#43 = ORIENTED_EDGE ( 'NONE', *, *, #198, .F. ) ;
#44 =( NAMED_UNIT ( * ) PLANE_ANGLE_UNIT ( ) SI_UNIT ( $, .RADIAN. ) );
#45 = FILL_AREA_STYLE ('',( #42 ) ) ;
#46 = CARTESIAN_POINT ( 'NONE',  ( 1.913510623667739463E-17, 1.250000000000000000, 0.1562500000000000000 ) ) ;
#47 = FACE_OUTER_BOUND ( 'NONE', #162, .T. ) ;
#48 = DIRECTION ( 'NONE',  ( 2.799192683765377703E-16, 1.000000000000000000, -0.000000000000000000 ) ) ;
#49 = EDGE_CURVE ( 'NONE', #13, #275, #53, .T. ) ;
#50 =( LENGTH_UNIT ( ) NAMED_UNIT ( * ) SI_UNIT ( $, .METRE. ) );
#51 = FILL_AREA_STYLE ('',( #120 ) ) ;
#52 = CIRCLE ( 'NONE', #74, 0.1562500000000000000 ) ;
#53 = LINE ( 'NONE', #83, #152 ) ;
#54 = EDGE_CURVE ( 'NONE', #227, #249, #4, .T. ) ;
#55 = LENGTH_MEASURE_WITH_UNIT ( LENGTH_MEASURE( 0.02539999999999999897 ), #72 );
#56 = FACE_OUTER_BOUND ( 'NONE', #297, .T. ) ;
#57 = DIRECTION ( 'NONE',  ( -1.000000000000000000, 0.000000000000000000, 0.000000000000000000 ) ) ;
#58 = PRESENTATION_LAYER_ASSIGNMENT (  '', '', ( #171 ) ) ;
#59 = UNCERTAINTY_MEASURE_WITH_UNIT (LENGTH_MEASURE( 1.000000000000000082E-05 ), #269, 'distance_accuracy_value', 'NONE');
#60 = CIRCLE ( 'NONE', #163, 0.1562500000000000000 ) ;
#61 =( NAMED_UNIT ( * ) SI_UNIT ( $, .STERADIAN. ) SOLID_ANGLE_UNIT ( ) );
#62 = ADVANCED_FACE ( 'NONE', ( #27 ), #142, .T. ) ;
#63 = ORIENTED_EDGE ( 'NONE', *, *, #123, .T. ) ;
#64 = VECTOR ( 'NONE', #233, 39.37007874015748143 ) ;
#65 =( CONVERSION_BASED_UNIT ( 'INCH', #88 ) LENGTH_UNIT ( ) NAMED_UNIT ( #36 ) );
#66 = ORIENTED_EDGE ( 'NONE', *, *, #49, .F. ) ;
#67 = DIRECTION ( 'NONE',  ( -1.000000000000000000, 0.000000000000000000, 0.000000000000000000 ) ) ;
#68 = EDGE_LOOP ( 'NONE', ( #66, #224, #93, #22 ) ) ;
#69 = DIRECTION ( 'NONE',  ( -1.000000000000000000, 0.000000000000000000, 0.000000000000000000 ) ) ;
#70 = LENGTH_MEASURE_WITH_UNIT ( LENGTH_MEASURE( 0.02539999999999999897 ), #112 );
#71 = ADVANCED_FACE ( 'NONE', ( #284 ), #265, .T. ) ;
#72 =( LENGTH_UNIT ( ) NAMED_UNIT ( * ) SI_UNIT ( $, .METRE. ) );
#73 = AXIS2_PLACEMENT_3D ( 'NONE', #212, #231, #296 ) ;
#74 = AXIS2_PLACEMENT_3D ( 'NONE', #254, #133, #92 ) ;
#75 = LENGTH_MEASURE_WITH_UNIT ( LENGTH_MEASURE( 0.02539999999999999897 ), #103 );
#76 = FACE_OUTER_BOUND ( 'NONE', #38, .T. ) ;
#77 = DIRECTION ( 'NONE',  ( 1.000000000000000000, 0.000000000000000000, 0.000000000000000000 ) ) ;
#78 = DIRECTION ( 'NONE',  ( 2.799192683765377703E-16, 1.000000000000000000, -0.000000000000000000 ) ) ;
#79 = PRODUCT_DEFINITION_CONTEXT ( 'detailed design', #290, 'design' ) ;
#80 = DIRECTION ( 'NONE',  ( -0.000000000000000000, -1.000000000000000000, -0.000000000000000000 ) ) ;
#81 = CARTESIAN_POINT ( 'NONE',  ( 0.000000000000000000, 1.250000000000000000, 0.000000000000000000 ) ) ;
#82 = AXIS2_PLACEMENT_3D ( 'NONE', #214, #213, #239 ) ;
#83 = CARTESIAN_POINT ( 'NONE',  ( 1.913510623667739463E-17, 0.000000000000000000, 0.1562500000000000000 ) ) ;
#84 = PRODUCT ( '84991', '84991', '', ( #143 ) ) ;
#85 = ADVANCED_FACE ( 'NONE', ( #56 ), #6, .T. ) ;
#86 = SURFACE_STYLE_USAGE ( .BOTH. , #35 ) ;
#87 = APPLICATION_CONTEXT ( 'automotive_design' ) ;
#88 = LENGTH_MEASURE_WITH_UNIT ( LENGTH_MEASURE( 0.02539999999999999897 ), #219 );
#89 = DIRECTION ( 'NONE',  ( -1.000000000000000000, 0.000000000000000000, 0.000000000000000000 ) ) ;
#90 = PLANE ( 'NONE',  #25 ) ;
#91 = EDGE_LOOP ( 'NONE', ( #189, #63, #157, #256 ) ) ;
#92 = DIRECTION ( 'NONE',  ( 0.000000000000000000, 0.000000000000000000, -1.000000000000000000 ) ) ;
#93 = ORIENTED_EDGE ( 'NONE', *, *, #54, .T. ) ;
#94 = LINE ( 'NONE', #158, #64 ) ;
#95 = DIRECTION ( 'NONE',  ( -2.799192683765377703E-16, -1.000000000000000000, 0.000000000000000000 ) ) ;
#96 = SURFACE_SIDE_STYLE ('',( #23 ) ) ;
#97 = ORIENTED_EDGE ( 'NONE', *, *, #14, .T. ) ;
#98 = CARTESIAN_POINT ( 'NONE',  ( 0.000000000000000000, 0.000000000000000000, -0.1562500000000000000 ) ) ;
#99 =( GEOMETRIC_REPRESENTATION_CONTEXT ( 3 ) GLOBAL_UNCERTAINTY_ASSIGNED_CONTEXT ( ( #146 ) ) GLOBAL_UNIT_ASSIGNED_CONTEXT ( ( #280, #180, #117 ) ) REPRESENTATION_CONTEXT ( 'NONE', 'WORKASPACE' ) );
#100 =( GEOMETRIC_REPRESENTATION_CONTEXT ( 3 ) GLOBAL_UNCERTAINTY_ASSIGNED_CONTEXT ( ( #102 ) ) GLOBAL_UNIT_ASSIGNED_CONTEXT ( ( #238, #287, #193 ) ) REPRESENTATION_CONTEXT ( 'NONE', 'WORKASPACE' ) );
#101 = DIRECTION ( 'NONE',  ( 0.000000000000000000, -1.000000000000000000, -0.000000000000000000 ) ) ;
#102 = UNCERTAINTY_MEASURE_WITH_UNIT (LENGTH_MEASURE( 1.000000000000000082E-05 ), #238, 'distance_accuracy_value', 'NONE');
#103 =( LENGTH_UNIT ( ) NAMED_UNIT ( * ) SI_UNIT ( $, .METRE. ) );
#104 = AXIS2_PLACEMENT_3D ( 'NONE', #111, #228, #115 ) ;
#105 = DIRECTION ( 'NONE',  ( 2.799192683765377703E-16, 1.000000000000000000, -0.000000000000000000 ) ) ;
#106 = MECHANICAL_DESIGN_GEOMETRIC_PRESENTATION_REPRESENTATION (  '', ( #218 ), #131 ) ;
#107 = ADVANCED_FACE ( 'NONE', ( #47 ), #90, .T. ) ;
#108 =( NAMED_UNIT ( * ) SI_UNIT ( $, .STERADIAN. ) SOLID_ANGLE_UNIT ( ) );
#109 = CARTESIAN_POINT ( 'NONE',  ( 4.898587196589411843E-16, 3.000000000000000444, 0.000000000000000000 ) ) ;
#110 = VERTEX_POINT ( 'NONE', #184 ) ;
#111 = CARTESIAN_POINT ( 'NONE',  ( 6.121468500660639499E-33, 1.250000000000000000, 0.000000000000000000 ) ) ;
#112 =( LENGTH_UNIT ( ) NAMED_UNIT ( * ) SI_UNIT ( $, .METRE. ) );
#113 = ORIENTED_EDGE ( 'NONE', *, *, #37, .F. ) ;
#114 = COLOUR_RGB ( '',1.000000000000000000, 0.000000000000000000, 0.000000000000000000 ) ;
#115 = DIRECTION ( 'NONE',  ( -1.000000000000000000, 2.799192683765377703E-16, 0.000000000000000000 ) ) ;
#116 = ORIENTED_EDGE ( 'NONE', *, *, #14, .F. ) ;
#117 =( NAMED_UNIT ( * ) SI_UNIT ( $, .STERADIAN. ) SOLID_ANGLE_UNIT ( ) );
#118 = DIRECTION ( 'NONE',  ( 1.000000000000000000, -2.799192683765377703E-16, 0.000000000000000000 ) ) ;
#119 = PRESENTATION_STYLE_ASSIGNMENT (( #41 ) ) ;
#120 = FILL_AREA_STYLE_COLOUR ( '', #244 ) ;
#121 = EDGE_CURVE ( 'NONE', #248, #110, #125, .T. ) ;
#122 = AXIS2_PLACEMENT_3D ( 'NONE', #81, #80, #28 ) ;
#123 = EDGE_CURVE ( 'NONE', #183, #248, #168, .T. ) ;
#124 = AXIS2_PLACEMENT_3D ( 'NONE', #188, #78, #67 ) ;
#125 = CIRCLE ( 'NONE', #124, 0.1562499999999995282 ) ;
#126 = AXIS2_PLACEMENT_3D ( 'NONE', #21, #135, #250 ) ;
#127 = ORIENTED_EDGE ( 'NONE', *, *, #282, .T. ) ;
#128 = ORIENTED_EDGE ( 'NONE', *, *, #144, .T. ) ;
#129 =( NAMED_UNIT ( * ) PLANE_ANGLE_UNIT ( ) SI_UNIT ( $, .RADIAN. ) );
#130 = CARTESIAN_POINT ( 'NONE',  ( 0.000000000000000000, 1.250000000000000000, 0.000000000000000000 ) ) ;
#131 =( GEOMETRIC_REPRESENTATION_CONTEXT ( 3 ) GLOBAL_UNCERTAINTY_ASSIGNED_CONTEXT ( ( #33 ) ) GLOBAL_UNIT_ASSIGNED_CONTEXT ( ( #65, #44, #179 ) ) REPRESENTATION_CONTEXT ( 'NONE', 'WORKASPACE' ) );
#132 = DIRECTION ( 'NONE',  ( 0.000000000000000000, 0.000000000000000000, -1.000000000000000000 ) ) ;
#133 = DIRECTION ( 'NONE',  ( -0.000000000000000000, -1.000000000000000000, -0.000000000000000000 ) ) ;
#134 = VERTEX_POINT ( 'NONE', #165 ) ;
#135 = DIRECTION ( 'NONE',  ( -0.000000000000000000, -1.000000000000000000, -0.000000000000000000 ) ) ;
#136 = SURFACE_SIDE_STYLE ('',( #210 ) ) ;
#137 = CARTESIAN_POINT ( 'NONE',  ( 0.000000000000000000, 0.000000000000000000, -0.1562500000000000000 ) ) ;
#138 = FILL_AREA_STYLE_COLOUR ( '', #194 ) ;
#139 = COLOUR_RGB ( '',1.000000000000000000, 0.000000000000000000, 0.000000000000000000 ) ;
#140 = COLOUR_RGB ( '',1.000000000000000000, 0.000000000000000000, 0.000000000000000000 ) ;
#141 = DIRECTION ( 'NONE',  ( -1.000000000000000000, 0.000000000000000000, 0.000000000000000000 ) ) ;
#142 = PLANE ( 'NONE',  #82 ) ;
#143 = PRODUCT_CONTEXT ( 'NONE', #87, 'mechanical' ) ;
#144 = EDGE_CURVE ( 'NONE', #249, #275, #52, .T. ) ;
#145 = ADVANCED_BREP_SHAPE_REPRESENTATION ( '84991', ( #260, #150, #266 ), #100 ) ;
#146 = UNCERTAINTY_MEASURE_WITH_UNIT (LENGTH_MEASURE( 1.000000000000000082E-05 ), #280, 'distance_accuracy_value', 'NONE');
#147 = FILL_AREA_STYLE ('',( #292 ) ) ;
#148 = AXIS2_PLACEMENT_3D ( 'NONE', #305, #95, #118 ) ;
#149 = CIRCLE ( 'NONE', #174, 0.1562499999999995282 ) ;
#150 = MANIFOLD_SOLID_BREP ( 'Revolve - Tool Body (Straight Shanked)', #285 ) ;
#151 = CARTESIAN_POINT ( 'NONE',  ( 0.000000000000000000, 1.250000000000000000, 0.000000000000000000 ) ) ;
#152 = VECTOR ( 'NONE', #259, 39.37007874015748143 ) ;
#153 = VECTOR ( 'NONE', #277, 39.37007874015748143 ) ;
#154 = DIMENSIONAL_EXPONENTS ( 1.000000000000000000, 0.000000000000000000, 0.000000000000000000, 0.000000000000000000, 0.000000000000000000, 0.000000000000000000, 0.000000000000000000 ) ;
#155 = CARTESIAN_POINT ( 'NONE',  ( 0.1562500000000000000, 3.000000000000000444, 1.913510623667738231E-17 ) ) ;
#156 = CARTESIAN_POINT ( 'NONE',  ( 0.000000000000000000, 0.000000000000000000, 0.000000000000000000 ) ) ;
#157 = ORIENTED_EDGE ( 'NONE', *, *, #282, .F. ) ;
#158 = CARTESIAN_POINT ( 'NONE',  ( -0.1562499999999992784, 3.000000000000000444, 0.000000000000000000 ) ) ;
#159 = ORIENTED_EDGE ( 'NONE', *, *, #121, .F. ) ;
#160 =( LENGTH_UNIT ( ) NAMED_UNIT ( * ) SI_UNIT ( $, .METRE. ) );
#161 = CARTESIAN_POINT ( 'NONE',  ( 0.1562500000000002498, 3.000000000000000444, 1.913510623667736690E-17 ) ) ;
#162 = EDGE_LOOP ( 'NONE', ( #128, #308 ) ) ;
#163 = AXIS2_PLACEMENT_3D ( 'NONE', #245, #253, #132 ) ;
#164 =( CONVERSION_BASED_UNIT ( 'INCH', #222 ) LENGTH_UNIT ( ) NAMED_UNIT ( #15 ) );
#165 = CARTESIAN_POINT ( 'NONE',  ( -0.1562500000000000000, 1.250000000000000000, 0.000000000000000000 ) ) ;
#166 = ORIENTED_EDGE ( 'NONE', *, *, #121, .T. ) ;
#167 = ADVANCED_FACE ( 'NONE', ( #31 ), #258, .T. ) ;
#168 = LINE ( 'NONE', #161, #153 ) ;
#169 = LENGTH_MEASURE_WITH_UNIT ( LENGTH_MEASURE( 0.02539999999999999897 ), #50 );
#170 = DIRECTION ( 'NONE',  ( -0.000000000000000000, -1.000000000000000000, -0.000000000000000000 ) ) ;
#171 = STYLED_ITEM ( 'NONE', ( #215 ), #62 ) ;
#172 = FILL_AREA_STYLE ('',( #235 ) ) ;
#173 = STYLED_ITEM ( 'NONE', ( #229 ), #107 ) ;
#174 = AXIS2_PLACEMENT_3D ( 'NONE', #295, #276, #89 ) ;
#175 = UNCERTAINTY_MEASURE_WITH_UNIT (LENGTH_MEASURE( 1.000000000000000082E-05 ), #207, 'distance_accuracy_value', 'NONE');
#176 = STYLED_ITEM ( 'NONE', ( #5 ), #85 ) ;
#177 = PRODUCT_RELATED_PRODUCT_CATEGORY ( 'part', '', ( #84 ) ) ;
#178 = ORIENTED_EDGE ( 'NONE', *, *, #49, .T. ) ;
#179 =( NAMED_UNIT ( * ) SI_UNIT ( $, .STERADIAN. ) SOLID_ANGLE_UNIT ( ) );
#180 =( NAMED_UNIT ( * ) PLANE_ANGLE_UNIT ( ) SI_UNIT ( $, .RADIAN. ) );
#181 = AXIS2_PLACEMENT_3D ( 'NONE', #109, #202, #57 ) ;
#182 = AXIS2_PLACEMENT_3D ( 'NONE', #272, #304, #306 ) ;
#183 = VERTEX_POINT ( 'NONE', #206 ) ;
#184 = CARTESIAN_POINT ( 'NONE',  ( -0.1562499999999990563, 3.000000000000000444, 0.000000000000000000 ) ) ;
#185 = ORIENTED_EDGE ( 'NONE', *, *, #123, .F. ) ;
#186 = DIRECTION ( 'NONE',  ( 0.000000000000000000, 0.000000000000000000, -1.000000000000000000 ) ) ;
#187 = ORIENTED_EDGE ( 'NONE', *, *, #144, .F. ) ;
#188 = CARTESIAN_POINT ( 'NONE',  ( 4.898587196589411843E-16, 3.000000000000000444, 0.000000000000000000 ) ) ;
#189 = ORIENTED_EDGE ( 'NONE', *, *, #198, .T. ) ;
#190 = SURFACE_SIDE_STYLE ('',( #274 ) ) ;
#191 = FILL_AREA_STYLE ('',( #138 ) ) ;
#192 = DIRECTION ( 'NONE',  ( 0.000000000000000000, 0.000000000000000000, 1.000000000000000000 ) ) ;
#193 =( NAMED_UNIT ( * ) SI_UNIT ( $, .STERADIAN. ) SOLID_ANGLE_UNIT ( ) );
#194 = COLOUR_RGB ( '',1.000000000000000000, 0.000000000000000000, 0.000000000000000000 ) ;
#195 = SURFACE_STYLE_FILL_AREA ( #191 ) ;
#196 =( GEOMETRIC_REPRESENTATION_CONTEXT ( 3 ) GLOBAL_UNCERTAINTY_ASSIGNED_CONTEXT ( ( #16 ) ) GLOBAL_UNIT_ASSIGNED_CONTEXT ( ( #268, #267, #262 ) ) REPRESENTATION_CONTEXT ( 'NONE', 'WORKASPACE' ) );
#197 =( GEOMETRIC_REPRESENTATION_CONTEXT ( 3 ) GLOBAL_UNCERTAINTY_ASSIGNED_CONTEXT ( ( #242 ) ) GLOBAL_UNIT_ASSIGNED_CONTEXT ( ( #164, #129, #61 ) ) REPRESENTATION_CONTEXT ( 'NONE', 'WORKASPACE' ) );
#198 = EDGE_CURVE ( 'NONE', #134, #183, #2, .T. ) ;
#199 = PRESENTATION_LAYER_ASSIGNMENT (  '', '', ( #173 ) ) ;
#200 = AXIS2_PLACEMENT_3D ( 'NONE', #151, #48, #69 ) ;
#201 = PRESENTATION_STYLE_ASSIGNMENT (( #86 ) ) ;
#202 = DIRECTION ( 'NONE',  ( 2.799192683765377703E-16, 1.000000000000000000, -0.000000000000000000 ) ) ;
#203 = FACE_OUTER_BOUND ( 'NONE', #278, .T. ) ;
#204 =( LENGTH_UNIT ( ) NAMED_UNIT ( * ) SI_UNIT ( $, .METRE. ) );
#205 = MECHANICAL_DESIGN_GEOMETRIC_PRESENTATION_REPRESENTATION (  '', ( #171 ), #196 ) ;
#206 = CARTESIAN_POINT ( 'NONE',  ( 0.1562500000000000000, 1.250000000000000000, 1.913510623667738231E-17 ) ) ;
#207 =( CONVERSION_BASED_UNIT ( 'INCH', #75 ) LENGTH_UNIT ( ) NAMED_UNIT ( #225 ) );
#208 = EDGE_LOOP ( 'NONE', ( #127, #166 ) ) ;
#209 = PRODUCT_DEFINITION_SHAPE ( 'NONE', 'NONE',  #10 ) ;
#210 = SURFACE_STYLE_FILL_AREA ( #51 ) ;
#211 = ORIENTED_EDGE ( 'NONE', *, *, #289, .F. ) ;
#212 = CARTESIAN_POINT ( 'NONE',  ( 0.000000000000000000, 0.000000000000000000, 0.000000000000000000 ) ) ;
#213 = DIRECTION ( 'NONE',  ( 0.000000000000000000, 1.000000000000000000, 0.000000000000000000 ) ) ;
#214 = CARTESIAN_POINT ( 'NONE',  ( 0.000000000000000000, 1.250000000000000000, 0.000000000000000000 ) ) ;
#215 = PRESENTATION_STYLE_ASSIGNMENT (( #286 ) ) ;
#216 = CARTESIAN_POINT ( 'NONE',  ( 0.000000000000000000, 0.000000000000000000, 0.000000000000000000 ) ) ;
#217 = EDGE_CURVE ( 'NONE', #134, #110, #94, .T. ) ;
#218 = STYLED_ITEM ( 'NONE', ( #201 ), #167 ) ;
#219 =( LENGTH_UNIT ( ) NAMED_UNIT ( * ) SI_UNIT ( $, .METRE. ) );
#220 = AXIS2_PLACEMENT_3D ( 'NONE', #30, #105, #141 ) ;
#221 = EDGE_LOOP ( 'NONE', ( #116, #113 ) ) ;
#222 = LENGTH_MEASURE_WITH_UNIT ( LENGTH_MEASURE( 0.02539999999999999897 ), #160 );
#223 = PRESENTATION_STYLE_ASSIGNMENT (( #234 ) ) ;
#224 = ORIENTED_EDGE ( 'NONE', *, *, #37, .T. ) ;
#225 = DIMENSIONAL_EXPONENTS ( 1.000000000000000000, 0.000000000000000000, 0.000000000000000000, 0.000000000000000000, 0.000000000000000000, 0.000000000000000000, 0.000000000000000000 ) ;
#226 = CARTESIAN_POINT ( 'NONE',  ( 0.000000000000000000, 1.250000000000000000, -0.1562500000000000000 ) ) ;
#227 = VERTEX_POINT ( 'NONE', #226 ) ;
#228 = DIRECTION ( 'NONE',  ( 2.799192683765377703E-16, 1.000000000000000000, -0.000000000000000000 ) ) ;
#229 = PRESENTATION_STYLE_ASSIGNMENT (( #303 ) ) ;
#230 = DIRECTION ( 'NONE',  ( -0.000000000000000000, -1.000000000000000000, -0.000000000000000000 ) ) ;
#231 = DIRECTION ( 'NONE',  ( -0.000000000000000000, -1.000000000000000000, -0.000000000000000000 ) ) ;
#232 = PLANE ( 'NONE',  #148 ) ;
#233 = DIRECTION ( 'NONE',  ( 2.799192683765377703E-16, 1.000000000000000000, -0.000000000000000000 ) ) ;
#234 = SURFACE_STYLE_USAGE ( .BOTH. , #136 ) ;
#235 = FILL_AREA_STYLE_COLOUR ( '', #114 ) ;
#236 = CIRCLE ( 'NONE', #300, 0.1562500000000000000 ) ;
#237 = SURFACE_STYLE_USAGE ( .BOTH. , #288 ) ;
#238 =( CONVERSION_BASED_UNIT ( 'INCH', #55 ) LENGTH_UNIT ( ) NAMED_UNIT ( #294 ) );
#239 = DIRECTION ( 'NONE',  ( 0.000000000000000000, -0.000000000000000000, 1.000000000000000000 ) ) ;
#240 = SHAPE_DEFINITION_REPRESENTATION ( #209, #145 ) ;
#241 = MECHANICAL_DESIGN_GEOMETRIC_PRESENTATION_REPRESENTATION (  '', ( #173 ), #99 ) ;
#242 = UNCERTAINTY_MEASURE_WITH_UNIT (LENGTH_MEASURE( 1.000000000000000082E-05 ), #164, 'distance_accuracy_value', 'NONE');
#243 = SURFACE_STYLE_FILL_AREA ( #147 ) ;
#244 = COLOUR_RGB ( '',0.7921568627450980005, 0.8196078431372548767, 0.9333333333333333481 ) ;
#245 = CARTESIAN_POINT ( 'NONE',  ( 0.000000000000000000, 0.000000000000000000, 0.000000000000000000 ) ) ;
#246 = MECHANICAL_DESIGN_GEOMETRIC_PRESENTATION_REPRESENTATION (  '', ( #176 ), #255 ) ;
#247 = COLOUR_RGB ( '',0.7921568627450980005, 0.8196078431372548767, 0.9333333333333333481 ) ;
#248 = VERTEX_POINT ( 'NONE', #155 ) ;
#249 = VERTEX_POINT ( 'NONE', #98 ) ;
#250 = DIRECTION ( 'NONE',  ( 0.000000000000000000, 0.000000000000000000, -1.000000000000000000 ) ) ;
#251 =( NAMED_UNIT ( * ) SI_UNIT ( $, .STERADIAN. ) SOLID_ANGLE_UNIT ( ) );
#252 = ORIENTED_EDGE ( 'NONE', *, *, #289, .T. ) ;
#253 = DIRECTION ( 'NONE',  ( -0.000000000000000000, -1.000000000000000000, -0.000000000000000000 ) ) ;
#254 = CARTESIAN_POINT ( 'NONE',  ( 0.000000000000000000, 0.000000000000000000, 0.000000000000000000 ) ) ;
#255 =( GEOMETRIC_REPRESENTATION_CONTEXT ( 3 ) GLOBAL_UNCERTAINTY_ASSIGNED_CONTEXT ( ( #175 ) ) GLOBAL_UNIT_ASSIGNED_CONTEXT ( ( #207, #307, #251 ) ) REPRESENTATION_CONTEXT ( 'NONE', 'WORKASPACE' ) );
#256 = ORIENTED_EDGE ( 'NONE', *, *, #217, .F. ) ;
#257 = PLANE ( 'NONE',  #104 ) ;
#258 = CYLINDRICAL_SURFACE ( 'NONE', #126, 0.1562500000000000000 ) ;
#259 = DIRECTION ( 'NONE',  ( -0.000000000000000000, -1.000000000000000000, -0.000000000000000000 ) ) ;
#260 = MANIFOLD_SOLID_BREP ( 'Revolve - Cutting Edge', #1 ) ;
#261 = ADVANCED_FACE ( 'NONE', ( #203 ), #257, .F. ) ;
#262 =( NAMED_UNIT ( * ) SI_UNIT ( $, .STERADIAN. ) SOLID_ANGLE_UNIT ( ) );
#263 = APPLICATION_PROTOCOL_DEFINITION ( 'draft international standard', 'automotive_design', 1998, #290 ) ;
#264 = CIRCLE ( 'NONE', #122, 0.1562500000000000000 ) ;
#265 = CYLINDRICAL_SURFACE ( 'NONE', #220, 0.1562499999999997780 ) ;
#266 = AXIS2_PLACEMENT_3D ( 'NONE', #216, #192, #77 ) ;
#267 =( NAMED_UNIT ( * ) PLANE_ANGLE_UNIT ( ) SI_UNIT ( $, .RADIAN. ) );
#268 =( CONVERSION_BASED_UNIT ( 'INCH', #169 ) LENGTH_UNIT ( ) NAMED_UNIT ( #154 ) );
#269 =( CONVERSION_BASED_UNIT ( 'INCH', #8 ) LENGTH_UNIT ( ) NAMED_UNIT ( #298 ) );
#270 =( GEOMETRIC_REPRESENTATION_CONTEXT ( 3 ) GLOBAL_UNCERTAINTY_ASSIGNED_CONTEXT ( ( #59 ) ) GLOBAL_UNIT_ASSIGNED_CONTEXT ( ( #269, #271, #108 ) ) REPRESENTATION_CONTEXT ( 'NONE', 'WORKASPACE' ) );
#271 =( NAMED_UNIT ( * ) PLANE_ANGLE_UNIT ( ) SI_UNIT ( $, .RADIAN. ) );
#272 = CARTESIAN_POINT ( 'NONE',  ( 0.000000000000000000, 1.250000000000000000, 0.000000000000000000 ) ) ;
#273 = STYLED_ITEM ( 'NONE', ( #223 ), #150 ) ;
#274 = SURFACE_STYLE_FILL_AREA ( #45 ) ;
#275 = VERTEX_POINT ( 'NONE', #309 ) ;
#276 = DIRECTION ( 'NONE',  ( 2.799192683765377703E-16, 1.000000000000000000, -0.000000000000000000 ) ) ;
#277 = DIRECTION ( 'NONE',  ( 2.799192683765377703E-16, 1.000000000000000000, -0.000000000000000000 ) ) ;
#278 = EDGE_LOOP ( 'NONE', ( #43, #211 ) ) ;
#279 = FILL_AREA_STYLE_COLOUR ( '', #247 ) ;
#280 =( CONVERSION_BASED_UNIT ( 'INCH', #70 ) LENGTH_UNIT ( ) NAMED_UNIT ( #32 ) );
#281 = DIRECTION ( 'NONE',  ( 0.000000000000000000, 0.000000000000000000, -1.000000000000000000 ) ) ;
#282 = EDGE_CURVE ( 'NONE', #110, #248, #149, .T. ) ;
#283 = SURFACE_SIDE_STYLE ('',( #3 ) ) ;
#284 = FACE_OUTER_BOUND ( 'NONE', #91, .T. ) ;
#285 = CLOSED_SHELL ( 'NONE', ( #71, #261, #29, #24 ) ) ;
#286 = SURFACE_STYLE_USAGE ( .BOTH. , #283 ) ;
#287 =( NAMED_UNIT ( * ) PLANE_ANGLE_UNIT ( ) SI_UNIT ( $, .RADIAN. ) );
#288 = SURFACE_SIDE_STYLE ('',( #195 ) ) ;
#289 = EDGE_CURVE ( 'NONE', #183, #134, #291, .T. ) ;
#290 = APPLICATION_CONTEXT ( 'automotive_design' ) ;
#291 = CIRCLE ( 'NONE', #200, 0.1562500000000000000 ) ;
#292 = FILL_AREA_STYLE_COLOUR ( '', #140 ) ;
#293 = PRESENTATION_LAYER_ASSIGNMENT (  '', '', ( #301 ) ) ;
#294 = DIMENSIONAL_EXPONENTS ( 1.000000000000000000, 0.000000000000000000, 0.000000000000000000, 0.000000000000000000, 0.000000000000000000, 0.000000000000000000, 0.000000000000000000 ) ;
#295 = CARTESIAN_POINT ( 'NONE',  ( 4.898587196589411843E-16, 3.000000000000000444, 0.000000000000000000 ) ) ;
#296 = DIRECTION ( 'NONE',  ( 0.000000000000000000, 0.000000000000000000, -1.000000000000000000 ) ) ;
#297 = EDGE_LOOP ( 'NONE', ( #97, #178, #187, #17 ) ) ;
#298 = DIMENSIONAL_EXPONENTS ( 1.000000000000000000, 0.000000000000000000, 0.000000000000000000, 0.000000000000000000, 0.000000000000000000, 0.000000000000000000, 0.000000000000000000 ) ;
#299 = FILL_AREA_STYLE ('',( #279 ) ) ;
#300 = AXIS2_PLACEMENT_3D ( 'NONE', #130, #230, #281 ) ;
#301 = STYLED_ITEM ( 'NONE', ( #119 ), #260 ) ;
#302 = EDGE_CURVE ( 'NONE', #275, #249, #60, .T. ) ;
#303 = SURFACE_STYLE_USAGE ( .BOTH. , #190 ) ;
#304 = DIRECTION ( 'NONE',  ( 2.799192683765377703E-16, 1.000000000000000000, -0.000000000000000000 ) ) ;
#305 = CARTESIAN_POINT ( 'NONE',  ( 0.1562500000000000000, 3.000000000000000444, 0.000000000000000000 ) ) ;
#306 = DIRECTION ( 'NONE',  ( -1.000000000000000000, 0.000000000000000000, 0.000000000000000000 ) ) ;
#307 =( NAMED_UNIT ( * ) PLANE_ANGLE_UNIT ( ) SI_UNIT ( $, .RADIAN. ) );
#308 = ORIENTED_EDGE ( 'NONE', *, *, #302, .T. ) ;
#309 = CARTESIAN_POINT ( 'NONE',  ( 1.913510623667739463E-17, 0.000000000000000000, 0.1562500000000000000 ) ) ;
ENDSEC;
END-ISO-10303-21;
