ISO-10303-21;
HEADER;
FILE_DESCRIPTION (( 'STEP AP214' ),
    '1' );
FILE_NAME ('Micro_SBM-625-3.STEP',
    '2021-09-02T17:03:24',
    ( '' ),
    ( '' ),
    'SwSTEP 2.0',
    'SolidWorks 2020',
    '' );
FILE_SCHEMA (( 'AUTOMOTIVE_DESIGN' ));
ENDSEC;

DATA;
#1 = DIRECTION ( 'NONE',  ( -0.0000000000000000000, -0.0000000000000000000, -1.000000000000000000 ) ) ;
#2 = AXIS2_PLACEMENT_3D ( 'NONE', #184, #189, #238 ) ;
#3 = EDGE_CURVE ( 'NONE', #328, #242, #284, .T. ) ;
#4 = CARTESIAN_POINT ( 'NONE',  ( 0.0000000000000000000, 0.0000000000000000000, 4.000000000000000000 ) ) ;
#5 = CARTESIAN_POINT ( 'NONE',  ( 0.3437499999999997224, 0.0000000000000000000, 2.049999999999995826 ) ) ;
#6 = ORIENTED_EDGE ( 'NONE', *, *, #23, .T. ) ;
#7 = ADVANCED_FACE ( 'NONE', ( #131 ), #102, .T. ) ;
#8 = DIRECTION ( 'NONE',  ( 1.000000000000000000, 0.0000000000000000000, 0.0000000000000000000 ) ) ;
#9 = ORIENTED_EDGE ( 'NONE', *, *, #152, .T. ) ;
#10 = DIRECTION ( 'NONE',  ( -0.0000000000000000000, -0.0000000000000000000, -1.000000000000000000 ) ) ;
#11 = ORIENTED_EDGE ( 'NONE', *, *, #282, .T. ) ;
#12 = CARTESIAN_POINT ( 'NONE',  ( 0.0000000000000000000, 0.0000000000000000000, 0.5000000000000001110 ) ) ;
#13 = EDGE_CURVE ( 'NONE', #247, #146, #47, .T. ) ;
#14 = ORIENTED_EDGE ( 'NONE', *, *, #159, .F. ) ;
#15 = VERTEX_POINT ( 'NONE', #341 ) ;
#16 = EDGE_CURVE ( 'NONE', #146, #67, #345, .T. ) ;
#17 = PRODUCT ( 'Micro_SBM-625-3', 'Micro_SBM-625-3', '', ( #107 ) ) ;
#18 =( LENGTH_UNIT ( ) NAMED_UNIT ( * ) SI_UNIT ( $, .METRE. ) );
#19 = PRESENTATION_STYLE_ASSIGNMENT (( #50 ) ) ;
#20 = DIRECTION ( 'NONE',  ( -0.0000000000000000000, -0.0000000000000000000, -1.000000000000000000 ) ) ;
#21 =( NAMED_UNIT ( * ) PLANE_ANGLE_UNIT ( ) SI_UNIT ( $, .RADIAN. ) );
#22 = DIRECTION ( 'NONE',  ( -1.000000000000000000, 0.0000000000000000000, 0.0000000000000000000 ) ) ;
#23 = EDGE_CURVE ( 'NONE', #215, #114, #220, .T. ) ;
#24 = CIRCLE ( 'NONE', #87, 0.3125000000000000000 ) ;
#25 = DIRECTION ( 'NONE',  ( -1.000000000000000000, 0.0000000000000000000, 0.0000000000000000000 ) ) ;
#26 = AXIS2_PLACEMENT_3D ( 'NONE', #80, #317, #196 ) ;
#27 = PRESENTATION_LAYER_ASSIGNMENT (  '', '', ( #257 ) ) ;
#28 =( CONVERSION_BASED_UNIT ( 'INCH', #154 ) LENGTH_UNIT ( ) NAMED_UNIT ( #145 ) );
#29 = APPLICATION_CONTEXT ( 'automotive_design' ) ;
#30 = AXIS2_PLACEMENT_3D ( 'NONE', #204, #52, #336 ) ;
#31 = ORIENTED_EDGE ( 'NONE', *, *, #140, .F. ) ;
#32 = CARTESIAN_POINT ( 'NONE',  ( -0.3125000000000000000, 3.827021247335478926E-17, 1.699999999999999956 ) ) ;
#33 = ADVANCED_FACE ( 'NONE', ( #82 ), #104, .T. ) ;
#34 = DIRECTION ( 'NONE',  ( -1.000000000000000000, 0.0000000000000000000, 0.0000000000000000000 ) ) ;
#35 = CARTESIAN_POINT ( 'NONE',  ( 0.0000000000000000000, 0.0000000000000000000, 0.3125000000000000000 ) ) ;
#36 = PLANE ( 'NONE',  #263 ) ;
#37 = DIMENSIONAL_EXPONENTS ( 1.000000000000000000, 0.0000000000000000000, 0.0000000000000000000, 0.0000000000000000000, 0.0000000000000000000, 0.0000000000000000000, 0.0000000000000000000 ) ;
#38 = FACE_OUTER_BOUND ( 'NONE', #171, .T. ) ;
#39 = ORIENTED_EDGE ( 'NONE', *, *, #210, .F. ) ;
#40 = DIRECTION ( 'NONE',  ( -0.0000000000000000000, -0.0000000000000000000, -1.000000000000000000 ) ) ;
#41 = VECTOR ( 'NONE', #1, 39.37007874015748143 ) ;
#42 = ORIENTED_EDGE ( 'NONE', *, *, #233, .F. ) ;
#43 = VERTEX_POINT ( 'NONE', #77 ) ;
#44 = FILL_AREA_STYLE ('',( #101 ) ) ;
#45 = EDGE_CURVE ( 'NONE', #43, #326, #279, .T. ) ;
#46 = ORIENTED_EDGE ( 'NONE', *, *, #13, .T. ) ;
#47 = CIRCLE ( 'NONE', #72, 0.2499999999999998890 ) ;
#48 = SURFACE_STYLE_USAGE ( .BOTH. , #225 ) ;
#49 = ORIENTED_EDGE ( 'NONE', *, *, #300, .T. ) ;
#50 = SURFACE_STYLE_USAGE ( .BOTH. , #234 ) ;
#51 =( CONVERSION_BASED_UNIT ( 'INCH', #175 ) LENGTH_UNIT ( ) NAMED_UNIT ( #37 ) );
#52 = DIRECTION ( 'NONE',  ( 0.0000000000000000000, 0.0000000000000000000, -1.000000000000000000 ) ) ;
#53 = AXIS2_PLACEMENT_3D ( 'NONE', #207, #261, #191 ) ;
#54 = ADVANCED_FACE ( 'NONE', ( #124 ), #78, .T. ) ;
#55 = DIRECTION ( 'NONE',  ( 1.000000000000000000, 0.0000000000000000000, 0.0000000000000000000 ) ) ;
#56 = UNCERTAINTY_MEASURE_WITH_UNIT (LENGTH_MEASURE( 1.000000000000000082E-05 ), #28, 'distance_accuracy_value', 'NONE');
#57 = DIRECTION ( 'NONE',  ( -0.0000000000000000000, -0.0000000000000000000, -1.000000000000000000 ) ) ;
#58 = ORIENTED_EDGE ( 'NONE', *, *, #183, .F. ) ;
#59 = DIRECTION ( 'NONE',  ( 1.000000000000000000, 0.0000000000000000000, 0.0000000000000000000 ) ) ;
#60 = DIRECTION ( 'NONE',  ( -0.08893193797450570093, 1.089102131824493708E-17, 0.9960377053144617854 ) ) ;
#61 = AXIS2_PLACEMENT_3D ( 'NONE', #288, #128, #108 ) ;
#62 = CARTESIAN_POINT ( 'NONE',  ( 0.3125000000000000000, 0.0000000000000000000, 1.699999999999999956 ) ) ;
#63 = CONICAL_SURFACE ( 'NONE', #254, 0.2974999999999997646, 0.7853981633974482790 ) ;
#64 = CARTESIAN_POINT ( 'NONE',  ( -0.2974999999999997646, 0.0000000000000000000, 4.000000000000000000 ) ) ;
#65 = ORIENTED_EDGE ( 'NONE', *, *, #16, .T. ) ;
#66 = DIRECTION ( 'NONE',  ( -0.0000000000000000000, -0.0000000000000000000, -1.000000000000000000 ) ) ;
#67 = VERTEX_POINT ( 'NONE', #309 ) ;
#68 = CIRCLE ( 'NONE', #295, 0.2974999999999997646 ) ;
#69 = EDGE_LOOP ( 'NONE', ( #166, #49, #6, #42 ) ) ;
#70 = CARTESIAN_POINT ( 'NONE',  ( 0.0000000000000000000, 0.0000000000000000000, 0.5000000000000001110 ) ) ;
#71 = VERTEX_POINT ( 'NONE', #253 ) ;
#72 = AXIS2_PLACEMENT_3D ( 'NONE', #229, #199, #281 ) ;
#73 =( NAMED_UNIT ( * ) PLANE_ANGLE_UNIT ( ) SI_UNIT ( $, .RADIAN. ) );
#74 = ADVANCED_FACE ( 'NONE', ( #259 ), #174, .T. ) ;
#75 = CARTESIAN_POINT ( 'NONE',  ( 0.0000000000000000000, 0.0000000000000000000, 4.000000000000000000 ) ) ;
#76 = CARTESIAN_POINT ( 'NONE',  ( 0.0000000000000000000, 0.0000000000000000000, 4.000000000000000000 ) ) ;
#77 = CARTESIAN_POINT ( 'NONE',  ( -0.3125000000000000000, 0.0000000000000000000, 3.984999999999999876 ) ) ;
#78 = CYLINDRICAL_SURFACE ( 'NONE', #81, 0.2499999999999998890 ) ;
#79 = APPLICATION_PROTOCOL_DEFINITION ( 'draft international standard', 'automotive_design', 1998, #100 ) ;
#80 = CARTESIAN_POINT ( 'NONE',  ( 0.0000000000000000000, 0.0000000000000000000, 1.699999999999999956 ) ) ;
#81 = AXIS2_PLACEMENT_3D ( 'NONE', #178, #157, #151 ) ;
#82 = FACE_OUTER_BOUND ( 'NONE', #144, .T. ) ;
#83 = ORIENTED_EDGE ( 'NONE', *, *, #155, .F. ) ;
#84 = DIRECTION ( 'NONE',  ( -1.000000000000000000, 0.0000000000000000000, 0.0000000000000000000 ) ) ;
#85 = DIRECTION ( 'NONE',  ( 0.0000000000000000000, 0.0000000000000000000, 1.000000000000000000 ) ) ;
#86 = VECTOR ( 'NONE', #57, 39.37007874015748143 ) ;
#87 = AXIS2_PLACEMENT_3D ( 'NONE', #99, #331, #249 ) ;
#88 = DIRECTION ( 'NONE',  ( 1.000000000000000000, 0.0000000000000000000, 0.0000000000000000000 ) ) ;
#89 = AXIS2_PLACEMENT_3D ( 'NONE', #180, #59, #134 ) ;
#90 = EDGE_LOOP ( 'NONE', ( #290, #267 ) ) ;
#91 = ORIENTED_EDGE ( 'NONE', *, *, #23, .F. ) ;
#92 = CARTESIAN_POINT ( 'NONE',  ( 0.0000000000000000000, 0.0000000000000000000, 3.984999999999999876 ) ) ;
#93 = ORIENTED_EDGE ( 'NONE', *, *, #3, .T. ) ;
#94 = PRODUCT_DEFINITION_FORMATION_WITH_SPECIFIED_SOURCE ( 'ANY', '', #17, .NOT_KNOWN. ) ;
#95 = DIRECTION ( 'NONE',  ( -0.0000000000000000000, -0.0000000000000000000, -1.000000000000000000 ) ) ;
#96 = AXIS2_PLACEMENT_3D ( 'NONE', #158, #10, #216 ) ;
#97 = ORIENTED_EDGE ( 'NONE', *, *, #262, .T. ) ;
#98 = ORIENTED_EDGE ( 'NONE', *, *, #156, .T. ) ;
#99 = CARTESIAN_POINT ( 'NONE',  ( 0.0000000000000000000, 0.0000000000000000000, 1.699999999999999956 ) ) ;
#100 = APPLICATION_CONTEXT ( 'automotive_design' ) ;
#101 = FILL_AREA_STYLE_COLOUR ( '', #197 ) ;
#102 = CYLINDRICAL_SURFACE ( 'NONE', #61, 0.3125000000000000000 ) ;
#103 = CARTESIAN_POINT ( 'NONE',  ( 0.0000000000000000000, 0.0000000000000000000, 0.5000000000000001110 ) ) ;
#104 = CYLINDRICAL_SURFACE ( 'NONE', #289, 0.2499999999999998890 ) ;
#105 = ADVANCED_FACE ( 'NONE', ( #201 ), #226, .T. ) ;
#106 = SHAPE_DEFINITION_REPRESENTATION ( #275, #206 ) ;
#107 = PRODUCT_CONTEXT ( 'NONE', #29, 'mechanical' ) ;
#108 = DIRECTION ( 'NONE',  ( -1.000000000000000000, 0.0000000000000000000, 0.0000000000000000000 ) ) ;
#109 = CARTESIAN_POINT ( 'NONE',  ( 0.2499999999999998890, 3.061616997868381785E-17, 0.0000000000000000000 ) ) ;
#110 = DIRECTION ( 'NONE',  ( 1.000000000000000000, 0.0000000000000000000, -0.0000000000000000000 ) ) ;
#111 = CARTESIAN_POINT ( 'NONE',  ( 0.0000000000000000000, 0.0000000000000000000, 4.000000000000000000 ) ) ;
#112 = ORIENTED_EDGE ( 'NONE', *, *, #155, .T. ) ;
#113 = CARTESIAN_POINT ( 'NONE',  ( 0.0000000000000000000, 0.0000000000000000000, 0.3125000000000000000 ) ) ;
#114 = VERTEX_POINT ( 'NONE', #32 ) ;
#115 = CARTESIAN_POINT ( 'NONE',  ( -0.2499999999999998890, 0.0000000000000000000, 0.0000000000000000000 ) ) ;
#116 = ORIENTED_EDGE ( 'NONE', *, *, #152, .F. ) ;
#117 = DIRECTION ( 'NONE',  ( 0.7071067811865475727, 8.659560562354932858E-17, -0.7071067811865474617 ) ) ;
#118 = EDGE_LOOP ( 'NONE', ( #142, #278, #91, #181 ) ) ;
#119 = CIRCLE ( 'NONE', #227, 0.2499999999999998890 ) ;
#120 = CARTESIAN_POINT ( 'NONE',  ( -0.2499999999999998890, 0.0000000000000000000, 0.5000000000000001110 ) ) ;
#121 = MANIFOLD_SOLID_BREP ( 'Cut-Revolve3', #209 ) ;
#122 = CIRCLE ( 'NONE', #129, 0.3125000000000000000 ) ;
#123 = ORIENTED_EDGE ( 'NONE', *, *, #133, .T. ) ;
#124 = FACE_OUTER_BOUND ( 'NONE', #192, .T. ) ;
#125 = CARTESIAN_POINT ( 'NONE',  ( 3.061616997868381785E-17, -0.2499999999999999167, 0.5000000000000001110 ) ) ;
#126 = DIRECTION ( 'NONE',  ( -0.0000000000000000000, -0.0000000000000000000, -1.000000000000000000 ) ) ;
#127 = APPLICATION_PROTOCOL_DEFINITION ( 'draft international standard', 'automotive_design', 1998, #29 ) ;
#128 = DIRECTION ( 'NONE',  ( -0.0000000000000000000, -0.0000000000000000000, -1.000000000000000000 ) ) ;
#129 = AXIS2_PLACEMENT_3D ( 'NONE', #113, #22, #308 ) ;
#130 = ADVANCED_FACE ( 'NONE', ( #320 ), #63, .T. ) ;
#131 = FACE_OUTER_BOUND ( 'NONE', #69, .T. ) ;
#132 = CIRCLE ( 'NONE', #149, 0.2974999999999997646 ) ;
#133 = EDGE_CURVE ( 'NONE', #67, #334, #153, .T. ) ;
#134 = DIRECTION ( 'NONE',  ( 0.0000000000000000000, 1.000000000000000000, 0.0000000000000000000 ) ) ;
#135 = ADVANCED_FACE ( 'NONE', ( #264 ), #36, .T. ) ;
#136 = AXIS2_PLACEMENT_3D ( 'NONE', #70, #126, #205 ) ;
#137 = LINE ( 'NONE', #162, #41 ) ;
#138 =( GEOMETRIC_REPRESENTATION_CONTEXT ( 3 ) GLOBAL_UNCERTAINTY_ASSIGNED_CONTEXT ( ( #56 ) ) GLOBAL_UNIT_ASSIGNED_CONTEXT ( ( #28, #21, #241 ) ) REPRESENTATION_CONTEXT ( 'NONE', 'WORKASPACE' ) );
#139 = CARTESIAN_POINT ( 'NONE',  ( 0.0000000000000000000, 0.0000000000000000000, 4.000000000000000000 ) ) ;
#140 = EDGE_CURVE ( 'NONE', #247, #328, #298, .T. ) ;
#141 = CARTESIAN_POINT ( 'NONE',  ( 0.0000000000000000000, 0.2499999999999999167, 0.5000000000000001110 ) ) ;
#142 = ORIENTED_EDGE ( 'NONE', *, *, #13, .F. ) ;
#143 = DIRECTION ( 'NONE',  ( 0.0000000000000000000, 0.0000000000000000000, -1.000000000000000000 ) ) ;
#144 = EDGE_LOOP ( 'NONE', ( #190, #98, #217, #169, #269 ) ) ;
#145 = DIMENSIONAL_EXPONENTS ( 1.000000000000000000, 0.0000000000000000000, 0.0000000000000000000, 0.0000000000000000000, 0.0000000000000000000, 0.0000000000000000000, 0.0000000000000000000 ) ;
#146 = VERTEX_POINT ( 'NONE', #186 ) ;
#147 = ORIENTED_EDGE ( 'NONE', *, *, #339, .T. ) ;
#148 = LINE ( 'NONE', #338, #167 ) ;
#149 = AXIS2_PLACEMENT_3D ( 'NONE', #139, #85, #185 ) ;
#150 = EDGE_LOOP ( 'NONE', ( #39, #147, #93, #97 ) ) ;
#151 = DIRECTION ( 'NONE',  ( -1.000000000000000000, 0.0000000000000000000, 0.0000000000000000000 ) ) ;
#152 = EDGE_CURVE ( 'NONE', #326, #43, #193, .T. ) ;
#153 = CIRCLE ( 'NONE', #2, 0.2499999999999998890 ) ;
#154 = LENGTH_MEASURE_WITH_UNIT ( LENGTH_MEASURE( 0.02539999999999999897 ), #283 );
#155 = EDGE_CURVE ( 'NONE', #273, #43, #322, .T. ) ;
#156 = EDGE_CURVE ( 'NONE', #146, #247, #311, .T. ) ;
#157 = DIRECTION ( 'NONE',  ( -0.0000000000000000000, -0.0000000000000000000, -1.000000000000000000 ) ) ;
#158 = CARTESIAN_POINT ( 'NONE',  ( 0.0000000000000000000, 0.0000000000000000000, 1.000000000000000000 ) ) ;
#159 = EDGE_CURVE ( 'NONE', #247, #114, #329, .T. ) ;
#160 = DIRECTION ( 'NONE',  ( 0.0000000000000000000, 0.0000000000000000000, 1.000000000000000000 ) ) ;
#161 = CONICAL_SURFACE ( 'NONE', #173, 0.2974999999999997646, 0.7853981633974482790 ) ;
#162 = CARTESIAN_POINT ( 'NONE',  ( -0.3125000000000000000, 0.0000000000000000000, 4.000000000000000000 ) ) ;
#163 = CARTESIAN_POINT ( 'NONE',  ( 0.0000000000000000000, 0.0000000000000000000, 4.000000000000000000 ) ) ;
#164 = ORIENTED_EDGE ( 'NONE', *, *, #321, .F. ) ;
#165 = FACE_OUTER_BOUND ( 'NONE', #118, .T. ) ;
#166 = ORIENTED_EDGE ( 'NONE', *, *, #45, .T. ) ;
#167 = VECTOR ( 'NONE', #304, 39.37007874015748143 ) ;
#168 = EDGE_LOOP ( 'NONE', ( #305, #58, #112, #116 ) ) ;
#169 = ORIENTED_EDGE ( 'NONE', *, *, #339, .F. ) ;
#170 = DIRECTION ( 'NONE',  ( -1.000000000000000000, 0.0000000000000000000, 0.0000000000000000000 ) ) ;
#171 = EDGE_LOOP ( 'NONE', ( #14, #245, #194, #164 ) ) ;
#172 = DIRECTION ( 'NONE',  ( -1.000000000000000000, 0.0000000000000000000, 0.0000000000000000000 ) ) ;
#173 = AXIS2_PLACEMENT_3D ( 'NONE', #76, #252, #172 ) ;
#174 = SPHERICAL_SURFACE ( 'NONE', #213, 0.3125000000000000000 ) ;
#175 = LENGTH_MEASURE_WITH_UNIT ( LENGTH_MEASURE( 0.02539999999999999897 ), #228 );
#176 = FILL_AREA_STYLE_COLOUR ( '', #287 ) ;
#177 = ADVANCED_FACE ( 'NONE', ( #165 ), #182, .T. ) ;
#178 = CARTESIAN_POINT ( 'NONE',  ( 0.0000000000000000000, 0.0000000000000000000, 0.0000000000000000000 ) ) ;
#179 = VECTOR ( 'NONE', #60, 39.37007874015748854 ) ;
#180 = CARTESIAN_POINT ( 'NONE',  ( 0.0000000000000000000, 0.0000000000000000000, 0.3125000000000000000 ) ) ;
#181 = ORIENTED_EDGE ( 'NONE', *, *, #244, .F. ) ;
#182 = CONICAL_SURFACE ( 'NONE', #53, 0.3437499999999997224, 0.08904958263449799793 ) ;
#183 = EDGE_CURVE ( 'NONE', #273, #71, #68, .T. ) ;
#184 = CARTESIAN_POINT ( 'NONE',  ( 0.0000000000000000000, 0.0000000000000000000, 0.5000000000000001110 ) ) ;
#185 = DIRECTION ( 'NONE',  ( 1.000000000000000000, 0.0000000000000000000, 0.0000000000000000000 ) ) ;
#186 = CARTESIAN_POINT ( 'NONE',  ( 0.2499999999999998890, 0.0000000000000000000, 1.000000000000000000 ) ) ;
#187 = EDGE_CURVE ( 'NONE', #71, #273, #132, .T. ) ;
#188 = ORIENTED_EDGE ( 'NONE', *, *, #286, .F. ) ;
#189 = DIRECTION ( 'NONE',  ( -0.0000000000000000000, -0.0000000000000000000, -1.000000000000000000 ) ) ;
#190 = ORIENTED_EDGE ( 'NONE', *, *, #16, .F. ) ;
#191 = DIRECTION ( 'NONE',  ( 1.000000000000000000, 0.0000000000000000000, 0.0000000000000000000 ) ) ;
#192 = EDGE_LOOP ( 'NONE', ( #46, #65, #188, #195, #31 ) ) ;
#193 = CIRCLE ( 'NONE', #198, 0.3125000000000000000 ) ;
#194 = ORIENTED_EDGE ( 'NONE', *, *, #244, .T. ) ;
#195 = ORIENTED_EDGE ( 'NONE', *, *, #3, .F. ) ;
#196 = DIRECTION ( 'NONE',  ( 1.000000000000000000, 0.0000000000000000000, 0.0000000000000000000 ) ) ;
#197 = COLOUR_RGB ( '',0.7921568627450980005, 0.8196078431372548767, 0.9333333333333333481 ) ;
#198 = AXIS2_PLACEMENT_3D ( 'NONE', #92, #327, #208 ) ;
#199 = DIRECTION ( 'NONE',  ( -0.0000000000000000000, -0.0000000000000000000, -1.000000000000000000 ) ) ;
#200 = PRESENTATION_STYLE_ASSIGNMENT (( #48 ) ) ;
#201 = FACE_OUTER_BOUND ( 'NONE', #150, .T. ) ;
#202 = CIRCLE ( 'NONE', #324, 0.2499999999999998890 ) ;
#203 = UNCERTAINTY_MEASURE_WITH_UNIT (LENGTH_MEASURE( 1.000000000000000082E-05 ), #51, 'distance_accuracy_value', 'NONE');
#204 = CARTESIAN_POINT ( 'NONE',  ( 0.0000000000000000000, 0.0000000000000000000, 3.984999999999999876 ) ) ;
#205 = DIRECTION ( 'NONE',  ( -1.000000000000000000, 0.0000000000000000000, 0.0000000000000000000 ) ) ;
#206 = ADVANCED_BREP_SHAPE_REPRESENTATION ( 'Micro_SBM-625-3', ( #121, #310 ), #342 ) ;
#207 = CARTESIAN_POINT ( 'NONE',  ( 0.0000000000000000000, 0.0000000000000000000, 2.049999999999995826 ) ) ;
#208 = DIRECTION ( 'NONE',  ( 1.000000000000000000, 0.0000000000000000000, 0.0000000000000000000 ) ) ;
#209 = CLOSED_SHELL ( 'NONE', ( #130, #7, #54, #177, #74, #105, #258, #33, #221, #135, #271 ) ) ;
#210 = EDGE_CURVE ( 'NONE', #334, #15, #236, .T. ) ;
#211 = DIRECTION ( 'NONE',  ( -0.7071067811865475727, 0.0000000000000000000, -0.7071067811865474617 ) ) ;
#212 = ORIENTED_EDGE ( 'NONE', *, *, #321, .T. ) ;
#213 = AXIS2_PLACEMENT_3D ( 'NONE', #285, #340, #251 ) ;
#214 = CARTESIAN_POINT ( 'NONE',  ( 0.0000000000000000000, 0.0000000000000000000, 2.049999999999995826 ) ) ;
#215 = VERTEX_POINT ( 'NONE', #62 ) ;
#216 = DIRECTION ( 'NONE',  ( -1.000000000000000000, 0.0000000000000000000, 0.0000000000000000000 ) ) ;
#217 = ORIENTED_EDGE ( 'NONE', *, *, #140, .T. ) ;
#218 = LINE ( 'NONE', #312, #315 ) ;
#219 = ORIENTED_EDGE ( 'NONE', *, *, #45, .F. ) ;
#220 = CIRCLE ( 'NONE', #26, 0.3125000000000000000 ) ;
#221 = ADVANCED_FACE ( 'NONE', ( #268 ), #260, .T. ) ;
#222 = VECTOR ( 'NONE', #296, 39.37007874015748854 ) ;
#223 = ORIENTED_EDGE ( 'NONE', *, *, #233, .T. ) ;
#224 = LENGTH_MEASURE_WITH_UNIT ( LENGTH_MEASURE( 0.02539999999999999897 ), #18 );
#225 = SURFACE_SIDE_STYLE ('',( #277 ) ) ;
#226 = SPHERICAL_SURFACE ( 'NONE', #89, 0.3125000000000000000 ) ;
#227 = AXIS2_PLACEMENT_3D ( 'NONE', #103, #95, #335 ) ;
#228 =( LENGTH_UNIT ( ) NAMED_UNIT ( * ) SI_UNIT ( $, .METRE. ) );
#229 = CARTESIAN_POINT ( 'NONE',  ( 0.0000000000000000000, 0.0000000000000000000, 1.000000000000000000 ) ) ;
#230 = PRODUCT_RELATED_PRODUCT_CATEGORY ( 'part', '', ( #17 ) ) ;
#231 = PRESENTATION_LAYER_ASSIGNMENT (  '', '', ( #237 ) ) ;
#232 = UNCERTAINTY_MEASURE_WITH_UNIT (LENGTH_MEASURE( 1.000000000000000082E-05 ), #306, 'distance_accuracy_value', 'NONE');
#233 = EDGE_CURVE ( 'NONE', #43, #114, #137, .T. ) ;
#234 = SURFACE_SIDE_STYLE ('',( #250 ) ) ;
#235 = LINE ( 'NONE', #5, #222 ) ;
#236 = CIRCLE ( 'NONE', #270, 0.3125000000000000000 ) ;
#237 = STYLED_ITEM ( 'NONE', ( #200 ), #206 ) ;
#238 = DIRECTION ( 'NONE',  ( -1.000000000000000000, 0.0000000000000000000, 0.0000000000000000000 ) ) ;
#239 = DIRECTION ( 'NONE',  ( 0.0000000000000000000, 0.0000000000000000000, 1.000000000000000000 ) ) ;
#240 = EDGE_LOOP ( 'NONE', ( #276, #123, #299, #302 ) ) ;
#241 =( NAMED_UNIT ( * ) SI_UNIT ( $, .STERADIAN. ) SOLID_ANGLE_UNIT ( ) );
#242 = VERTEX_POINT ( 'NONE', #141 ) ;
#243 = CARTESIAN_POINT ( 'NONE',  ( -0.2974999999999997646, 0.0000000000000000000, 4.000000000000000000 ) ) ;
#244 = EDGE_CURVE ( 'NONE', #146, #215, #235, .T. ) ;
#245 = ORIENTED_EDGE ( 'NONE', *, *, #156, .F. ) ;
#246 = CARTESIAN_POINT ( 'NONE',  ( 0.3125000000000000000, 3.827021247335478926E-17, 3.984999999999999876 ) ) ;
#247 = VERTEX_POINT ( 'NONE', #265 ) ;
#248 = AXIS2_PLACEMENT_3D ( 'NONE', #111, #40, #34 ) ;
#249 = DIRECTION ( 'NONE',  ( 1.000000000000000000, 0.0000000000000000000, 0.0000000000000000000 ) ) ;
#250 = SURFACE_STYLE_FILL_AREA ( #314 ) ;
#251 = DIRECTION ( 'NONE',  ( 0.0000000000000000000, 1.000000000000000000, 0.0000000000000000000 ) ) ;
#252 = DIRECTION ( 'NONE',  ( 0.0000000000000000000, 0.0000000000000000000, -1.000000000000000000 ) ) ;
#253 = CARTESIAN_POINT ( 'NONE',  ( 0.2974999999999997646, 3.735172737399425174E-17, 4.000000000000000000 ) ) ;
#254 = AXIS2_PLACEMENT_3D ( 'NONE', #75, #143, #84 ) ;
#255 =( NAMED_UNIT ( * ) SI_UNIT ( $, .STERADIAN. ) SOLID_ANGLE_UNIT ( ) );
#256 =( GEOMETRIC_REPRESENTATION_CONTEXT ( 3 ) GLOBAL_UNCERTAINTY_ASSIGNED_CONTEXT ( ( #203 ) ) GLOBAL_UNIT_ASSIGNED_CONTEXT ( ( #51, #272, #255 ) ) REPRESENTATION_CONTEXT ( 'NONE', 'WORKASPACE' ) );
#257 = STYLED_ITEM ( 'NONE', ( #19 ), #121 ) ;
#258 = ADVANCED_FACE ( 'NONE', ( #38 ), #319, .T. ) ;
#259 = FACE_OUTER_BOUND ( 'NONE', #240, .T. ) ;
#260 = CYLINDRICAL_SURFACE ( 'NONE', #248, 0.3125000000000000000 ) ;
#261 = DIRECTION ( 'NONE',  ( 0.0000000000000000000, 0.0000000000000000000, 1.000000000000000000 ) ) ;
#262 = EDGE_CURVE ( 'NONE', #242, #15, #122, .T. ) ;
#263 = AXIS2_PLACEMENT_3D ( 'NONE', #4, #292, #110 ) ;
#264 = FACE_OUTER_BOUND ( 'NONE', #90, .T. ) ;
#265 = CARTESIAN_POINT ( 'NONE',  ( -0.2499999999999998890, 3.444319122601930356E-17, 1.000000000000000000 ) ) ;
#266 = DIMENSIONAL_EXPONENTS ( 1.000000000000000000, 0.0000000000000000000, 0.0000000000000000000, 0.0000000000000000000, 0.0000000000000000000, 0.0000000000000000000, 0.0000000000000000000 ) ;
#267 = ORIENTED_EDGE ( 'NONE', *, *, #187, .T. ) ;
#268 = FACE_OUTER_BOUND ( 'NONE', #332, .T. ) ;
#269 = ORIENTED_EDGE ( 'NONE', *, *, #133, .F. ) ;
#270 = AXIS2_PLACEMENT_3D ( 'NONE', #35, #323, #293 ) ;
#271 = ADVANCED_FACE ( 'NONE', ( #280 ), #161, .T. ) ;
#272 =( NAMED_UNIT ( * ) PLANE_ANGLE_UNIT ( ) SI_UNIT ( $, .RADIAN. ) );
#273 = VERTEX_POINT ( 'NONE', #243 ) ;
#274 =( NAMED_UNIT ( * ) SI_UNIT ( $, .STERADIAN. ) SOLID_ANGLE_UNIT ( ) );
#275 = PRODUCT_DEFINITION_SHAPE ( 'NONE', 'NONE',  #291 ) ;
#276 = ORIENTED_EDGE ( 'NONE', *, *, #286, .T. ) ;
#277 = SURFACE_STYLE_FILL_AREA ( #44 ) ;
#278 = ORIENTED_EDGE ( 'NONE', *, *, #159, .T. ) ;
#279 = CIRCLE ( 'NONE', #30, 0.3125000000000000000 ) ;
#280 = FACE_OUTER_BOUND ( 'NONE', #168, .T. ) ;
#281 = DIRECTION ( 'NONE',  ( -1.000000000000000000, 0.0000000000000000000, 0.0000000000000000000 ) ) ;
#282 = EDGE_CURVE ( 'NONE', #71, #326, #218, .T. ) ;
#283 =( LENGTH_UNIT ( ) NAMED_UNIT ( * ) SI_UNIT ( $, .METRE. ) );
#284 = CIRCLE ( 'NONE', #136, 0.2499999999999998890 ) ;
#285 = CARTESIAN_POINT ( 'NONE',  ( 0.0000000000000000000, 0.0000000000000000000, 0.3125000000000000000 ) ) ;
#286 = EDGE_CURVE ( 'NONE', #242, #67, #202, .T. ) ;
#287 = COLOUR_RGB ( '',0.7921568627450980005, 0.8196078431372548767, 0.9333333333333333481 ) ;
#288 = CARTESIAN_POINT ( 'NONE',  ( 0.0000000000000000000, 0.0000000000000000000, 4.000000000000000000 ) ) ;
#289 = AXIS2_PLACEMENT_3D ( 'NONE', #318, #313, #25 ) ;
#290 = ORIENTED_EDGE ( 'NONE', *, *, #183, .T. ) ;
#291 = PRODUCT_DEFINITION ( 'UNKNOWN', '', #94, #316 ) ;
#292 = DIRECTION ( 'NONE',  ( 0.0000000000000000000, 0.0000000000000000000, 1.000000000000000000 ) ) ;
#293 = DIRECTION ( 'NONE',  ( -1.224646799147353207E-16, 1.000000000000000000, 0.0000000000000000000 ) ) ;
#294 = MECHANICAL_DESIGN_GEOMETRIC_PRESENTATION_REPRESENTATION (  '', ( #237 ), #256 ) ;
#295 = AXIS2_PLACEMENT_3D ( 'NONE', #163, #160, #88 ) ;
#296 = DIRECTION ( 'NONE',  ( 0.08893193797450570093, 0.0000000000000000000, 0.9960377053144617854 ) ) ;
#297 = ORIENTED_EDGE ( 'NONE', *, *, #187, .F. ) ;
#298 = LINE ( 'NONE', #115, #337 ) ;
#299 = ORIENTED_EDGE ( 'NONE', *, *, #210, .T. ) ;
#300 = EDGE_CURVE ( 'NONE', #326, #215, #148, .T. ) ;
#301 = CARTESIAN_POINT ( 'NONE',  ( -0.3437499999999997224, 4.209723372069023183E-17, 2.049999999999995826 ) ) ;
#302 = ORIENTED_EDGE ( 'NONE', *, *, #262, .F. ) ;
#303 = MECHANICAL_DESIGN_GEOMETRIC_PRESENTATION_REPRESENTATION (  '', ( #257 ), #138 ) ;
#304 = DIRECTION ( 'NONE',  ( -0.0000000000000000000, -0.0000000000000000000, -1.000000000000000000 ) ) ;
#305 = ORIENTED_EDGE ( 'NONE', *, *, #282, .F. ) ;
#306 =( CONVERSION_BASED_UNIT ( 'INCH', #224 ) LENGTH_UNIT ( ) NAMED_UNIT ( #266 ) );
#307 = EDGE_LOOP ( 'NONE', ( #297, #11, #219, #83 ) ) ;
#308 = DIRECTION ( 'NONE',  ( 0.0000000000000000000, 0.0000000000000000000, 1.000000000000000000 ) ) ;
#309 = CARTESIAN_POINT ( 'NONE',  ( 0.2499999999999998890, 3.061616997868381785E-17, 0.5000000000000001110 ) ) ;
#310 = AXIS2_PLACEMENT_3D ( 'NONE', #343, #344, #55 ) ;
#311 = CIRCLE ( 'NONE', #96, 0.2499999999999998890 ) ;
#312 = CARTESIAN_POINT ( 'NONE',  ( 0.2974999999999997646, 3.643324227463372038E-17, 4.000000000000000000 ) ) ;
#313 = DIRECTION ( 'NONE',  ( -0.0000000000000000000, -0.0000000000000000000, -1.000000000000000000 ) ) ;
#314 = FILL_AREA_STYLE ('',( #176 ) ) ;
#315 = VECTOR ( 'NONE', #117, 39.37007874015748143 ) ;
#316 = PRODUCT_DEFINITION_CONTEXT ( 'detailed design', #100, 'design' ) ;
#317 = DIRECTION ( 'NONE',  ( 0.0000000000000000000, 0.0000000000000000000, 1.000000000000000000 ) ) ;
#318 = CARTESIAN_POINT ( 'NONE',  ( 0.0000000000000000000, 0.0000000000000000000, 0.0000000000000000000 ) ) ;
#319 = CONICAL_SURFACE ( 'NONE', #325, 0.3437499999999997224, 0.08904958263449799793 ) ;
#320 = FACE_OUTER_BOUND ( 'NONE', #307, .T. ) ;
#321 = EDGE_CURVE ( 'NONE', #114, #215, #24, .T. ) ;
#322 = LINE ( 'NONE', #64, #333 ) ;
#323 = DIRECTION ( 'NONE',  ( 1.000000000000000000, 1.224646799147353207E-16, -0.0000000000000000000 ) ) ;
#324 = AXIS2_PLACEMENT_3D ( 'NONE', #12, #20, #170 ) ;
#325 = AXIS2_PLACEMENT_3D ( 'NONE', #214, #239, #8 ) ;
#326 = VERTEX_POINT ( 'NONE', #246 ) ;
#327 = DIRECTION ( 'NONE',  ( 0.0000000000000000000, 0.0000000000000000000, -1.000000000000000000 ) ) ;
#328 = VERTEX_POINT ( 'NONE', #120 ) ;
#329 = LINE ( 'NONE', #301, #179 ) ;
#330 = ORIENTED_EDGE ( 'NONE', *, *, #300, .F. ) ;
#331 = DIRECTION ( 'NONE',  ( 0.0000000000000000000, 0.0000000000000000000, 1.000000000000000000 ) ) ;
#332 = EDGE_LOOP ( 'NONE', ( #330, #9, #223, #212 ) ) ;
#333 = VECTOR ( 'NONE', #211, 39.37007874015748143 ) ;
#334 = VERTEX_POINT ( 'NONE', #125 ) ;
#335 = DIRECTION ( 'NONE',  ( -1.000000000000000000, 0.0000000000000000000, 0.0000000000000000000 ) ) ;
#336 = DIRECTION ( 'NONE',  ( 1.000000000000000000, 0.0000000000000000000, 0.0000000000000000000 ) ) ;
#337 = VECTOR ( 'NONE', #66, 39.37007874015748143 ) ;
#338 = CARTESIAN_POINT ( 'NONE',  ( 0.3125000000000000000, 3.827021247335478926E-17, 4.000000000000000000 ) ) ;
#339 = EDGE_CURVE ( 'NONE', #334, #328, #119, .T. ) ;
#340 = DIRECTION ( 'NONE',  ( 1.000000000000000000, 0.0000000000000000000, 0.0000000000000000000 ) ) ;
#341 = CARTESIAN_POINT ( 'NONE',  ( 0.0000000000000000000, 1.913510623667739463E-17, 0.0000000000000000000 ) ) ;
#342 =( GEOMETRIC_REPRESENTATION_CONTEXT ( 3 ) GLOBAL_UNCERTAINTY_ASSIGNED_CONTEXT ( ( #232 ) ) GLOBAL_UNIT_ASSIGNED_CONTEXT ( ( #306, #73, #274 ) ) REPRESENTATION_CONTEXT ( 'NONE', 'WORKASPACE' ) );
#343 = CARTESIAN_POINT ( 'NONE',  ( 0.0000000000000000000, 0.0000000000000000000, 0.0000000000000000000 ) ) ;
#344 = DIRECTION ( 'NONE',  ( 0.0000000000000000000, 0.0000000000000000000, 1.000000000000000000 ) ) ;
#345 = LINE ( 'NONE', #109, #86 ) ;
ENDSEC;
END-ISO-10303-21;
