ISO-10303-21;
HEADER;
FILE_DESCRIPTION (( 'STEP AP214' ),
    '1' );
FILE_NAME ('59554.STEP',
    '2023-07-24T15:48:56',
    ( '' ),
    ( '' ),
    'SwSTEP 2.0',
    'SolidWorks 2023',
    '' );
FILE_SCHEMA (( 'AUTOMOTIVE_DESIGN' ));
ENDSEC;

DATA;
#1 = FACE_OUTER_BOUND ( 'NONE', #134, .T. ) ;
#2 = PRESENTATION_STYLE_ASSIGNMENT (( #208 ) ) ;
#3 = EDGE_CURVE ( 'NONE', #45, #158, #29, .T. ) ;
#4 = CARTESIAN_POINT ( 'NONE',  ( 6.123233995736762930E-15, 75.00000000000000000, 0.000000000000000000 ) ) ;
#5 = PRODUCT_DEFINITION_CONTEXT ( 'detailed design', #279, 'design' ) ;
#6 =( GEOMETRIC_REPRESENTATION_CONTEXT ( 3 ) GLOBAL_UNCERTAINTY_ASSIGNED_CONTEXT ( ( #100 ) ) GLOBAL_UNIT_ASSIGNED_CONTEXT ( ( #62, #218, #234 ) ) REPRESENTATION_CONTEXT ( 'NONE', 'WORKASPACE' ) );
#7 = DIRECTION ( 'NONE',  ( 0.000000000000000000, 0.000000000000000000, -1.000000000000000000 ) ) ;
#8 =( LENGTH_UNIT ( ) NAMED_UNIT ( * ) SI_UNIT ( .MILLI., .METRE. ) );
#9 =( NAMED_UNIT ( * ) SI_UNIT ( $, .STERADIAN. ) SOLID_ANGLE_UNIT ( ) );
#10 = CIRCLE ( 'NONE', #68, 5.000000000000000000 ) ;
#11 = MECHANICAL_DESIGN_GEOMETRIC_PRESENTATION_REPRESENTATION (  '', ( #140 ), #212 ) ;
#12 = DIRECTION ( 'NONE',  ( 1.224646799147352961E-16, 1.000000000000000000, -0.000000000000000000 ) ) ;
#13 = ORIENTED_EDGE ( 'NONE', *, *, #210, .F. ) ;
#14 = CARTESIAN_POINT ( 'NONE',  ( 5.000000000000003553, 75.00000000000000000, 6.123233995736763324E-16 ) ) ;
#15 = EDGE_CURVE ( 'NONE', #160, #158, #109, .T. ) ;
#16 =( GEOMETRIC_REPRESENTATION_CONTEXT ( 3 ) GLOBAL_UNCERTAINTY_ASSIGNED_CONTEXT ( ( #48 ) ) GLOBAL_UNIT_ASSIGNED_CONTEXT ( ( #128, #241, #18 ) ) REPRESENTATION_CONTEXT ( 'NONE', 'WORKASPACE' ) );
#17 = DIRECTION ( 'NONE',  ( 1.000000000000000000, 0.000000000000000000, 0.000000000000000000 ) ) ;
#18 =( NAMED_UNIT ( * ) SI_UNIT ( $, .STERADIAN. ) SOLID_ANGLE_UNIT ( ) );
#19 = CIRCLE ( 'NONE', #183, 5.000000000000000000 ) ;
#20 = SURFACE_STYLE_FILL_AREA ( #201 ) ;
#21 = LINE ( 'NONE', #200, #151 ) ;
#22 = EDGE_LOOP ( 'NONE', ( #186, #13 ) ) ;
#23 = DIRECTION ( 'NONE',  ( -0.000000000000000000, -1.000000000000000000, -0.000000000000000000 ) ) ;
#24 = ORIENTED_EDGE ( 'NONE', *, *, #3, .T. ) ;
#25 = DIRECTION ( 'NONE',  ( 0.000000000000000000, 0.000000000000000000, -1.000000000000000000 ) ) ;
#26 = CYLINDRICAL_SURFACE ( 'NONE', #196, 4.999999999999997335 ) ;
#27 = PRESENTATION_STYLE_ASSIGNMENT (( #136 ) ) ;
#28 =( GEOMETRIC_REPRESENTATION_CONTEXT ( 3 ) GLOBAL_UNCERTAINTY_ASSIGNED_CONTEXT ( ( #162 ) ) GLOBAL_UNIT_ASSIGNED_CONTEXT ( ( #8, #192, #88 ) ) REPRESENTATION_CONTEXT ( 'NONE', 'WORKASPACE' ) );
#29 = CIRCLE ( 'NONE', #264, 5.000000000000000000 ) ;
#30 = PRODUCT_DEFINITION_SHAPE ( 'NONE', 'NONE',  #137 ) ;
#31 = FILL_AREA_STYLE ('',( #101 ) ) ;
#32 = SURFACE_SIDE_STYLE ('',( #228 ) ) ;
#33 = PRODUCT_RELATED_PRODUCT_CATEGORY ( 'part', '', ( #209 ) ) ;
#34 = CARTESIAN_POINT ( 'NONE',  ( 0.000000000000000000, 25.00000000000000000, 0.000000000000000000 ) ) ;
#35 = PRESENTATION_LAYER_ASSIGNMENT (  '', '', ( #103 ) ) ;
#36 = DIRECTION ( 'NONE',  ( -0.000000000000000000, -1.000000000000000000, -0.000000000000000000 ) ) ;
#37 = UNCERTAINTY_MEASURE_WITH_UNIT (LENGTH_MEASURE( 1.000000000000000082E-05 ), #76, 'distance_accuracy_value', 'NONE');
#38 = SURFACE_SIDE_STYLE ('',( #50 ) ) ;
#39 = DIRECTION ( 'NONE',  ( 1.224646799147352961E-16, 1.000000000000000000, -0.000000000000000000 ) ) ;
#40 =( GEOMETRIC_REPRESENTATION_CONTEXT ( 3 ) GLOBAL_UNCERTAINTY_ASSIGNED_CONTEXT ( ( #53 ) ) GLOBAL_UNIT_ASSIGNED_CONTEXT ( ( #104, #126, #9 ) ) REPRESENTATION_CONTEXT ( 'NONE', 'WORKASPACE' ) );
#41 = DIRECTION ( 'NONE',  ( 1.000000000000000000, -1.224646799147352961E-16, 0.000000000000000000 ) ) ;
#42 = SURFACE_STYLE_USAGE ( .BOTH. , #38 ) ;
#43 = EDGE_LOOP ( 'NONE', ( #266, #267, #67, #184 ) ) ;
#44 = AXIS2_PLACEMENT_3D ( 'NONE', #198, #285, #207 ) ;
#45 = VERTEX_POINT ( 'NONE', #265 ) ;
#46 = ADVANCED_FACE ( 'NONE', ( #115 ), #26, .T. ) ;
#47 = DIRECTION ( 'NONE',  ( -1.000000000000000000, 0.000000000000000000, 0.000000000000000000 ) ) ;
#48 = UNCERTAINTY_MEASURE_WITH_UNIT (LENGTH_MEASURE( 1.000000000000000082E-05 ), #128, 'distance_accuracy_value', 'NONE');
#49 = CARTESIAN_POINT ( 'NONE',  ( 6.123233995736762930E-15, 75.00000000000000000, 0.000000000000000000 ) ) ;
#50 = SURFACE_STYLE_FILL_AREA ( #31 ) ;
#51 = DIRECTION ( 'NONE',  ( -0.000000000000000000, -1.000000000000000000, -0.000000000000000000 ) ) ;
#52 = EDGE_CURVE ( 'NONE', #272, #64, #75, .T. ) ;
#53 = UNCERTAINTY_MEASURE_WITH_UNIT (LENGTH_MEASURE( 1.000000000000000082E-05 ), #104, 'distance_accuracy_value', 'NONE');
#54 = FILL_AREA_STYLE ('',( #122 ) ) ;
#55 = DIRECTION ( 'NONE',  ( -0.000000000000000000, -1.000000000000000000, -0.000000000000000000 ) ) ;
#56 =( LENGTH_UNIT ( ) NAMED_UNIT ( * ) SI_UNIT ( .MILLI., .METRE. ) );
#57 = COLOUR_RGB ( '',0.7921568627450980005, 0.8196078431372548767, 0.9333333333333333481 ) ;
#58 = DIRECTION ( 'NONE',  ( 1.224646799147352961E-16, 1.000000000000000000, -0.000000000000000000 ) ) ;
#59 = PLANE ( 'NONE',  #144 ) ;
#60 = CARTESIAN_POINT ( 'NONE',  ( 6.123233995736766282E-16, 0.000000000000000000, 5.000000000000000000 ) ) ;
#61 = AXIS2_PLACEMENT_3D ( 'NONE', #154, #283, #220 ) ;
#62 =( LENGTH_UNIT ( ) NAMED_UNIT ( * ) SI_UNIT ( .MILLI., .METRE. ) );
#63 = ADVANCED_FACE ( 'NONE', ( #1 ), #98, .T. ) ;
#64 = VERTEX_POINT ( 'NONE', #188 ) ;
#65 = COLOUR_RGB ( '',1.000000000000000000, 0.000000000000000000, 0.000000000000000000 ) ;
#66 = ADVANCED_FACE ( 'NONE', ( #120 ), #89, .T. ) ;
#67 = ORIENTED_EDGE ( 'NONE', *, *, #108, .F. ) ;
#68 = AXIS2_PLACEMENT_3D ( 'NONE', #34, #23, #252 ) ;
#69 = EDGE_CURVE ( 'NONE', #278, #272, #224, .T. ) ;
#70 = EDGE_LOOP ( 'NONE', ( #262, #245, #251, #149 ) ) ;
#71 = PRESENTATION_STYLE_ASSIGNMENT (( #74 ) ) ;
#72 = AXIS2_PLACEMENT_3D ( 'NONE', #147, #106, #41 ) ;
#73 = ORIENTED_EDGE ( 'NONE', *, *, #108, .T. ) ;
#74 = SURFACE_STYLE_USAGE ( .BOTH. , #32 ) ;
#75 = CIRCLE ( 'NONE', #281, 4.999999999999993783 ) ;
#76 =( LENGTH_UNIT ( ) NAMED_UNIT ( * ) SI_UNIT ( .MILLI., .METRE. ) );
#77 = ORIENTED_EDGE ( 'NONE', *, *, #282, .F. ) ;
#78 = PRESENTATION_LAYER_ASSIGNMENT (  '', '', ( #276 ) ) ;
#79 = CYLINDRICAL_SURFACE ( 'NONE', #133, 4.999999999999997335 ) ;
#80 = DIRECTION ( 'NONE',  ( -1.000000000000000000, 0.000000000000000000, 0.000000000000000000 ) ) ;
#81 = PRESENTATION_LAYER_ASSIGNMENT (  '', '', ( #204 ) ) ;
#82 = CLOSED_SHELL ( 'NONE', ( #90, #66, #63, #223 ) ) ;
#83 = EDGE_CURVE ( 'NONE', #195, #64, #21, .T. ) ;
#84 = ORIENTED_EDGE ( 'NONE', *, *, #247, .T. ) ;
#85 = CIRCLE ( 'NONE', #167, 4.999999999999993783 ) ;
#86 = VECTOR ( 'NONE', #51, 1000.000000000000000 ) ;
#87 =( GEOMETRIC_REPRESENTATION_CONTEXT ( 3 ) GLOBAL_UNCERTAINTY_ASSIGNED_CONTEXT ( ( #189 ) ) GLOBAL_UNIT_ASSIGNED_CONTEXT ( ( #121, #97, #114 ) ) REPRESENTATION_CONTEXT ( 'NONE', 'WORKASPACE' ) );
#88 =( NAMED_UNIT ( * ) SI_UNIT ( $, .STERADIAN. ) SOLID_ANGLE_UNIT ( ) );
#89 = PLANE ( 'NONE',  #61 ) ;
#90 = ADVANCED_FACE ( 'NONE', ( #286 ), #181, .T. ) ;
#91 = AXIS2_PLACEMENT_3D ( 'NONE', #277, #145, #169 ) ;
#92 = AXIS2_PLACEMENT_3D ( 'NONE', #93, #197, #17 ) ;
#93 = CARTESIAN_POINT ( 'NONE',  ( 0.000000000000000000, 0.000000000000000000, 0.000000000000000000 ) ) ;
#94 = PRESENTATION_STYLE_ASSIGNMENT (( #199 ) ) ;
#95 = SURFACE_STYLE_FILL_AREA ( #187 ) ;
#96 = CIRCLE ( 'NONE', #129, 5.000000000000000000 ) ;
#97 =( NAMED_UNIT ( * ) PLANE_ANGLE_UNIT ( ) SI_UNIT ( $, .RADIAN. ) );
#98 = CYLINDRICAL_SURFACE ( 'NONE', #44, 5.000000000000000000 ) ;
#99 = FILL_AREA_STYLE ('',( #273 ) ) ;
#100 = UNCERTAINTY_MEASURE_WITH_UNIT (LENGTH_MEASURE( 1.000000000000000082E-05 ), #62, 'distance_accuracy_value', 'NONE');
#101 = FILL_AREA_STYLE_COLOUR ( '', #249 ) ;
#102 =( NAMED_UNIT ( * ) SI_UNIT ( $, .STERADIAN. ) SOLID_ANGLE_UNIT ( ) );
#103 = STYLED_ITEM ( 'NONE', ( #143 ), #223 ) ;
#104 =( LENGTH_UNIT ( ) NAMED_UNIT ( * ) SI_UNIT ( .MILLI., .METRE. ) );
#105 = AXIS2_PLACEMENT_3D ( 'NONE', #161, #182, #190 ) ;
#106 = DIRECTION ( 'NONE',  ( -1.224646799147352961E-16, -1.000000000000000000, 0.000000000000000000 ) ) ;
#107 = CARTESIAN_POINT ( 'NONE',  ( -7.703719777548943412E-31, 25.00000000000000000, 0.000000000000000000 ) ) ;
#108 = EDGE_CURVE ( 'NONE', #64, #272, #85, .T. ) ;
#109 = LINE ( 'NONE', #229, #86 ) ;
#110 = VECTOR ( 'NONE', #36, 1000.000000000000000 ) ;
#111 = ORIENTED_EDGE ( 'NONE', *, *, #210, .T. ) ;
#112 = MANIFOLD_SOLID_BREP ( 'Revolve - Cutting Edge', #82 ) ;
#113 = EDGE_LOOP ( 'NONE', ( #148, #240 ) ) ;
#114 =( NAMED_UNIT ( * ) SI_UNIT ( $, .STERADIAN. ) SOLID_ANGLE_UNIT ( ) );
#115 = FACE_OUTER_BOUND ( 'NONE', #43, .T. ) ;
#116 = SURFACE_STYLE_FILL_AREA ( #54 ) ;
#117 = MECHANICAL_DESIGN_GEOMETRIC_PRESENTATION_REPRESENTATION (  '', ( #276 ), #16 ) ;
#118 =( NAMED_UNIT ( * ) SI_UNIT ( $, .STERADIAN. ) SOLID_ANGLE_UNIT ( ) );
#119 = SURFACE_SIDE_STYLE ('',( #95 ) ) ;
#120 = FACE_OUTER_BOUND ( 'NONE', #22, .T. ) ;
#121 =( LENGTH_UNIT ( ) NAMED_UNIT ( * ) SI_UNIT ( .MILLI., .METRE. ) );
#122 = FILL_AREA_STYLE_COLOUR ( '', #123 ) ;
#123 = COLOUR_RGB ( '',0.7921568627450980005, 0.8196078431372548767, 0.9333333333333333481 ) ;
#124 = CARTESIAN_POINT ( 'NONE',  ( -7.703719777548943412E-31, 25.00000000000000000, 0.000000000000000000 ) ) ;
#125 =( GEOMETRIC_REPRESENTATION_CONTEXT ( 3 ) GLOBAL_UNCERTAINTY_ASSIGNED_CONTEXT ( ( #269 ) ) GLOBAL_UNIT_ASSIGNED_CONTEXT ( ( #56, #256, #102 ) ) REPRESENTATION_CONTEXT ( 'NONE', 'WORKASPACE' ) );
#126 =( NAMED_UNIT ( * ) PLANE_ANGLE_UNIT ( ) SI_UNIT ( $, .RADIAN. ) );
#127 = FACE_OUTER_BOUND ( 'NONE', #113, .T. ) ;
#128 =( LENGTH_UNIT ( ) NAMED_UNIT ( * ) SI_UNIT ( .MILLI., .METRE. ) );
#129 = AXIS2_PLACEMENT_3D ( 'NONE', #107, #39, #170 ) ;
#130 = COLOUR_RGB ( '',1.000000000000000000, 0.000000000000000000, 0.000000000000000000 ) ;
#131 = ORIENTED_EDGE ( 'NONE', *, *, #69, .F. ) ;
#132 =( NAMED_UNIT ( * ) PLANE_ANGLE_UNIT ( ) SI_UNIT ( $, .RADIAN. ) );
#133 = AXIS2_PLACEMENT_3D ( 'NONE', #4, #58, #156 ) ;
#134 = EDGE_LOOP ( 'NONE', ( #77, #111, #227, #250 ) ) ;
#135 = CARTESIAN_POINT ( 'NONE',  ( 0.000000000000000000, 0.000000000000000000, -5.000000000000000000 ) ) ;
#136 = SURFACE_STYLE_USAGE ( .BOTH. , #203 ) ;
#137 = PRODUCT_DEFINITION ( 'UNKNOWN', '', #152, #5 ) ;
#138 = ORIENTED_EDGE ( 'NONE', *, *, #52, .F. ) ;
#139 = FACE_OUTER_BOUND ( 'NONE', #253, .T. ) ;
#140 = STYLED_ITEM ( 'NONE', ( #94 ), #63 ) ;
#141 = CARTESIAN_POINT ( 'NONE',  ( -5.000000000000000000, 25.00000000000000000, 0.000000000000000000 ) ) ;
#142 = ADVANCED_FACE ( 'NONE', ( #139 ), #79, .T. ) ;
#143 = PRESENTATION_STYLE_ASSIGNMENT (( #260 ) ) ;
#144 = AXIS2_PLACEMENT_3D ( 'NONE', #261, #146, #215 ) ;
#145 = DIRECTION ( 'NONE',  ( 1.224646799147352961E-16, 1.000000000000000000, -0.000000000000000000 ) ) ;
#146 = DIRECTION ( 'NONE',  ( 0.000000000000000000, -1.000000000000000000, -0.000000000000000000 ) ) ;
#147 = CARTESIAN_POINT ( 'NONE',  ( 5.000000000000000000, 75.00000000000000000, 0.000000000000000000 ) ) ;
#148 = ORIENTED_EDGE ( 'NONE', *, *, #255, .F. ) ;
#149 = ORIENTED_EDGE ( 'NONE', *, *, #15, .F. ) ;
#150 = DIRECTION ( 'NONE',  ( 1.224646799147352961E-16, 1.000000000000000000, -0.000000000000000000 ) ) ;
#151 = VECTOR ( 'NONE', #150, 1000.000000000000000 ) ;
#152 = PRODUCT_DEFINITION_FORMATION_WITH_SPECIFIED_SOURCE ( 'ANY', '', #209, .NOT_KNOWN. ) ;
#153 = CLOSED_SHELL ( 'NONE', ( #46, #216, #142, #243 ) ) ;
#154 = CARTESIAN_POINT ( 'NONE',  ( 0.000000000000000000, 25.00000000000000000, 0.000000000000000000 ) ) ;
#155 = CARTESIAN_POINT ( 'NONE',  ( 0.000000000000000000, 0.000000000000000000, 0.000000000000000000 ) ) ;
#156 = DIRECTION ( 'NONE',  ( -1.000000000000000000, 0.000000000000000000, 0.000000000000000000 ) ) ;
#157 = MECHANICAL_DESIGN_GEOMETRIC_PRESENTATION_REPRESENTATION (  '', ( #172 ), #40 ) ;
#158 = VERTEX_POINT ( 'NONE', #135 ) ;
#159 = DIRECTION ( 'NONE',  ( -0.000000000000000000, -1.000000000000000000, -0.000000000000000000 ) ) ;
#160 = VERTEX_POINT ( 'NONE', #232 ) ;
#161 = CARTESIAN_POINT ( 'NONE',  ( 0.000000000000000000, 0.000000000000000000, 0.000000000000000000 ) ) ;
#162 = UNCERTAINTY_MEASURE_WITH_UNIT (LENGTH_MEASURE( 1.000000000000000082E-05 ), #8, 'distance_accuracy_value', 'NONE');
#163 = APPLICATION_CONTEXT ( 'automotive_design' ) ;
#164 = PRESENTATION_LAYER_ASSIGNMENT (  '', '', ( #140 ) ) ;
#165 = SURFACE_STYLE_FILL_AREA ( #168 ) ;
#166 = CARTESIAN_POINT ( 'NONE',  ( 5.000000000000000000, 75.00000000000000000, 6.123233995736764310E-16 ) ) ;
#167 = AXIS2_PLACEMENT_3D ( 'NONE', #185, #254, #268 ) ;
#168 = FILL_AREA_STYLE ('',( #275 ) ) ;
#169 = DIRECTION ( 'NONE',  ( -1.000000000000000000, 1.224646799147352961E-16, 0.000000000000000000 ) ) ;
#170 = DIRECTION ( 'NONE',  ( -1.000000000000000000, 0.000000000000000000, 0.000000000000000000 ) ) ;
#171 = ORIENTED_EDGE ( 'NONE', *, *, #263, .T. ) ;
#172 = STYLED_ITEM ( 'NONE', ( #27 ), #213 ) ;
#173 = APPLICATION_PROTOCOL_DEFINITION ( 'draft international standard', 'automotive_design', 1998, #163 ) ;
#174 = DIRECTION ( 'NONE',  ( 1.224646799147352961E-16, 1.000000000000000000, -0.000000000000000000 ) ) ;
#175 = EDGE_LOOP ( 'NONE', ( #171, #24 ) ) ;
#176 = MECHANICAL_DESIGN_GEOMETRIC_PRESENTATION_REPRESENTATION (  '', ( #103 ), #6 ) ;
#177 = CIRCLE ( 'NONE', #233, 5.000000000000000000 ) ;
#178 = DIRECTION ( 'NONE',  ( 0.000000000000000000, 0.000000000000000000, -1.000000000000000000 ) ) ;
#179 = EDGE_CURVE ( 'NONE', #160, #205, #274, .T. ) ;
#180 = EDGE_LOOP ( 'NONE', ( #73, #248 ) ) ;
#181 = CYLINDRICAL_SURFACE ( 'NONE', #105, 5.000000000000000000 ) ;
#182 = DIRECTION ( 'NONE',  ( -0.000000000000000000, -1.000000000000000000, -0.000000000000000000 ) ) ;
#183 = AXIS2_PLACEMENT_3D ( 'NONE', #124, #12, #80 ) ;
#184 = ORIENTED_EDGE ( 'NONE', *, *, #83, .F. ) ;
#185 = CARTESIAN_POINT ( 'NONE',  ( 6.123233995736762930E-15, 75.00000000000000000, 0.000000000000000000 ) ) ;
#186 = ORIENTED_EDGE ( 'NONE', *, *, #179, .F. ) ;
#187 = FILL_AREA_STYLE ('',( #206 ) ) ;
#188 = CARTESIAN_POINT ( 'NONE',  ( -4.999999999999987566, 75.00000000000000000, 0.000000000000000000 ) ) ;
#189 = UNCERTAINTY_MEASURE_WITH_UNIT (LENGTH_MEASURE( 1.000000000000000082E-05 ), #121, 'distance_accuracy_value', 'NONE');
#190 = DIRECTION ( 'NONE',  ( 0.000000000000000000, 0.000000000000000000, -1.000000000000000000 ) ) ;
#191 = PRESENTATION_STYLE_ASSIGNMENT (( #42 ) ) ;
#192 =( NAMED_UNIT ( * ) PLANE_ANGLE_UNIT ( ) SI_UNIT ( $, .RADIAN. ) );
#193 = STYLED_ITEM ( 'NONE', ( #71 ), #112 ) ;
#194 = DIRECTION ( 'NONE',  ( -0.000000000000000000, -1.000000000000000000, -0.000000000000000000 ) ) ;
#195 = VERTEX_POINT ( 'NONE', #141 ) ;
#196 = AXIS2_PLACEMENT_3D ( 'NONE', #202, #246, #231 ) ;
#197 = DIRECTION ( 'NONE',  ( 0.000000000000000000, 0.000000000000000000, 1.000000000000000000 ) ) ;
#198 = CARTESIAN_POINT ( 'NONE',  ( 0.000000000000000000, 0.000000000000000000, 0.000000000000000000 ) ) ;
#199 = SURFACE_STYLE_USAGE ( .BOTH. , #287 ) ;
#200 = CARTESIAN_POINT ( 'NONE',  ( -4.999999999999991118, 75.00000000000000000, 0.000000000000000000 ) ) ;
#201 = FILL_AREA_STYLE ('',( #284 ) ) ;
#202 = CARTESIAN_POINT ( 'NONE',  ( 6.123233995736762930E-15, 75.00000000000000000, 0.000000000000000000 ) ) ;
#203 = SURFACE_SIDE_STYLE ('',( #116 ) ) ;
#204 = STYLED_ITEM ( 'NONE', ( #2 ), #90 ) ;
#205 = VERTEX_POINT ( 'NONE', #226 ) ;
#206 = FILL_AREA_STYLE_COLOUR ( '', #230 ) ;
#207 = DIRECTION ( 'NONE',  ( 0.000000000000000000, 0.000000000000000000, -1.000000000000000000 ) ) ;
#208 = SURFACE_STYLE_USAGE ( .BOTH. , #119 ) ;
#209 = PRODUCT ( '59554', '59554', '', ( #239 ) ) ;
#210 = EDGE_CURVE ( 'NONE', #205, #160, #10, .T. ) ;
#211 = CARTESIAN_POINT ( 'NONE',  ( 0.000000000000000000, 25.00000000000000000, 0.000000000000000000 ) ) ;
#212 =( GEOMETRIC_REPRESENTATION_CONTEXT ( 3 ) GLOBAL_UNCERTAINTY_ASSIGNED_CONTEXT ( ( #37 ) ) GLOBAL_UNIT_ASSIGNED_CONTEXT ( ( #76, #132, #118 ) ) REPRESENTATION_CONTEXT ( 'NONE', 'WORKASPACE' ) );
#213 = MANIFOLD_SOLID_BREP ( 'Revolve - Tool Body (Straight Shanked)', #153 ) ;
#214 = CARTESIAN_POINT ( 'NONE',  ( 0.000000000000000000, 0.000000000000000000, 0.000000000000000000 ) ) ;
#215 = DIRECTION ( 'NONE',  ( 0.000000000000000000, 0.000000000000000000, -1.000000000000000000 ) ) ;
#216 = ADVANCED_FACE ( 'NONE', ( #127 ), #288, .F. ) ;
#217 = LINE ( 'NONE', #60, #110 ) ;
#218 =( NAMED_UNIT ( * ) PLANE_ANGLE_UNIT ( ) SI_UNIT ( $, .RADIAN. ) );
#219 = ORIENTED_EDGE ( 'NONE', *, *, #83, .T. ) ;
#220 = DIRECTION ( 'NONE',  ( 0.000000000000000000, -0.000000000000000000, 1.000000000000000000 ) ) ;
#221 = APPLICATION_PROTOCOL_DEFINITION ( 'draft international standard', 'automotive_design', 1998, #279 ) ;
#222 = AXIS2_PLACEMENT_3D ( 'NONE', #211, #159, #25 ) ;
#223 = ADVANCED_FACE ( 'NONE', ( #235 ), #59, .T. ) ;
#224 = LINE ( 'NONE', #14, #237 ) ;
#225 = DIRECTION ( 'NONE',  ( 1.224646799147352961E-16, 1.000000000000000000, -0.000000000000000000 ) ) ;
#226 = CARTESIAN_POINT ( 'NONE',  ( 6.123233995736766282E-16, 25.00000000000000000, 5.000000000000000000 ) ) ;
#227 = ORIENTED_EDGE ( 'NONE', *, *, #15, .T. ) ;
#228 = SURFACE_STYLE_FILL_AREA ( #99 ) ;
#229 = CARTESIAN_POINT ( 'NONE',  ( 0.000000000000000000, 0.000000000000000000, -5.000000000000000000 ) ) ;
#230 = COLOUR_RGB ( '',1.000000000000000000, 0.000000000000000000, 0.000000000000000000 ) ;
#231 = DIRECTION ( 'NONE',  ( -1.000000000000000000, 0.000000000000000000, 0.000000000000000000 ) ) ;
#232 = CARTESIAN_POINT ( 'NONE',  ( 0.000000000000000000, 25.00000000000000000, -5.000000000000000000 ) ) ;
#233 = AXIS2_PLACEMENT_3D ( 'NONE', #214, #194, #7 ) ;
#234 =( NAMED_UNIT ( * ) SI_UNIT ( $, .STERADIAN. ) SOLID_ANGLE_UNIT ( ) );
#235 = FACE_OUTER_BOUND ( 'NONE', #175, .T. ) ;
#236 = FACE_OUTER_BOUND ( 'NONE', #180, .T. ) ;
#237 = VECTOR ( 'NONE', #174, 1000.000000000000000 ) ;
#238 = PLANE ( 'NONE',  #72 ) ;
#239 = PRODUCT_CONTEXT ( 'NONE', #163, 'mechanical' ) ;
#240 = ORIENTED_EDGE ( 'NONE', *, *, #247, .F. ) ;
#241 =( NAMED_UNIT ( * ) PLANE_ANGLE_UNIT ( ) SI_UNIT ( $, .RADIAN. ) );
#242 = MECHANICAL_DESIGN_GEOMETRIC_PRESENTATION_REPRESENTATION (  '', ( #204 ), #87 ) ;
#243 = ADVANCED_FACE ( 'NONE', ( #236 ), #238, .F. ) ;
#244 = SHAPE_DEFINITION_REPRESENTATION ( #30, #271 ) ;
#245 = ORIENTED_EDGE ( 'NONE', *, *, #282, .T. ) ;
#246 = DIRECTION ( 'NONE',  ( 1.224646799147352961E-16, 1.000000000000000000, -0.000000000000000000 ) ) ;
#247 = EDGE_CURVE ( 'NONE', #278, #195, #19, .T. ) ;
#248 = ORIENTED_EDGE ( 'NONE', *, *, #52, .T. ) ;
#249 = COLOUR_RGB ( '',1.000000000000000000, 0.000000000000000000, 0.000000000000000000 ) ;
#250 = ORIENTED_EDGE ( 'NONE', *, *, #3, .F. ) ;
#251 = ORIENTED_EDGE ( 'NONE', *, *, #263, .F. ) ;
#252 = DIRECTION ( 'NONE',  ( 0.000000000000000000, 0.000000000000000000, -1.000000000000000000 ) ) ;
#253 = EDGE_LOOP ( 'NONE', ( #131, #84, #219, #138 ) ) ;
#254 = DIRECTION ( 'NONE',  ( 1.224646799147352961E-16, 1.000000000000000000, -0.000000000000000000 ) ) ;
#255 = EDGE_CURVE ( 'NONE', #195, #278, #96, .T. ) ;
#256 =( NAMED_UNIT ( * ) PLANE_ANGLE_UNIT ( ) SI_UNIT ( $, .RADIAN. ) );
#257 = SURFACE_SIDE_STYLE ('',( #165 ) ) ;
#258 = CARTESIAN_POINT ( 'NONE',  ( 5.000000000000000000, 25.00000000000000000, 6.123233995736764310E-16 ) ) ;
#259 = MECHANICAL_DESIGN_GEOMETRIC_PRESENTATION_REPRESENTATION (  '', ( #193 ), #125 ) ;
#260 = SURFACE_STYLE_USAGE ( .BOTH. , #257 ) ;
#261 = CARTESIAN_POINT ( 'NONE',  ( 0.000000000000000000, 0.000000000000000000, 0.000000000000000000 ) ) ;
#262 = ORIENTED_EDGE ( 'NONE', *, *, #179, .T. ) ;
#263 = EDGE_CURVE ( 'NONE', #158, #45, #177, .T. ) ;
#264 = AXIS2_PLACEMENT_3D ( 'NONE', #155, #55, #178 ) ;
#265 = CARTESIAN_POINT ( 'NONE',  ( 6.123233995736766282E-16, 0.000000000000000000, 5.000000000000000000 ) ) ;
#266 = ORIENTED_EDGE ( 'NONE', *, *, #255, .T. ) ;
#267 = ORIENTED_EDGE ( 'NONE', *, *, #69, .T. ) ;
#268 = DIRECTION ( 'NONE',  ( -1.000000000000000000, 0.000000000000000000, 0.000000000000000000 ) ) ;
#269 = UNCERTAINTY_MEASURE_WITH_UNIT (LENGTH_MEASURE( 1.000000000000000082E-05 ), #56, 'distance_accuracy_value', 'NONE');
#270 = PRESENTATION_LAYER_ASSIGNMENT (  '', '', ( #193 ) ) ;
#271 = ADVANCED_BREP_SHAPE_REPRESENTATION ( '59554', ( #112, #213, #92 ), #28 ) ;
#272 = VERTEX_POINT ( 'NONE', #166 ) ;
#273 = FILL_AREA_STYLE_COLOUR ( '', #57 ) ;
#274 = CIRCLE ( 'NONE', #222, 5.000000000000000000 ) ;
#275 = FILL_AREA_STYLE_COLOUR ( '', #65 ) ;
#276 = STYLED_ITEM ( 'NONE', ( #191 ), #66 ) ;
#277 = CARTESIAN_POINT ( 'NONE',  ( 3.749399456654642377E-32, 25.00000000000000000, 0.000000000000000000 ) ) ;
#278 = VERTEX_POINT ( 'NONE', #258 ) ;
#279 = APPLICATION_CONTEXT ( 'automotive_design' ) ;
#280 = PRESENTATION_LAYER_ASSIGNMENT (  '', '', ( #172 ) ) ;
#281 = AXIS2_PLACEMENT_3D ( 'NONE', #49, #225, #47 ) ;
#282 = EDGE_CURVE ( 'NONE', #205, #45, #217, .T. ) ;
#283 = DIRECTION ( 'NONE',  ( 0.000000000000000000, 1.000000000000000000, 0.000000000000000000 ) ) ;
#284 = FILL_AREA_STYLE_COLOUR ( '', #130 ) ;
#285 = DIRECTION ( 'NONE',  ( -0.000000000000000000, -1.000000000000000000, -0.000000000000000000 ) ) ;
#286 = FACE_OUTER_BOUND ( 'NONE', #70, .T. ) ;
#287 = SURFACE_SIDE_STYLE ('',( #20 ) ) ;
#288 = PLANE ( 'NONE',  #91 ) ;
ENDSEC;
END-ISO-10303-21;
