ISO-10303-21;
HEADER;
FILE_DESCRIPTION (( 'STEP AP214' ),
    '1' );
FILE_NAME ('Micro_GEC-125-3-010X.STEP',
    '2021-09-03T17:07:11',
    ( '' ),
    ( '' ),
    'SwSTEP 2.0',
    'SolidWorks 2020',
    '' );
FILE_SCHEMA (( 'AUTOMOTIVE_DESIGN' ));
ENDSEC;

DATA;
#1 = DIRECTION ( 'NONE',  ( 1.000000000000000000, 0.0000000000000000000, 0.0000000000000000000 ) ) ;
#2 = SURFACE_STYLE_FILL_AREA ( #250 ) ;
#3 = CARTESIAN_POINT ( 'NONE',  ( -0.06250000000000002776, 0.0000000000000000000, 1.500000000000000222 ) ) ;
#4 = CLOSED_SHELL ( 'NONE', ( #305, #38, #195, #114, #181, #142, #169, #147, #260, #6, #81, #296 ) ) ;
#5 = CIRCLE ( 'NONE', #16, 0.05243750000000001882 ) ;
#6 = ADVANCED_FACE ( 'NONE', ( #110 ), #249, .T. ) ;
#7 = DIRECTION ( 'NONE',  ( 0.7071067811865462405, 8.659560562354916834E-17, -0.7071067811865486830 ) ) ;
#8 = CARTESIAN_POINT ( 'NONE',  ( 0.0000000000000000000, 0.0000000000000000000, 0.0000000000000000000 ) ) ;
#9 = APPLICATION_PROTOCOL_DEFINITION ( 'draft international standard', 'automotive_design', 1998, #313 ) ;
#10 = CYLINDRICAL_SURFACE ( 'NONE', #95, 0.06250000000000002776 ) ;
#11 = FILL_AREA_STYLE ('',( #61 ) ) ;
#12 = CIRCLE ( 'NONE', #308, 0.01000000000000000021 ) ;
#13 = EDGE_CURVE ( 'NONE', #240, #297, #232, .T. ) ;
#14 = CARTESIAN_POINT ( 'NONE',  ( -0.05243750000000001882, 6.421741653028935338E-18, 0.01000000000000000021 ) ) ;
#15 = DIRECTION ( 'NONE',  ( 0.0000000000000000000, 0.0000000000000000000, -1.000000000000000000 ) ) ;
#16 = AXIS2_PLACEMENT_3D ( 'NONE', #30, #248, #26 ) ;
#17 = ORIENTED_EDGE ( 'NONE', *, *, #266, .F. ) ;
#18 = CARTESIAN_POINT ( 'NONE',  ( -0.04750000000000064587, 0.0000000000000000000, 1.500000000000000222 ) ) ;
#19 = ORIENTED_EDGE ( 'NONE', *, *, #47, .F. ) ;
#20 = EDGE_LOOP ( 'NONE', ( #209, #159, #269, #158 ) ) ;
#21 = DIRECTION ( 'NONE',  ( 0.0000000000000000000, 0.0000000000000000000, 1.000000000000000000 ) ) ;
#22 = ORIENTED_EDGE ( 'NONE', *, *, #33, .F. ) ;
#23 = MANIFOLD_SOLID_BREP ( 'Fillet1', #4 ) ;
#24 = DIRECTION ( 'NONE',  ( 0.0000000000000000000, -1.000000000000000000, 0.0000000000000000000 ) ) ;
#25 = CYLINDRICAL_SURFACE ( 'NONE', #178, 0.06243750000000001382 ) ;
#26 = DIRECTION ( 'NONE',  ( 1.000000000000000000, 0.0000000000000000000, 0.0000000000000000000 ) ) ;
#27 = AXIS2_PLACEMENT_3D ( 'NONE', #115, #166, #197 ) ;
#28 = FACE_OUTER_BOUND ( 'NONE', #96, .T. ) ;
#29 = VECTOR ( 'NONE', #91, 39.37007874015748143 ) ;
#30 = CARTESIAN_POINT ( 'NONE',  ( 1.224646799147353770E-18, 0.0000000000000000000, 0.0000000000000000000 ) ) ;
#31 = SURFACE_STYLE_FILL_AREA ( #11 ) ;
#32 =( NAMED_UNIT ( * ) SI_UNIT ( $, .STERADIAN. ) SOLID_ANGLE_UNIT ( ) );
#33 = EDGE_CURVE ( 'NONE', #44, #315, #145, .T. ) ;
#34 = MECHANICAL_DESIGN_GEOMETRIC_PRESENTATION_REPRESENTATION (  '', ( #84 ), #262 ) ;
#35 = CARTESIAN_POINT ( 'NONE',  ( 6.123233995736768501E-17, 0.0000000000000000000, 0.5000000000000000000 ) ) ;
#36 = PLANE ( 'NONE',  #194 ) ;
#37 = CARTESIAN_POINT ( 'NONE',  ( 0.0000000000000000000, 0.0000000000000000000, 1.485000000000000764 ) ) ;
#38 = ADVANCED_FACE ( 'NONE', ( #28 ), #25, .T. ) ;
#39 = CONICAL_SURFACE ( 'NONE', #86, 0.06243750000000001382, 0.1745329251994337805 ) ;
#40 = DIRECTION ( 'NONE',  ( -1.000000000000000000, 0.0000000000000000000, 0.0000000000000000000 ) ) ;
#41 = DIRECTION ( 'NONE',  ( 0.0000000000000000000, 0.0000000000000000000, 1.000000000000000000 ) ) ;
#42 = VECTOR ( 'NONE', #174, 39.37007874015748854 ) ;
#43 = EDGE_CURVE ( 'NONE', #44, #87, #332, .T. ) ;
#44 = VERTEX_POINT ( 'NONE', #282 ) ;
#45 = DIRECTION ( 'NONE',  ( 1.224646799147353207E-16, 1.000000000000000000, -0.0000000000000000000 ) ) ;
#46 = CARTESIAN_POINT ( 'NONE',  ( 0.0000000000000000000, 0.0000000000000000000, 1.500000000000000222 ) ) ;
#47 = EDGE_CURVE ( 'NONE', #87, #237, #306, .T. ) ;
#48 = VERTEX_POINT ( 'NONE', #217 ) ;
#49 = DIRECTION ( 'NONE',  ( 0.1736481776669312749, 0.0000000000000000000, 0.9848077530122077983 ) ) ;
#50 = COLOUR_RGB ( '',0.7921568627450980005, 0.8196078431372548767, 0.9333333333333333481 ) ;
#51 = ORIENTED_EDGE ( 'NONE', *, *, #64, .T. ) ;
#52 = COLOUR_RGB ( '',0.7921568627450980005, 0.8196078431372548767, 0.9333333333333333481 ) ;
#53 = LINE ( 'NONE', #323, #63 ) ;
#54 = ORIENTED_EDGE ( 'NONE', *, *, #88, .F. ) ;
#55 = FACE_OUTER_BOUND ( 'NONE', #20, .T. ) ;
#56 = DIRECTION ( 'NONE',  ( -0.0000000000000000000, -0.0000000000000000000, -1.000000000000000000 ) ) ;
#57 =( NAMED_UNIT ( * ) SI_UNIT ( $, .STERADIAN. ) SOLID_ANGLE_UNIT ( ) );
#58 = LENGTH_MEASURE_WITH_UNIT ( LENGTH_MEASURE( 0.02539999999999999897 ), #196 );
#59 = AXIS2_PLACEMENT_3D ( 'NONE', #68, #253, #40 ) ;
#60 =( CONVERSION_BASED_UNIT ( 'INCH', #58 ) LENGTH_UNIT ( ) NAMED_UNIT ( #334 ) );
#61 = FILL_AREA_STYLE_COLOUR ( '', #52 ) ;
#62 = FACE_OUTER_BOUND ( 'NONE', #339, .T. ) ;
#63 = VECTOR ( 'NONE', #137, 39.37007874015748143 ) ;
#64 = EDGE_CURVE ( 'NONE', #290, #348, #279, .T. ) ;
#65 = DIRECTION ( 'NONE',  ( 1.000000000000000000, 0.0000000000000000000, 0.0000000000000000000 ) ) ;
#66 = EDGE_CURVE ( 'NONE', #290, #131, #98, .T. ) ;
#67 = DIMENSIONAL_EXPONENTS ( 1.000000000000000000, 0.0000000000000000000, 0.0000000000000000000, 0.0000000000000000000, 0.0000000000000000000, 0.0000000000000000000, 0.0000000000000000000 ) ;
#68 = CARTESIAN_POINT ( 'NONE',  ( 6.123233995736768501E-17, 0.0000000000000000000, 0.5000000000000000000 ) ) ;
#69 = CARTESIAN_POINT ( 'NONE',  ( -0.06243749999999995137, 7.646388452176288915E-18, 0.5000000000000000000 ) ) ;
#70 = EDGE_CURVE ( 'NONE', #48, #182, #291, .T. ) ;
#71 = EDGE_LOOP ( 'NONE', ( #341, #74, #54, #19 ) ) ;
#72 = FACE_OUTER_BOUND ( 'NONE', #346, .T. ) ;
#73 = VECTOR ( 'NONE', #132, 39.37007874015748143 ) ;
#74 = ORIENTED_EDGE ( 'NONE', *, *, #33, .T. ) ;
#75 = CARTESIAN_POINT ( 'NONE',  ( 0.06243750000000006933, 0.0000000000000000000, 0.5000000000000000000 ) ) ;
#76 = ORIENTED_EDGE ( 'NONE', *, *, #165, .T. ) ;
#77 = ORIENTED_EDGE ( 'NONE', *, *, #93, .T. ) ;
#78 = DIRECTION ( 'NONE',  ( 0.0000000000000000000, 0.0000000000000000000, 1.000000000000000000 ) ) ;
#79 = ORIENTED_EDGE ( 'NONE', *, *, #66, .T. ) ;
#80 = CIRCLE ( 'NONE', #304, 0.06243750000000001382 ) ;
#81 = ADVANCED_FACE ( 'NONE', ( #180 ), #342, .F. ) ;
#82 = DIRECTION ( 'NONE',  ( 1.000000000000000000, 0.0000000000000000000, 0.0000000000000000000 ) ) ;
#83 = DIRECTION ( 'NONE',  ( -1.000000000000000000, 0.0000000000000000000, 1.224646799147353700E-16 ) ) ;
#84 = STYLED_ITEM ( 'NONE', ( #85 ), #23 ) ;
#85 = PRESENTATION_STYLE_ASSIGNMENT (( #193 ) ) ;
#86 = AXIS2_PLACEMENT_3D ( 'NONE', #35, #148, #1 ) ;
#87 = VERTEX_POINT ( 'NONE', #18 ) ;
#88 = EDGE_CURVE ( 'NONE', #237, #315, #256, .T. ) ;
#89 = DIRECTION ( 'NONE',  ( -1.000000000000000000, 0.0000000000000000000, 0.0000000000000000000 ) ) ;
#90 = AXIS2_PLACEMENT_3D ( 'NONE', #219, #330, #139 ) ;
#91 = DIRECTION ( 'NONE',  ( -1.224646799147353700E-16, -0.0000000000000000000, -1.000000000000000000 ) ) ;
#92 = CARTESIAN_POINT ( 'NONE',  ( 0.0000000000000000000, 0.0000000000000000000, 1.500000000000000222 ) ) ;
#93 = EDGE_CURVE ( 'NONE', #48, #240, #170, .T. ) ;
#94 = PRESENTATION_LAYER_ASSIGNMENT (  '', '', ( #84 ) ) ;
#95 = AXIS2_PLACEMENT_3D ( 'NONE', #92, #203, #265 ) ;
#96 = EDGE_LOOP ( 'NONE', ( #272, #295, #161, #17 ) ) ;
#97 = EDGE_LOOP ( 'NONE', ( #138, #156, #212, #177 ) ) ;
#98 = CIRCLE ( 'NONE', #100, 0.009999999999999995004 ) ;
#99 = CARTESIAN_POINT ( 'NONE',  ( 0.06243750000000006933, 0.0000000000000000000, 0.5000000000000000000 ) ) ;
#100 = AXIS2_PLACEMENT_3D ( 'NONE', #14, #45, #283 ) ;
#101 = ORIENTED_EDGE ( 'NONE', *, *, #311, .F. ) ;
#102 = DIRECTION ( 'NONE',  ( 1.000000000000000000, 0.0000000000000000000, 0.0000000000000000000 ) ) ;
#103 = EDGE_CURVE ( 'NONE', #182, #184, #150, .T. ) ;
#104 = ORIENTED_EDGE ( 'NONE', *, *, #273, .F. ) ;
#105 = DIRECTION ( 'NONE',  ( 1.000000000000000000, 0.0000000000000000000, 0.0000000000000000000 ) ) ;
#106 = ORIENTED_EDGE ( 'NONE', *, *, #47, .T. ) ;
#107 = AXIS2_PLACEMENT_3D ( 'NONE', #294, #78, #241 ) ;
#108 = UNCERTAINTY_MEASURE_WITH_UNIT (LENGTH_MEASURE( 1.000000000000000082E-05 ), #109, 'distance_accuracy_value', 'NONE');
#109 =( CONVERSION_BASED_UNIT ( 'INCH', #245 ) LENGTH_UNIT ( ) NAMED_UNIT ( #67 ) );
#110 = FACE_OUTER_BOUND ( 'NONE', #136, .T. ) ;
#111 = PRODUCT_DEFINITION_SHAPE ( 'NONE', 'NONE',  #127 ) ;
#112 = CARTESIAN_POINT ( 'NONE',  ( -0.05243750000000001882, 7.034065052602612127E-18, 0.0000000000000000000 ) ) ;
#113 = AXIS2_PLACEMENT_3D ( 'NONE', #286, #152, #89 ) ;
#114 = ADVANCED_FACE ( 'NONE', ( #340 ), #140, .T. ) ;
#115 = CARTESIAN_POINT ( 'NONE',  ( 0.0000000000000000000, 0.0000000000000000000, 1.500000000000000222 ) ) ;
#116 = PRESENTATION_STYLE_ASSIGNMENT (( #119 ) ) ;
#117 = DIRECTION ( 'NONE',  ( 0.0000000000000000000, 0.0000000000000000000, 1.000000000000000000 ) ) ;
#118 = APPLICATION_PROTOCOL_DEFINITION ( 'draft international standard', 'automotive_design', 1998, #129 ) ;
#119 = SURFACE_STYLE_USAGE ( .BOTH. , #222 ) ;
#120 = DIRECTION ( 'NONE',  ( -1.000000000000000000, 0.0000000000000000000, 0.0000000000000000000 ) ) ;
#121 = TOROIDAL_SURFACE ( 'NONE', #329, 0.05243750000000001882, 0.01000000000000000021 ) ;
#122 = PRODUCT_RELATED_PRODUCT_CATEGORY ( 'part', '', ( #326 ) ) ;
#123 = DIRECTION ( 'NONE',  ( -1.224646799147353700E-16, -0.0000000000000000000, -1.000000000000000000 ) ) ;
#124 = CARTESIAN_POINT ( 'NONE',  ( 0.0000000000000000000, 0.0000000000000000000, 1.500000000000000222 ) ) ;
#125 = DIRECTION ( 'NONE',  ( 1.000000000000000000, 0.0000000000000000000, 0.0000000000000000000 ) ) ;
#126 = AXIS2_PLACEMENT_3D ( 'NONE', #284, #208, #335 ) ;
#127 = PRODUCT_DEFINITION ( 'UNKNOWN', '', #205, #278 ) ;
#128 = ORIENTED_EDGE ( 'NONE', *, *, #13, .T. ) ;
#129 = APPLICATION_CONTEXT ( 'automotive_design' ) ;
#130 = DIRECTION ( 'NONE',  ( 0.0000000000000000000, 0.0000000000000000000, -1.000000000000000000 ) ) ;
#131 = VERTEX_POINT ( 'NONE', #331 ) ;
#132 = DIRECTION ( 'NONE',  ( -0.0000000000000000000, -0.0000000000000000000, -1.000000000000000000 ) ) ;
#133 = CONICAL_SURFACE ( 'NONE', #244, 0.06243750000000001382, 0.1745329251994337805 ) ;
#134 = EDGE_LOOP ( 'NONE', ( #275, #246, #211, #186 ) ) ;
#135 = CARTESIAN_POINT ( 'NONE',  ( -0.06250000000000002776, 0.0000000000000000000, 1.485000000000000764 ) ) ;
#136 = EDGE_LOOP ( 'NONE', ( #238, #293, #214, #322 ) ) ;
#137 = DIRECTION ( 'NONE',  ( -0.0000000000000000000, -0.0000000000000000000, -1.000000000000000000 ) ) ;
#138 = ORIENTED_EDGE ( 'NONE', *, *, #93, .F. ) ;
#139 = DIRECTION ( 'NONE',  ( -1.000000000000000000, 0.0000000000000000000, 1.224646799147353700E-16 ) ) ;
#140 = CONICAL_SURFACE ( 'NONE', #270, 0.04750000000000064587, 0.7853981633974466137 ) ;
#141 = CARTESIAN_POINT ( 'NONE',  ( -0.06243750000000001382, 0.0000000000000000000, 7.646388452176291997E-18 ) ) ;
#142 = ADVANCED_FACE ( 'NONE', ( #318 ), #228, .T. ) ;
#143 = ORIENTED_EDGE ( 'NONE', *, *, #307, .F. ) ;
#144 = DIRECTION ( 'NONE',  ( -1.224646799147353700E-16, -0.0000000000000000000, -1.000000000000000000 ) ) ;
#145 = LINE ( 'NONE', #252, #289 ) ;
#146 = AXIS2_PLACEMENT_3D ( 'NONE', #46, #157, #102 ) ;
#147 = ADVANCED_FACE ( 'NONE', ( #258 ), #198, .T. ) ;
#148 = DIRECTION ( 'NONE',  ( 1.224646799147353700E-16, 0.0000000000000000000, 1.000000000000000000 ) ) ;
#149 = DIRECTION ( 'NONE',  ( 1.000000000000000000, 0.0000000000000000000, 0.0000000000000000000 ) ) ;
#150 = LINE ( 'NONE', #224, #29 ) ;
#151 = EDGE_CURVE ( 'NONE', #184, #131, #80, .T. ) ;
#152 = DIRECTION ( 'NONE',  ( -0.0000000000000000000, -0.0000000000000000000, -1.000000000000000000 ) ) ;
#153 =( GEOMETRIC_REPRESENTATION_CONTEXT ( 3 ) GLOBAL_UNCERTAINTY_ASSIGNED_CONTEXT ( ( #108 ) ) GLOBAL_UNIT_ASSIGNED_CONTEXT ( ( #109, #303, #57 ) ) REPRESENTATION_CONTEXT ( 'NONE', 'WORKASPACE' ) );
#154 = ORIENTED_EDGE ( 'NONE', *, *, #165, .F. ) ;
#155 = CARTESIAN_POINT ( 'NONE',  ( 6.127574818941429733E-17, 0.0000000000000000000, 0.5003544551137261154 ) ) ;
#156 = ORIENTED_EDGE ( 'NONE', *, *, #176, .F. ) ;
#157 = DIRECTION ( 'NONE',  ( 0.0000000000000000000, 0.0000000000000000000, 1.000000000000000000 ) ) ;
#158 = ORIENTED_EDGE ( 'NONE', *, *, #204, .F. ) ;
#159 = ORIENTED_EDGE ( 'NONE', *, *, #202, .F. ) ;
#160 = FACE_OUTER_BOUND ( 'NONE', #223, .T. ) ;
#161 = ORIENTED_EDGE ( 'NONE', *, *, #151, .T. ) ;
#162 = CARTESIAN_POINT ( 'NONE',  ( 0.0000000000000000000, 0.0000000000000000000, 0.0000000000000000000 ) ) ;
#163 = DIRECTION ( 'NONE',  ( 1.000000000000000000, 0.0000000000000000000, 0.0000000000000000000 ) ) ;
#164 = TOROIDAL_SURFACE ( 'NONE', #107, 0.05243750000000001882, 0.01000000000000000021 ) ;
#165 = EDGE_CURVE ( 'NONE', #315, #237, #344, .T. ) ;
#166 = DIRECTION ( 'NONE',  ( 0.0000000000000000000, 0.0000000000000000000, 1.000000000000000000 ) ) ;
#167 = AXIS2_PLACEMENT_3D ( 'NONE', #288, #41, #125 ) ;
#168 = DIRECTION ( 'NONE',  ( 1.000000000000000000, 0.0000000000000000000, 0.0000000000000000000 ) ) ;
#169 = ADVANCED_FACE ( 'NONE', ( #72 ), #36, .T. ) ;
#170 = LINE ( 'NONE', #69, #42 ) ;
#171 = EDGE_CURVE ( 'NONE', #297, #240, #179, .T. ) ;
#172 = DIRECTION ( 'NONE',  ( 0.0000000000000000000, 0.0000000000000000000, -1.000000000000000000 ) ) ;
#173 = DIMENSIONAL_EXPONENTS ( 1.000000000000000000, 0.0000000000000000000, 0.0000000000000000000, 0.0000000000000000000, 0.0000000000000000000, 0.0000000000000000000, 0.0000000000000000000 ) ;
#174 = DIRECTION ( 'NONE',  ( -0.1736481776669310528, 2.126576849575781776E-17, 0.9848077530122080203 ) ) ;
#175 = CIRCLE ( 'NONE', #146, 0.04750000000000064587 ) ;
#176 = EDGE_CURVE ( 'NONE', #182, #48, #226, .T. ) ;
#177 = ORIENTED_EDGE ( 'NONE', *, *, #171, .T. ) ;
#178 = AXIS2_PLACEMENT_3D ( 'NONE', #162, #144, #83 ) ;
#179 = CIRCLE ( 'NONE', #263, 0.06250000000000002776 ) ;
#180 = FACE_OUTER_BOUND ( 'NONE', #300, .T. ) ;
#181 = ADVANCED_FACE ( 'NONE', ( #231 ), #10, .T. ) ;
#182 = VERTEX_POINT ( 'NONE', #99 ) ;
#183 = DIRECTION ( 'NONE',  ( 0.0000000000000000000, 0.0000000000000000000, -1.000000000000000000 ) ) ;
#184 = VERTEX_POINT ( 'NONE', #210 ) ;
#185 = LINE ( 'NONE', #3, #73 ) ;
#186 = ORIENTED_EDGE ( 'NONE', *, *, #229, .F. ) ;
#187 = CARTESIAN_POINT ( 'NONE',  ( -0.06249999999999996531, 0.0000000000000000000, 0.5003544551137261154 ) ) ;
#188 = MECHANICAL_DESIGN_GEOMETRIC_PRESENTATION_REPRESENTATION (  '', ( #251 ), #351 ) ;
#189 = EDGE_LOOP ( 'NONE', ( #22, #101, #106, #154 ) ) ;
#190 =( LENGTH_UNIT ( ) NAMED_UNIT ( * ) SI_UNIT ( $, .METRE. ) );
#191 = DIRECTION ( 'NONE',  ( -1.224646799147353700E-16, -0.0000000000000000000, -1.000000000000000000 ) ) ;
#192 = DIRECTION ( 'NONE',  ( -1.224646799147353700E-16, -0.0000000000000000000, -1.000000000000000000 ) ) ;
#193 = SURFACE_STYLE_USAGE ( .BOTH. , #328 ) ;
#194 = AXIS2_PLACEMENT_3D ( 'NONE', #124, #312, #292 ) ;
#195 = ADVANCED_FACE ( 'NONE', ( #62 ), #39, .T. ) ;
#196 =( LENGTH_UNIT ( ) NAMED_UNIT ( * ) SI_UNIT ( $, .METRE. ) );
#197 = DIRECTION ( 'NONE',  ( 1.000000000000000000, 0.0000000000000000000, 0.0000000000000000000 ) ) ;
#198 = CONICAL_SURFACE ( 'NONE', #333, 0.04750000000000064587, 0.7853981633974466137 ) ;
#199 = DIRECTION ( 'NONE',  ( -1.000000000000000000, 0.0000000000000000000, 0.0000000000000000000 ) ) ;
#200 = SHAPE_DEFINITION_REPRESENTATION ( #111, #320 ) ;
#201 = DIRECTION ( 'NONE',  ( 0.0000000000000000000, 0.0000000000000000000, 1.000000000000000000 ) ) ;
#202 = EDGE_CURVE ( 'NONE', #348, #290, #5, .T. ) ;
#203 = DIRECTION ( 'NONE',  ( -0.0000000000000000000, -0.0000000000000000000, -1.000000000000000000 ) ) ;
#204 = EDGE_CURVE ( 'NONE', #131, #184, #287, .T. ) ;
#205 = PRODUCT_DEFINITION_FORMATION_WITH_SPECIFIED_SOURCE ( 'ANY', '', #326, .NOT_KNOWN. ) ;
#206 =( LENGTH_UNIT ( ) NAMED_UNIT ( * ) SI_UNIT ( $, .METRE. ) );
#207 = ORIENTED_EDGE ( 'NONE', *, *, #311, .T. ) ;
#208 = DIRECTION ( 'NONE',  ( 0.0000000000000000000, 0.0000000000000000000, -1.000000000000000000 ) ) ;
#209 = ORIENTED_EDGE ( 'NONE', *, *, #66, .F. ) ;
#210 = CARTESIAN_POINT ( 'NONE',  ( 0.06243750000000001382, 7.646388452176288915E-18, 0.01000000000000000194 ) ) ;
#211 = ORIENTED_EDGE ( 'NONE', *, *, #13, .F. ) ;
#212 = ORIENTED_EDGE ( 'NONE', *, *, #273, .T. ) ;
#213 = CARTESIAN_POINT ( 'NONE',  ( 0.06250000000000008327, 7.654042494670966789E-18, 0.5003544551137261154 ) ) ;
#214 = ORIENTED_EDGE ( 'NONE', *, *, #266, .T. ) ;
#215 = AXIS2_PLACEMENT_3D ( 'NONE', #8, #117, #314 ) ;
#216 = EDGE_CURVE ( 'NONE', #315, #297, #53, .T. ) ;
#217 = CARTESIAN_POINT ( 'NONE',  ( -0.06243749999999995137, 7.650215473423624771E-18, 0.5000000000000000000 ) ) ;
#218 = UNCERTAINTY_MEASURE_WITH_UNIT (LENGTH_MEASURE( 1.000000000000000082E-05 ), #310, 'distance_accuracy_value', 'NONE');
#219 = CARTESIAN_POINT ( 'NONE',  ( 0.0000000000000000000, 0.0000000000000000000, 0.0000000000000000000 ) ) ;
#220 = CARTESIAN_POINT ( 'NONE',  ( 6.127574818941429733E-17, 0.0000000000000000000, 0.5003544551137261154 ) ) ;
#221 = AXIS2_PLACEMENT_3D ( 'NONE', #336, #254, #236 ) ;
#222 = SURFACE_SIDE_STYLE ('',( #31 ) ) ;
#223 = EDGE_LOOP ( 'NONE', ( #230, #79, #324, #143 ) ) ;
#224 = CARTESIAN_POINT ( 'NONE',  ( 0.06243750000000001382, 7.646388452176288915E-18, -7.646388452176291997E-18 ) ) ;
#225 = VECTOR ( 'NONE', #350, 39.37007874015748854 ) ;
#226 = CIRCLE ( 'NONE', #221, 0.06243750000000001382 ) ;
#227 = CARTESIAN_POINT ( 'NONE',  ( 0.0000000000000000000, 0.0000000000000000000, 1.500000000000000222 ) ) ;
#228 = CYLINDRICAL_SURFACE ( 'NONE', #113, 0.06250000000000002776 ) ;
#229 = EDGE_CURVE ( 'NONE', #237, #240, #185, .T. ) ;
#230 = ORIENTED_EDGE ( 'NONE', *, *, #64, .F. ) ;
#231 = FACE_OUTER_BOUND ( 'NONE', #134, .T. ) ;
#232 = CIRCLE ( 'NONE', #337, 0.06250000000000002776 ) ;
#233 = VECTOR ( 'NONE', #49, 39.37007874015748143 ) ;
#234 = PRODUCT_CONTEXT ( 'NONE', #129, 'mechanical' ) ;
#235 = ORIENTED_EDGE ( 'NONE', *, *, #216, .F. ) ;
#236 = DIRECTION ( 'NONE',  ( -1.000000000000000000, 0.0000000000000000000, 0.0000000000000000000 ) ) ;
#237 = VERTEX_POINT ( 'NONE', #135 ) ;
#238 = ORIENTED_EDGE ( 'NONE', *, *, #103, .F. ) ;
#239 = CARTESIAN_POINT ( 'NONE',  ( 6.123233995736768501E-17, 0.0000000000000000000, 0.5000000000000000000 ) ) ;
#240 = VERTEX_POINT ( 'NONE', #187 ) ;
#241 = DIRECTION ( 'NONE',  ( 1.000000000000000000, 0.0000000000000000000, 0.0000000000000000000 ) ) ;
#242 = UNCERTAINTY_MEASURE_WITH_UNIT (LENGTH_MEASURE( 1.000000000000000082E-05 ), #60, 'distance_accuracy_value', 'NONE');
#243 = CARTESIAN_POINT ( 'NONE',  ( -0.04750000000000064587, 0.0000000000000000000, 1.500000000000000222 ) ) ;
#244 = AXIS2_PLACEMENT_3D ( 'NONE', #239, #347, #105 ) ;
#245 = LENGTH_MEASURE_WITH_UNIT ( LENGTH_MEASURE( 0.02539999999999999897 ), #190 );
#246 = ORIENTED_EDGE ( 'NONE', *, *, #216, .T. ) ;
#247 =( NAMED_UNIT ( * ) PLANE_ANGLE_UNIT ( ) SI_UNIT ( $, .RADIAN. ) );
#248 = DIRECTION ( 'NONE',  ( -0.0000000000000000000, -0.0000000000000000000, -1.000000000000000000 ) ) ;
#249 = CYLINDRICAL_SURFACE ( 'NONE', #90, 0.06243750000000001382 ) ;
#250 = FILL_AREA_STYLE ('',( #276 ) ) ;
#251 = STYLED_ITEM ( 'NONE', ( #116 ), #320 ) ;
#252 = CARTESIAN_POINT ( 'NONE',  ( 0.04750000000000064587, 5.817072295950006528E-18, 1.500000000000000222 ) ) ;
#253 = DIRECTION ( 'NONE',  ( -1.224646799147353700E-16, -0.0000000000000000000, -1.000000000000000000 ) ) ;
#254 = DIRECTION ( 'NONE',  ( -1.224646799147353700E-16, -0.0000000000000000000, -1.000000000000000000 ) ) ;
#255 = AXIS2_PLACEMENT_3D ( 'NONE', #302, #56, #163 ) ;
#256 = CIRCLE ( 'NONE', #126, 0.06250000000000002776 ) ;
#257 = CARTESIAN_POINT ( 'NONE',  ( 0.0000000000000000000, 0.0000000000000000000, 1.500000000000000222 ) ) ;
#258 = FACE_OUTER_BOUND ( 'NONE', #189, .T. ) ;
#259 =( NAMED_UNIT ( * ) PLANE_ANGLE_UNIT ( ) SI_UNIT ( $, .RADIAN. ) );
#260 = ADVANCED_FACE ( 'NONE', ( #271 ), #133, .T. ) ;
#261 = LENGTH_MEASURE_WITH_UNIT ( LENGTH_MEASURE( 0.02539999999999999897 ), #206 );
#262 =( GEOMETRIC_REPRESENTATION_CONTEXT ( 3 ) GLOBAL_UNCERTAINTY_ASSIGNED_CONTEXT ( ( #242 ) ) GLOBAL_UNIT_ASSIGNED_CONTEXT ( ( #60, #247, #32 ) ) REPRESENTATION_CONTEXT ( 'NONE', 'WORKASPACE' ) );
#263 = AXIS2_PLACEMENT_3D ( 'NONE', #155, #123, #168 ) ;
#264 = EDGE_LOOP ( 'NONE', ( #235, #76, #343, #317 ) ) ;
#265 = DIRECTION ( 'NONE',  ( -1.000000000000000000, 0.0000000000000000000, 0.0000000000000000000 ) ) ;
#266 = EDGE_CURVE ( 'NONE', #48, #131, #301, .T. ) ;
#267 = ORIENTED_EDGE ( 'NONE', *, *, #70, .F. ) ;
#268 = CARTESIAN_POINT ( 'NONE',  ( 0.05243750000000001882, 0.0000000000000000000, 0.01000000000000000021 ) ) ;
#269 = ORIENTED_EDGE ( 'NONE', *, *, #307, .T. ) ;
#270 = AXIS2_PLACEMENT_3D ( 'NONE', #257, #130, #120 ) ;
#271 = FACE_OUTER_BOUND ( 'NONE', #97, .T. ) ;
#272 = ORIENTED_EDGE ( 'NONE', *, *, #70, .T. ) ;
#273 = EDGE_CURVE ( 'NONE', #182, #297, #345, .T. ) ;
#274 = DIRECTION ( 'NONE',  ( 1.000000000000000000, 0.0000000000000000000, 0.0000000000000000000 ) ) ;
#275 = ORIENTED_EDGE ( 'NONE', *, *, #88, .T. ) ;
#276 = FILL_AREA_STYLE_COLOUR ( '', #50 ) ;
#277 = CARTESIAN_POINT ( 'NONE',  ( 1.224646799147353770E-18, 0.0000000000000000000, 0.01000000000000000021 ) ) ;
#278 = PRODUCT_DEFINITION_CONTEXT ( 'detailed design', #313, 'design' ) ;
#279 = CIRCLE ( 'NONE', #255, 0.05243750000000001882 ) ;
#280 = VECTOR ( 'NONE', #192, 39.37007874015748143 ) ;
#281 = CARTESIAN_POINT ( 'NONE',  ( 1.224646799147353962E-18, 0.0000000000000000000, 0.01000000000000000194 ) ) ;
#282 = CARTESIAN_POINT ( 'NONE',  ( 0.04750000000000064587, 6.735557395310483192E-18, 1.500000000000000222 ) ) ;
#283 = DIRECTION ( 'NONE',  ( -1.000000000000000000, 1.224646799147353947E-16, 0.0000000000000000000 ) ) ;
#284 = CARTESIAN_POINT ( 'NONE',  ( 0.0000000000000000000, 0.0000000000000000000, 1.485000000000000764 ) ) ;
#285 =( NAMED_UNIT ( * ) SI_UNIT ( $, .STERADIAN. ) SOLID_ANGLE_UNIT ( ) );
#286 = CARTESIAN_POINT ( 'NONE',  ( 0.0000000000000000000, 0.0000000000000000000, 1.500000000000000222 ) ) ;
#287 = CIRCLE ( 'NONE', #298, 0.06243750000000001382 ) ;
#288 = CARTESIAN_POINT ( 'NONE',  ( 0.0000000000000000000, 0.0000000000000000000, 0.0000000000000000000 ) ) ;
#289 = VECTOR ( 'NONE', #7, 39.37007874015748854 ) ;
#290 = VERTEX_POINT ( 'NONE', #112 ) ;
#291 = CIRCLE ( 'NONE', #59, 0.06243750000000001382 ) ;
#292 = DIRECTION ( 'NONE',  ( 1.000000000000000000, 0.0000000000000000000, -0.0000000000000000000 ) ) ;
#293 = ORIENTED_EDGE ( 'NONE', *, *, #176, .T. ) ;
#294 = CARTESIAN_POINT ( 'NONE',  ( 1.224646799147353770E-18, 0.0000000000000000000, 0.01000000000000000021 ) ) ;
#295 = ORIENTED_EDGE ( 'NONE', *, *, #103, .T. ) ;
#296 = ADVANCED_FACE ( 'NONE', ( #55 ), #121, .T. ) ;
#297 = VERTEX_POINT ( 'NONE', #213 ) ;
#298 = AXIS2_PLACEMENT_3D ( 'NONE', #281, #21, #274 ) ;
#299 = CARTESIAN_POINT ( 'NONE',  ( 0.06250000000000002776, 7.654042494670959086E-18, 1.485000000000000764 ) ) ;
#300 = EDGE_LOOP ( 'NONE', ( #319, #51 ) ) ;
#301 = LINE ( 'NONE', #141, #280 ) ;
#302 = CARTESIAN_POINT ( 'NONE',  ( 1.224646799147353770E-18, 0.0000000000000000000, 0.0000000000000000000 ) ) ;
#303 =( NAMED_UNIT ( * ) PLANE_ANGLE_UNIT ( ) SI_UNIT ( $, .RADIAN. ) );
#304 = AXIS2_PLACEMENT_3D ( 'NONE', #309, #201, #65 ) ;
#305 = ADVANCED_FACE ( 'NONE', ( #160 ), #164, .T. ) ;
#306 = LINE ( 'NONE', #243, #225 ) ;
#307 = EDGE_CURVE ( 'NONE', #348, #184, #12, .T. ) ;
#308 = AXIS2_PLACEMENT_3D ( 'NONE', #268, #24, #183 ) ;
#309 = CARTESIAN_POINT ( 'NONE',  ( 1.224646799147353962E-18, 0.0000000000000000000, 0.01000000000000000194 ) ) ;
#310 =( CONVERSION_BASED_UNIT ( 'INCH', #261 ) LENGTH_UNIT ( ) NAMED_UNIT ( #173 ) );
#311 = EDGE_CURVE ( 'NONE', #87, #44, #175, .T. ) ;
#312 = DIRECTION ( 'NONE',  ( 0.0000000000000000000, 0.0000000000000000000, 1.000000000000000000 ) ) ;
#313 = APPLICATION_CONTEXT ( 'automotive_design' ) ;
#314 = DIRECTION ( 'NONE',  ( 1.000000000000000000, 0.0000000000000000000, -0.0000000000000000000 ) ) ;
#315 = VERTEX_POINT ( 'NONE', #299 ) ;
#316 = AXIS2_PLACEMENT_3D ( 'NONE', #37, #15, #149 ) ;
#317 = ORIENTED_EDGE ( 'NONE', *, *, #171, .F. ) ;
#318 = FACE_OUTER_BOUND ( 'NONE', #264, .T. ) ;
#319 = ORIENTED_EDGE ( 'NONE', *, *, #202, .T. ) ;
#320 = ADVANCED_BREP_SHAPE_REPRESENTATION ( 'Micro_GEC-125-3-010X', ( #23, #167 ), #153 ) ;
#321 = ORIENTED_EDGE ( 'NONE', *, *, #43, .T. ) ;
#322 = ORIENTED_EDGE ( 'NONE', *, *, #204, .T. ) ;
#323 = CARTESIAN_POINT ( 'NONE',  ( 0.06250000000000002776, 7.654042494670959086E-18, 1.500000000000000222 ) ) ;
#324 = ORIENTED_EDGE ( 'NONE', *, *, #151, .F. ) ;
#325 = DIRECTION ( 'NONE',  ( 0.0000000000000000000, 0.0000000000000000000, 1.000000000000000000 ) ) ;
#326 = PRODUCT ( 'Micro_GEC-125-3-010X', 'Micro_GEC-125-3-010X', '', ( #234 ) ) ;
#327 = DIRECTION ( 'NONE',  ( 1.000000000000000000, 0.0000000000000000000, 0.0000000000000000000 ) ) ;
#328 = SURFACE_SIDE_STYLE ('',( #2 ) ) ;
#329 = AXIS2_PLACEMENT_3D ( 'NONE', #277, #325, #82 ) ;
#330 = DIRECTION ( 'NONE',  ( -1.224646799147353700E-16, -0.0000000000000000000, -1.000000000000000000 ) ) ;
#331 = CARTESIAN_POINT ( 'NONE',  ( -0.06243749999999999994, 0.0000000000000000000, 0.01000000000000000194 ) ) ;
#332 = CIRCLE ( 'NONE', #27, 0.04750000000000064587 ) ;
#333 = AXIS2_PLACEMENT_3D ( 'NONE', #227, #172, #199 ) ;
#334 = DIMENSIONAL_EXPONENTS ( 1.000000000000000000, 0.0000000000000000000, 0.0000000000000000000, 0.0000000000000000000, 0.0000000000000000000, 0.0000000000000000000, 0.0000000000000000000 ) ;
#335 = DIRECTION ( 'NONE',  ( 1.000000000000000000, 0.0000000000000000000, 0.0000000000000000000 ) ) ;
#336 = CARTESIAN_POINT ( 'NONE',  ( 6.123233995736768501E-17, 0.0000000000000000000, 0.5000000000000000000 ) ) ;
#337 = AXIS2_PLACEMENT_3D ( 'NONE', #220, #191, #327 ) ;
#338 = PRESENTATION_LAYER_ASSIGNMENT (  '', '', ( #251 ) ) ;
#339 = EDGE_LOOP ( 'NONE', ( #267, #77, #128, #104 ) ) ;
#340 = FACE_OUTER_BOUND ( 'NONE', #71, .T. ) ;
#341 = ORIENTED_EDGE ( 'NONE', *, *, #43, .F. ) ;
#342 = PLANE ( 'NONE',  #215 ) ;
#343 = ORIENTED_EDGE ( 'NONE', *, *, #229, .T. ) ;
#344 = CIRCLE ( 'NONE', #316, 0.06250000000000002776 ) ;
#345 = LINE ( 'NONE', #75, #233 ) ;
#346 = EDGE_LOOP ( 'NONE', ( #207, #321 ) ) ;
#347 = DIRECTION ( 'NONE',  ( 1.224646799147353700E-16, 0.0000000000000000000, 1.000000000000000000 ) ) ;
#348 = VERTEX_POINT ( 'NONE', #349 ) ;
#349 = CARTESIAN_POINT ( 'NONE',  ( 0.05243750000000001882, 0.0000000000000000000, 0.0000000000000000000 ) ) ;
#350 = DIRECTION ( 'NONE',  ( -0.7071067811865462405, 0.0000000000000000000, -0.7071067811865486830 ) ) ;
#351 =( GEOMETRIC_REPRESENTATION_CONTEXT ( 3 ) GLOBAL_UNCERTAINTY_ASSIGNED_CONTEXT ( ( #218 ) ) GLOBAL_UNIT_ASSIGNED_CONTEXT ( ( #310, #259, #285 ) ) REPRESENTATION_CONTEXT ( 'NONE', 'WORKASPACE' ) );
ENDSEC;
END-ISO-10303-21;
