ISO-10303-21;
HEADER;
FILE_DESCRIPTION (( 'STEP AP214' ),
    '1' );
FILE_NAME ('Micro_RMEM-017-2X.STEP',
    '2021-09-02T00:14:02',
    ( '' ),
    ( '' ),
    'SwSTEP 2.0',
    'SolidWorks 2020',
    '' );
FILE_SCHEMA (( 'AUTOMOTIVE_DESIGN' ));
ENDSEC;

DATA;
#1 = VERTEX_POINT ( 'NONE', #246 ) ;
#2 =( GEOMETRIC_REPRESENTATION_CONTEXT ( 3 ) GLOBAL_UNCERTAINTY_ASSIGNED_CONTEXT ( ( #282 ) ) GLOBAL_UNIT_ASSIGNED_CONTEXT ( ( #297, #186, #272 ) ) REPRESENTATION_CONTEXT ( 'NONE', 'WORKASPACE' ) );
#3 = DIRECTION ( 'NONE',  ( -0.7071067811865482389, 0.0000000000000000000, -0.7071067811865469066 ) ) ;
#4 = FILL_AREA_STYLE_COLOUR ( '', #10 ) ;
#5 = CARTESIAN_POINT ( 'NONE',  ( -0.04405499999999973326, 0.0000000000000000000, 1.496062999999999921 ) ) ;
#6 = LINE ( 'NONE', #105, #182 ) ;
#7 = CYLINDRICAL_SURFACE ( 'NONE', #67, 0.05905500000000000332 ) ;
#8 = LENGTH_MEASURE_WITH_UNIT ( LENGTH_MEASURE( 0.02539999999999999897 ), #15 );
#9 = PLANE ( 'NONE',  #54 ) ;
#10 = COLOUR_RGB ( '',0.7921568627450980005, 0.8196078431372548767, 0.9333333333333333481 ) ;
#11 =( GEOMETRIC_REPRESENTATION_CONTEXT ( 3 ) GLOBAL_UNCERTAINTY_ASSIGNED_CONTEXT ( ( #147 ) ) GLOBAL_UNIT_ASSIGNED_CONTEXT ( ( #256, #215, #116 ) ) REPRESENTATION_CONTEXT ( 'NONE', 'WORKASPACE' ) );
#12 = CLOSED_SHELL ( 'NONE', ( #214, #218, #133, #17, #77, #179, #115, #280, #65, #160 ) ) ;
#13 = LINE ( 'NONE', #226, #265 ) ;
#14 = EDGE_CURVE ( 'NONE', #142, #216, #30, .T. ) ;
#15 =( LENGTH_UNIT ( ) NAMED_UNIT ( * ) SI_UNIT ( $, .METRE. ) );
#16 = AXIS2_PLACEMENT_3D ( 'NONE', #60, #155, #270 ) ;
#17 = ADVANCED_FACE ( 'NONE', ( #267 ), #196, .T. ) ;
#18 = ORIENTED_EDGE ( 'NONE', *, *, #153, .T. ) ;
#19 = PRODUCT_CONTEXT ( 'NONE', #87, 'mechanical' ) ;
#20 = VERTEX_POINT ( 'NONE', #29 ) ;
#21 = ORIENTED_EDGE ( 'NONE', *, *, #34, .F. ) ;
#22 = MECHANICAL_DESIGN_GEOMETRIC_PRESENTATION_REPRESENTATION (  '', ( #187 ), #295 ) ;
#23 = EDGE_CURVE ( 'NONE', #95, #142, #227, .T. ) ;
#24 = CONICAL_SURFACE ( 'NONE', #232, 0.03343103549999999757, 0.1745329251994338915 ) ;
#25 = EDGE_LOOP ( 'NONE', ( #100, #21, #257, #235 ) ) ;
#26 = LINE ( 'NONE', #51, #166 ) ;
#27 = AXIS2_PLACEMENT_3D ( 'NONE', #263, #81, #262 ) ;
#28 = AXIS2_PLACEMENT_3D ( 'NONE', #243, #205, #154 ) ;
#29 = CARTESIAN_POINT ( 'NONE',  ( -0.04405499999999973326, 0.0000000000000000000, 1.496062999999999921 ) ) ;
#30 = LINE ( 'NONE', #78, #162 ) ;
#31 = CARTESIAN_POINT ( 'NONE',  ( 0.04405499999999973326, 5.395181473643630390E-18, 1.496062999999999921 ) ) ;
#32 = SURFACE_STYLE_FILL_AREA ( #195 ) ;
#33 = DIMENSIONAL_EXPONENTS ( 1.000000000000000000, 0.0000000000000000000, 0.0000000000000000000, 0.0000000000000000000, 0.0000000000000000000, 0.0000000000000000000, 0.0000000000000000000 ) ;
#34 = EDGE_CURVE ( 'NONE', #142, #95, #252, .T. ) ;
#35 = CARTESIAN_POINT ( 'NONE',  ( -0.05905499999999996169, 0.0000000000000000000, 0.3461077240153788148 ) ) ;
#36 = DIRECTION ( 'NONE',  ( -1.000000000000000000, 0.0000000000000000000, 1.224646799147353207E-16 ) ) ;
#37 = EDGE_CURVE ( 'NONE', #189, #216, #26, .T. ) ;
#38 = CARTESIAN_POINT ( 'NONE',  ( 0.03343103549999999757, 4.094121061725653542E-18, -4.094121061725653542E-18 ) ) ;
#39 = AXIS2_PLACEMENT_3D ( 'NONE', #207, #269, #41 ) ;
#40 = CIRCLE ( 'NONE', #213, 0.05905500000000000332 ) ;
#41 = DIRECTION ( 'NONE',  ( 1.000000000000000000, 0.0000000000000000000, 0.0000000000000000000 ) ) ;
#42 = DIRECTION ( 'NONE',  ( 1.000000000000000000, 0.0000000000000000000, -0.0000000000000000000 ) ) ;
#43 =( LENGTH_UNIT ( ) NAMED_UNIT ( * ) SI_UNIT ( $, .METRE. ) );
#44 = ORIENTED_EDGE ( 'NONE', *, *, #74, .T. ) ;
#45 = CARTESIAN_POINT ( 'NONE',  ( 0.0000000000000000000, 0.0000000000000000000, 0.0000000000000000000 ) ) ;
#46 = EDGE_LOOP ( 'NONE', ( #299, #18 ) ) ;
#47 = DIRECTION ( 'NONE',  ( 1.224646799147353207E-16, 0.0000000000000000000, 1.000000000000000000 ) ) ;
#48 = ORIENTED_EDGE ( 'NONE', *, *, #150, .T. ) ;
#49 = CIRCLE ( 'NONE', #80, 0.05905500000000000332 ) ;
#50 = EDGE_LOOP ( 'NONE', ( #143, #298, #121, #277 ) ) ;
#51 = CARTESIAN_POINT ( 'NONE',  ( 0.05905500000000000332, 7.232151672364695422E-18, 1.496062999999999921 ) ) ;
#52 = FACE_OUTER_BOUND ( 'NONE', #192, .T. ) ;
#53 = AXIS2_PLACEMENT_3D ( 'NONE', #132, #109, #204 ) ;
#54 = AXIS2_PLACEMENT_3D ( 'NONE', #111, #289, #42 ) ;
#55 = CYLINDRICAL_SURFACE ( 'NONE', #119, 0.03343103549999999757 ) ;
#56 = PRODUCT_DEFINITION_CONTEXT ( 'detailed design', #135, 'design' ) ;
#57 = FACE_OUTER_BOUND ( 'NONE', #165, .T. ) ;
#58 = DIRECTION ( 'NONE',  ( -0.0000000000000000000, -0.0000000000000000000, -1.000000000000000000 ) ) ;
#59 = MECHANICAL_DESIGN_GEOMETRIC_PRESENTATION_REPRESENTATION (  '', ( #131 ), #2 ) ;
#60 = CARTESIAN_POINT ( 'NONE',  ( 2.458931568603996074E-17, 0.0000000000000000000, 0.2007869999999999933 ) ) ;
#61 = EDGE_CURVE ( 'NONE', #189, #144, #49, .T. ) ;
#62 =( CONVERSION_BASED_UNIT ( 'INCH', #8 ) LENGTH_UNIT ( ) NAMED_UNIT ( #180 ) );
#63 = VECTOR ( 'NONE', #157, 39.37007874015747433 ) ;
#64 = CARTESIAN_POINT ( 'NONE',  ( 5.013852253564084895E-34, 0.0000000000000000000, 4.094121061725653542E-18 ) ) ;
#65 = ADVANCED_FACE ( 'NONE', ( #122 ), #55, .T. ) ;
#66 = LENGTH_MEASURE_WITH_UNIT ( LENGTH_MEASURE( 0.02539999999999999897 ), #141 );
#67 = AXIS2_PLACEMENT_3D ( 'NONE', #148, #220, #103 ) ;
#68 = EDGE_LOOP ( 'NONE', ( #114, #261, #117, #101 ) ) ;
#69 = CIRCLE ( 'NONE', #39, 0.04405499999999973326 ) ;
#70 = SURFACE_STYLE_FILL_AREA ( #208 ) ;
#71 = ORIENTED_EDGE ( 'NONE', *, *, #23, .T. ) ;
#72 = ORIENTED_EDGE ( 'NONE', *, *, #37, .F. ) ;
#73 = ORIENTED_EDGE ( 'NONE', *, *, #23, .F. ) ;
#74 = EDGE_CURVE ( 'NONE', #20, #144, #279, .T. ) ;
#75 = CONICAL_SURFACE ( 'NONE', #16, 0.03343103549999999757, 0.1745329251994338915 ) ;
#76 = VERTEX_POINT ( 'NONE', #79 ) ;
#77 = ADVANCED_FACE ( 'NONE', ( #57 ), #7, .T. ) ;
#78 = CARTESIAN_POINT ( 'NONE',  ( 0.03343103550000002533, 0.0000000000000000000, 0.2007869999999999933 ) ) ;
#79 = CARTESIAN_POINT ( 'NONE',  ( 0.03343103549999999757, 4.094121061725653542E-18, 0.0000000000000000000 ) ) ;
#80 = AXIS2_PLACEMENT_3D ( 'NONE', #200, #168, #266 ) ;
#81 = DIRECTION ( 'NONE',  ( -0.0000000000000000000, -0.0000000000000000000, -1.000000000000000000 ) ) ;
#82 = CARTESIAN_POINT ( 'NONE',  ( -0.03343103549999996982, 5.663136367045173712E-18, 0.2007869999999999933 ) ) ;
#83 = DIRECTION ( 'NONE',  ( 0.0000000000000000000, 0.0000000000000000000, 1.000000000000000000 ) ) ;
#84 = CARTESIAN_POINT ( 'NONE',  ( 0.03343103550000002533, 0.0000000000000000000, 0.2007869999999999933 ) ) ;
#85 = DIRECTION ( 'NONE',  ( 0.0000000000000000000, 0.0000000000000000000, 1.000000000000000000 ) ) ;
#86 = FACE_OUTER_BOUND ( 'NONE', #209, .T. ) ;
#87 = APPLICATION_CONTEXT ( 'automotive_design' ) ;
#88 = CARTESIAN_POINT ( 'NONE',  ( -0.05905500000000000332, 0.0000000000000000000, 1.481062999999999574 ) ) ;
#89 = AXIS2_PLACEMENT_3D ( 'NONE', #129, #83, #108 ) ;
#90 = ADVANCED_BREP_SHAPE_REPRESENTATION ( 'Micro_RMEM-017-2X', ( #138, #237 ), #11 ) ;
#91 = EDGE_CURVE ( 'NONE', #144, #189, #284, .T. ) ;
#92 = SHAPE_DEFINITION_REPRESENTATION ( #158, #90 ) ;
#93 = ORIENTED_EDGE ( 'NONE', *, *, #184, .T. ) ;
#94 = SURFACE_SIDE_STYLE ('',( #70 ) ) ;
#95 = VERTEX_POINT ( 'NONE', #82 ) ;
#96 = AXIS2_PLACEMENT_3D ( 'NONE', #64, #250, #36 ) ;
#97 = VECTOR ( 'NONE', #229, 39.37007874015748143 ) ;
#98 = EDGE_CURVE ( 'NONE', #144, #167, #6, .T. ) ;
#99 = LENGTH_MEASURE_WITH_UNIT ( LENGTH_MEASURE( 0.02539999999999999897 ), #43 );
#100 = ORIENTED_EDGE ( 'NONE', *, *, #249, .F. ) ;
#101 = ORIENTED_EDGE ( 'NONE', *, *, #74, .F. ) ;
#102 = PRODUCT_RELATED_PRODUCT_CATEGORY ( 'part', '', ( #140 ) ) ;
#103 = DIRECTION ( 'NONE',  ( -1.000000000000000000, 0.0000000000000000000, 0.0000000000000000000 ) ) ;
#104 = SURFACE_STYLE_USAGE ( .BOTH. , #223 ) ;
#105 = CARTESIAN_POINT ( 'NONE',  ( -0.05905500000000000332, 0.0000000000000000000, 1.496062999999999921 ) ) ;
#106 = AXIS2_PLACEMENT_3D ( 'NONE', #255, #85, #188 ) ;
#107 = FACE_OUTER_BOUND ( 'NONE', #68, .T. ) ;
#108 = DIRECTION ( 'NONE',  ( 1.000000000000000000, 0.0000000000000000000, -0.0000000000000000000 ) ) ;
#109 = DIRECTION ( 'NONE',  ( -1.224646799147353207E-16, -0.0000000000000000000, -1.000000000000000000 ) ) ;
#110 =( NAMED_UNIT ( * ) PLANE_ANGLE_UNIT ( ) SI_UNIT ( $, .RADIAN. ) );
#111 = CARTESIAN_POINT ( 'NONE',  ( 0.0000000000000000000, 0.0000000000000000000, 1.496062999999999921 ) ) ;
#112 = DIRECTION ( 'NONE',  ( -1.224646799147353207E-16, -0.0000000000000000000, -1.000000000000000000 ) ) ;
#113 = DIRECTION ( 'NONE',  ( 1.000000000000000000, 0.0000000000000000000, 0.0000000000000000000 ) ) ;
#114 = ORIENTED_EDGE ( 'NONE', *, *, #153, .F. ) ;
#115 = ADVANCED_FACE ( 'NONE', ( #52 ), #130, .T. ) ;
#116 =( NAMED_UNIT ( * ) SI_UNIT ( $, .STERADIAN. ) SOLID_ANGLE_UNIT ( ) );
#117 = ORIENTED_EDGE ( 'NONE', *, *, #91, .F. ) ;
#118 = CIRCLE ( 'NONE', #106, 0.04405499999999973326 ) ;
#119 = AXIS2_PLACEMENT_3D ( 'NONE', #126, #217, #174 ) ;
#120 = ORIENTED_EDGE ( 'NONE', *, *, #91, .T. ) ;
#121 = ORIENTED_EDGE ( 'NONE', *, *, #178, .T. ) ;
#122 = FACE_OUTER_BOUND ( 'NONE', #50, .T. ) ;
#123 = DIRECTION ( 'NONE',  ( -1.000000000000000000, 0.0000000000000000000, 0.0000000000000000000 ) ) ;
#124 = EDGE_CURVE ( 'NONE', #1, #189, #285, .T. ) ;
#125 = ORIENTED_EDGE ( 'NONE', *, *, #239, .T. ) ;
#126 = CARTESIAN_POINT ( 'NONE',  ( 0.0000000000000000000, 0.0000000000000000000, 0.0000000000000000000 ) ) ;
#127 = DIRECTION ( 'NONE',  ( -1.000000000000000000, 0.0000000000000000000, 0.0000000000000000000 ) ) ;
#128 = DIRECTION ( 'NONE',  ( -1.224646799147353207E-16, -0.0000000000000000000, -1.000000000000000000 ) ) ;
#129 = CARTESIAN_POINT ( 'NONE',  ( 0.0000000000000000000, 0.0000000000000000000, 0.0000000000000000000 ) ) ;
#130 = CONICAL_SURFACE ( 'NONE', #172, 0.04405499999999973326, 0.7853981633974491672 ) ;
#131 = STYLED_ITEM ( 'NONE', ( #164 ), #90 ) ;
#132 = CARTESIAN_POINT ( 'NONE',  ( 5.013852253564084895E-34, 0.0000000000000000000, 4.094121061725653542E-18 ) ) ;
#133 = ADVANCED_FACE ( 'NONE', ( #107 ), #190, .T. ) ;
#134 = CARTESIAN_POINT ( 'NONE',  ( -0.03343103549999999757, 0.0000000000000000000, 8.188242123451307083E-18 ) ) ;
#135 = APPLICATION_CONTEXT ( 'automotive_design' ) ;
#136 = PLANE ( 'NONE',  #89 ) ;
#137 = ORIENTED_EDGE ( 'NONE', *, *, #150, .F. ) ;
#138 = MANIFOLD_SOLID_BREP ( 'Cut-Revolve1', #12 ) ;
#139 = ORIENTED_EDGE ( 'NONE', *, *, #98, .T. ) ;
#140 = PRODUCT ( 'Micro_RMEM-017-2X', 'Micro_RMEM-017-2X', '', ( #19 ) ) ;
#141 =( LENGTH_UNIT ( ) NAMED_UNIT ( * ) SI_UNIT ( $, .METRE. ) );
#142 = VERTEX_POINT ( 'NONE', #84 ) ;
#143 = ORIENTED_EDGE ( 'NONE', *, *, #184, .F. ) ;
#144 = VERTEX_POINT ( 'NONE', #88 ) ;
#145 = DIRECTION ( 'NONE',  ( -0.0000000000000000000, -0.0000000000000000000, -1.000000000000000000 ) ) ;
#146 = DIRECTION ( 'NONE',  ( 0.0000000000000000000, 0.0000000000000000000, -1.000000000000000000 ) ) ;
#147 = UNCERTAINTY_MEASURE_WITH_UNIT (LENGTH_MEASURE( 1.000000000000000082E-05 ), #256, 'distance_accuracy_value', 'NONE');
#148 = CARTESIAN_POINT ( 'NONE',  ( 0.0000000000000000000, 0.0000000000000000000, 1.496062999999999921 ) ) ;
#149 = CARTESIAN_POINT ( 'NONE',  ( 0.0000000000000000000, 0.0000000000000000000, 1.481062999999999574 ) ) ;
#150 = EDGE_CURVE ( 'NONE', #167, #216, #236, .T. ) ;
#151 = DIRECTION ( 'NONE',  ( -1.224646799147353207E-16, -0.0000000000000000000, -1.000000000000000000 ) ) ;
#152 = CIRCLE ( 'NONE', #53, 0.03343103549999999757 ) ;
#153 = EDGE_CURVE ( 'NONE', #1, #20, #69, .T. ) ;
#154 = DIRECTION ( 'NONE',  ( 1.000000000000000000, 0.0000000000000000000, 0.0000000000000000000 ) ) ;
#155 = DIRECTION ( 'NONE',  ( 1.224646799147353207E-16, 0.0000000000000000000, 1.000000000000000000 ) ) ;
#156 =( NAMED_UNIT ( * ) SI_UNIT ( $, .STERADIAN. ) SOLID_ANGLE_UNIT ( ) );
#157 = DIRECTION ( 'NONE',  ( -0.1736481776669311916, 2.126576849575783316E-17, 0.9848077530122080203 ) ) ;
#158 = PRODUCT_DEFINITION_SHAPE ( 'NONE', 'NONE',  #170 ) ;
#159 = CARTESIAN_POINT ( 'NONE',  ( 2.458931568603996074E-17, 0.0000000000000000000, 0.2007869999999999933 ) ) ;
#160 = ADVANCED_FACE ( 'NONE', ( #231 ), #136, .F. ) ;
#161 = AXIS2_PLACEMENT_3D ( 'NONE', #149, #283, #175 ) ;
#162 = VECTOR ( 'NONE', #286, 39.37007874015748143 ) ;
#163 = ORIENTED_EDGE ( 'NONE', *, *, #61, .F. ) ;
#164 = PRESENTATION_STYLE_ASSIGNMENT (( #185 ) ) ;
#165 = EDGE_LOOP ( 'NONE', ( #72, #211, #139, #260 ) ) ;
#166 = VECTOR ( 'NONE', #145, 39.37007874015748143 ) ;
#167 = VERTEX_POINT ( 'NONE', #35 ) ;
#168 = DIRECTION ( 'NONE',  ( 0.0000000000000000000, 0.0000000000000000000, -1.000000000000000000 ) ) ;
#169 = DIRECTION ( 'NONE',  ( -1.224646799147353207E-16, -0.0000000000000000000, -1.000000000000000000 ) ) ;
#170 = PRODUCT_DEFINITION ( 'UNKNOWN', '', #242, #56 ) ;
#171 = DIRECTION ( 'NONE',  ( -1.000000000000000000, 0.0000000000000000000, 0.0000000000000000000 ) ) ;
#172 = AXIS2_PLACEMENT_3D ( 'NONE', #245, #146, #171 ) ;
#173 = COLOUR_RGB ( '',0.7921568627450980005, 0.8196078431372548767, 0.9333333333333333481 ) ;
#174 = DIRECTION ( 'NONE',  ( -1.000000000000000000, 0.0000000000000000000, 1.224646799147353207E-16 ) ) ;
#175 = DIRECTION ( 'NONE',  ( 1.000000000000000000, 0.0000000000000000000, 0.0000000000000000000 ) ) ;
#176 = DIMENSIONAL_EXPONENTS ( 1.000000000000000000, 0.0000000000000000000, 0.0000000000000000000, 0.0000000000000000000, 0.0000000000000000000, 0.0000000000000000000, 0.0000000000000000000 ) ;
#177 = DIRECTION ( 'NONE',  ( -1.000000000000000000, 0.0000000000000000000, 1.224646799147353207E-16 ) ) ;
#178 = EDGE_CURVE ( 'NONE', #95, #238, #13, .T. ) ;
#179 = ADVANCED_FACE ( 'NONE', ( #251 ), #9, .T. ) ;
#180 = DIMENSIONAL_EXPONENTS ( 1.000000000000000000, 0.0000000000000000000, 0.0000000000000000000, 0.0000000000000000000, 0.0000000000000000000, 0.0000000000000000000, 0.0000000000000000000 ) ;
#181 = LINE ( 'NONE', #38, #97 ) ;
#182 = VECTOR ( 'NONE', #58, 39.37007874015748143 ) ;
#183 = CYLINDRICAL_SURFACE ( 'NONE', #228, 0.03343103549999999757 ) ;
#184 = EDGE_CURVE ( 'NONE', #142, #76, #181, .T. ) ;
#185 = SURFACE_STYLE_USAGE ( .BOTH. , #94 ) ;
#186 =( NAMED_UNIT ( * ) PLANE_ANGLE_UNIT ( ) SI_UNIT ( $, .RADIAN. ) );
#187 = STYLED_ITEM ( 'NONE', ( #197 ), #138 ) ;
#188 = DIRECTION ( 'NONE',  ( 1.000000000000000000, 0.0000000000000000000, 0.0000000000000000000 ) ) ;
#189 = VERTEX_POINT ( 'NONE', #248 ) ;
#190 = CONICAL_SURFACE ( 'NONE', #290, 0.04405499999999973326, 0.7853981633974491672 ) ;
#191 = APPLICATION_PROTOCOL_DEFINITION ( 'draft international standard', 'automotive_design', 1998, #87 ) ;
#192 = EDGE_LOOP ( 'NONE', ( #258, #259, #44, #163 ) ) ;
#193 = EDGE_LOOP ( 'NONE', ( #120, #275, #137, #194 ) ) ;
#194 = ORIENTED_EDGE ( 'NONE', *, *, #98, .F. ) ;
#195 = FILL_AREA_STYLE ('',( #4 ) ) ;
#196 = CYLINDRICAL_SURFACE ( 'NONE', #27, 0.05905500000000000332 ) ;
#197 = PRESENTATION_STYLE_ASSIGNMENT (( #104 ) ) ;
#198 = AXIS2_PLACEMENT_3D ( 'NONE', #219, #169, #281 ) ;
#199 = DIRECTION ( 'NONE',  ( 0.0000000000000000000, 0.0000000000000000000, -1.000000000000000000 ) ) ;
#200 = CARTESIAN_POINT ( 'NONE',  ( 0.0000000000000000000, 0.0000000000000000000, 1.481062999999999574 ) ) ;
#201 = EDGE_CURVE ( 'NONE', #216, #167, #40, .T. ) ;
#202 = CARTESIAN_POINT ( 'NONE',  ( 4.238597163756091761E-17, 0.0000000000000000000, 0.3461077240153788148 ) ) ;
#203 = AXIS2_PLACEMENT_3D ( 'NONE', #241, #151, #123 ) ;
#204 = DIRECTION ( 'NONE',  ( -1.000000000000000000, 0.0000000000000000000, 1.224646799147353207E-16 ) ) ;
#205 = DIRECTION ( 'NONE',  ( -1.224646799147353207E-16, -0.0000000000000000000, -1.000000000000000000 ) ) ;
#206 = DIRECTION ( 'NONE',  ( -1.224646799147353207E-16, -0.0000000000000000000, -1.000000000000000000 ) ) ;
#207 = CARTESIAN_POINT ( 'NONE',  ( 0.0000000000000000000, 0.0000000000000000000, 1.496062999999999921 ) ) ;
#208 = FILL_AREA_STYLE ('',( #294 ) ) ;
#209 = EDGE_LOOP ( 'NONE', ( #71, #93, #278, #293 ) ) ;
#210 = DIRECTION ( 'NONE',  ( 1.000000000000000000, 0.0000000000000000000, 0.0000000000000000000 ) ) ;
#211 = ORIENTED_EDGE ( 'NONE', *, *, #61, .T. ) ;
#212 = EDGE_LOOP ( 'NONE', ( #73, #276, #48, #273 ) ) ;
#213 = AXIS2_PLACEMENT_3D ( 'NONE', #202, #128, #224 ) ;
#214 = ADVANCED_FACE ( 'NONE', ( #86 ), #183, .T. ) ;
#215 =( NAMED_UNIT ( * ) PLANE_ANGLE_UNIT ( ) SI_UNIT ( $, .RADIAN. ) );
#216 = VERTEX_POINT ( 'NONE', #268 ) ;
#217 = DIRECTION ( 'NONE',  ( -1.224646799147353207E-16, -0.0000000000000000000, -1.000000000000000000 ) ) ;
#218 = ADVANCED_FACE ( 'NONE', ( #254 ), #75, .T. ) ;
#219 = CARTESIAN_POINT ( 'NONE',  ( 2.458931568603996074E-17, 0.0000000000000000000, 0.2007869999999999933 ) ) ;
#220 = DIRECTION ( 'NONE',  ( -0.0000000000000000000, -0.0000000000000000000, -1.000000000000000000 ) ) ;
#221 = DIRECTION ( 'NONE',  ( 0.7071067811865482389, 8.659560562354941486E-17, -0.7071067811865469066 ) ) ;
#222 = PRESENTATION_LAYER_ASSIGNMENT (  '', '', ( #187 ) ) ;
#223 = SURFACE_SIDE_STYLE ('',( #32 ) ) ;
#224 = DIRECTION ( 'NONE',  ( 1.000000000000000000, 0.0000000000000000000, 0.0000000000000000000 ) ) ;
#225 = EDGE_CURVE ( 'NONE', #238, #76, #253, .T. ) ;
#226 = CARTESIAN_POINT ( 'NONE',  ( -0.03343103549999999757, 0.0000000000000000000, 4.094121061725653542E-18 ) ) ;
#227 = CIRCLE ( 'NONE', #203, 0.03343103549999999757 ) ;
#228 = AXIS2_PLACEMENT_3D ( 'NONE', #287, #206, #177 ) ;
#229 = DIRECTION ( 'NONE',  ( -1.224646799147353207E-16, -0.0000000000000000000, -1.000000000000000000 ) ) ;
#230 = CARTESIAN_POINT ( 'NONE',  ( -0.03343103549999996982, 4.094121061725653542E-18, 0.2007869999999999933 ) ) ;
#231 = FACE_OUTER_BOUND ( 'NONE', #233, .T. ) ;
#232 = AXIS2_PLACEMENT_3D ( 'NONE', #159, #47, #113 ) ;
#233 = EDGE_LOOP ( 'NONE', ( #240, #125 ) ) ;
#234 = DIRECTION ( 'NONE',  ( 0.0000000000000000000, 0.0000000000000000000, 1.000000000000000000 ) ) ;
#235 = ORIENTED_EDGE ( 'NONE', *, *, #201, .T. ) ;
#236 = CIRCLE ( 'NONE', #28, 0.05905500000000000332 ) ;
#237 = AXIS2_PLACEMENT_3D ( 'NONE', #45, #234, #210 ) ;
#238 = VERTEX_POINT ( 'NONE', #134 ) ;
#239 = EDGE_CURVE ( 'NONE', #76, #238, #152, .T. ) ;
#240 = ORIENTED_EDGE ( 'NONE', *, *, #225, .T. ) ;
#241 = CARTESIAN_POINT ( 'NONE',  ( 2.458931568603996074E-17, 0.0000000000000000000, 0.2007869999999999933 ) ) ;
#242 = PRODUCT_DEFINITION_FORMATION_WITH_SPECIFIED_SOURCE ( 'ANY', '', #140, .NOT_KNOWN. ) ;
#243 = CARTESIAN_POINT ( 'NONE',  ( 4.238597163756091761E-17, 0.0000000000000000000, 0.3461077240153788148 ) ) ;
#244 = VECTOR ( 'NONE', #3, 39.37007874015748143 ) ;
#245 = CARTESIAN_POINT ( 'NONE',  ( 0.0000000000000000000, 0.0000000000000000000, 1.496062999999999921 ) ) ;
#246 = CARTESIAN_POINT ( 'NONE',  ( 0.04405499999999973326, 6.313666573004162521E-18, 1.496062999999999921 ) ) ;
#247 = CARTESIAN_POINT ( 'NONE',  ( 0.0000000000000000000, 0.0000000000000000000, 1.496062999999999921 ) ) ;
#248 = CARTESIAN_POINT ( 'NONE',  ( 0.05905500000000000332, 7.232151672364695422E-18, 1.481062999999999574 ) ) ;
#249 = EDGE_CURVE ( 'NONE', #95, #167, #288, .T. ) ;
#250 = DIRECTION ( 'NONE',  ( -1.224646799147353207E-16, -0.0000000000000000000, -1.000000000000000000 ) ) ;
#251 = FACE_OUTER_BOUND ( 'NONE', #46, .T. ) ;
#252 = CIRCLE ( 'NONE', #198, 0.03343103549999999757 ) ;
#253 = CIRCLE ( 'NONE', #96, 0.03343103549999999757 ) ;
#254 = FACE_OUTER_BOUND ( 'NONE', #212, .T. ) ;
#255 = CARTESIAN_POINT ( 'NONE',  ( 0.0000000000000000000, 0.0000000000000000000, 1.496062999999999921 ) ) ;
#256 =( CONVERSION_BASED_UNIT ( 'INCH', #99 ) LENGTH_UNIT ( ) NAMED_UNIT ( #176 ) );
#257 = ORIENTED_EDGE ( 'NONE', *, *, #14, .T. ) ;
#258 = ORIENTED_EDGE ( 'NONE', *, *, #124, .F. ) ;
#259 = ORIENTED_EDGE ( 'NONE', *, *, #271, .F. ) ;
#260 = ORIENTED_EDGE ( 'NONE', *, *, #201, .F. ) ;
#261 = ORIENTED_EDGE ( 'NONE', *, *, #124, .T. ) ;
#262 = DIRECTION ( 'NONE',  ( -1.000000000000000000, 0.0000000000000000000, 0.0000000000000000000 ) ) ;
#263 = CARTESIAN_POINT ( 'NONE',  ( 0.0000000000000000000, 0.0000000000000000000, 1.496062999999999921 ) ) ;
#264 = UNCERTAINTY_MEASURE_WITH_UNIT (LENGTH_MEASURE( 1.000000000000000082E-05 ), #62, 'distance_accuracy_value', 'NONE');
#265 = VECTOR ( 'NONE', #112, 39.37007874015748143 ) ;
#266 = DIRECTION ( 'NONE',  ( 1.000000000000000000, 0.0000000000000000000, 0.0000000000000000000 ) ) ;
#267 = FACE_OUTER_BOUND ( 'NONE', #193, .T. ) ;
#268 = CARTESIAN_POINT ( 'NONE',  ( 0.05905500000000004496, 7.232151672364700045E-18, 0.3461077240153788148 ) ) ;
#269 = DIRECTION ( 'NONE',  ( 0.0000000000000000000, 0.0000000000000000000, 1.000000000000000000 ) ) ;
#270 = DIRECTION ( 'NONE',  ( 1.000000000000000000, 0.0000000000000000000, 0.0000000000000000000 ) ) ;
#271 = EDGE_CURVE ( 'NONE', #20, #1, #118, .T. ) ;
#272 =( NAMED_UNIT ( * ) SI_UNIT ( $, .STERADIAN. ) SOLID_ANGLE_UNIT ( ) );
#273 = ORIENTED_EDGE ( 'NONE', *, *, #14, .F. ) ;
#274 = VECTOR ( 'NONE', #221, 39.37007874015748143 ) ;
#275 = ORIENTED_EDGE ( 'NONE', *, *, #37, .T. ) ;
#276 = ORIENTED_EDGE ( 'NONE', *, *, #249, .T. ) ;
#277 = ORIENTED_EDGE ( 'NONE', *, *, #239, .F. ) ;
#278 = ORIENTED_EDGE ( 'NONE', *, *, #225, .F. ) ;
#279 = LINE ( 'NONE', #5, #244 ) ;
#280 = ADVANCED_FACE ( 'NONE', ( #292 ), #24, .T. ) ;
#281 = DIRECTION ( 'NONE',  ( -1.000000000000000000, 0.0000000000000000000, 0.0000000000000000000 ) ) ;
#282 = UNCERTAINTY_MEASURE_WITH_UNIT (LENGTH_MEASURE( 1.000000000000000082E-05 ), #297, 'distance_accuracy_value', 'NONE');
#283 = DIRECTION ( 'NONE',  ( 0.0000000000000000000, 0.0000000000000000000, -1.000000000000000000 ) ) ;
#284 = CIRCLE ( 'NONE', #161, 0.05905500000000000332 ) ;
#285 = LINE ( 'NONE', #31, #274 ) ;
#286 = DIRECTION ( 'NONE',  ( 0.1736481776669313859, 0.0000000000000000000, 0.9848077530122077983 ) ) ;
#287 = CARTESIAN_POINT ( 'NONE',  ( 0.0000000000000000000, 0.0000000000000000000, 0.0000000000000000000 ) ) ;
#288 = LINE ( 'NONE', #230, #63 ) ;
#289 = DIRECTION ( 'NONE',  ( 0.0000000000000000000, 0.0000000000000000000, 1.000000000000000000 ) ) ;
#290 = AXIS2_PLACEMENT_3D ( 'NONE', #247, #199, #127 ) ;
#291 = APPLICATION_PROTOCOL_DEFINITION ( 'draft international standard', 'automotive_design', 1998, #135 ) ;
#292 = FACE_OUTER_BOUND ( 'NONE', #25, .T. ) ;
#293 = ORIENTED_EDGE ( 'NONE', *, *, #178, .F. ) ;
#294 = FILL_AREA_STYLE_COLOUR ( '', #173 ) ;
#295 =( GEOMETRIC_REPRESENTATION_CONTEXT ( 3 ) GLOBAL_UNCERTAINTY_ASSIGNED_CONTEXT ( ( #264 ) ) GLOBAL_UNIT_ASSIGNED_CONTEXT ( ( #62, #110, #156 ) ) REPRESENTATION_CONTEXT ( 'NONE', 'WORKASPACE' ) );
#296 = PRESENTATION_LAYER_ASSIGNMENT (  '', '', ( #131 ) ) ;
#297 =( CONVERSION_BASED_UNIT ( 'INCH', #66 ) LENGTH_UNIT ( ) NAMED_UNIT ( #33 ) );
#298 = ORIENTED_EDGE ( 'NONE', *, *, #34, .T. ) ;
#299 = ORIENTED_EDGE ( 'NONE', *, *, #271, .T. ) ;
ENDSEC;
END-ISO-10303-21;
