ISO-10303-21;
HEADER;
FILE_DESCRIPTION (( 'STEP AP214' ),
    '1' );
FILE_NAME ('Micro_AEMM-140-2X.STEP',
    '2022-03-15T14:32:06',
    ( '' ),
    ( '' ),
    'SwSTEP 2.0',
    'SolidWorks 2022',
    '' );
FILE_SCHEMA (( 'AUTOMOTIVE_DESIGN' ));
ENDSEC;

DATA;
#1 = COLOUR_RGB ( '',0.7921568627450980005, 0.8196078431372548767, 0.9333333333333333481 ) ;
#2 = AXIS2_PLACEMENT_3D ( 'NONE', #57, #255, #121 ) ;
#3 = CARTESIAN_POINT ( 'NONE',  ( 0.000000000000000000, 0.000000000000000000, 3.267717000000000649 ) ) ;
#4 = CARTESIAN_POINT ( 'NONE',  ( -0.2755905000000000715, 0.000000000000000000, 3.252717000000001857 ) ) ;
#5 = CARTESIAN_POINT ( 'NONE',  ( -0.2755904999999998495, 0.000000000000000000, 1.379515951392309425 ) ) ;
#6 = AXIS2_PLACEMENT_3D ( 'NONE', #201, #289, #294 ) ;
#7 = ORIENTED_EDGE ( 'NONE', *, *, #216, .T. ) ;
#8 = CARTESIAN_POINT ( 'NONE',  ( 0.000000000000000000, 0.000000000000000000, 3.267717000000000649 ) ) ;
#9 = DIRECTION ( 'NONE',  ( 0.000000000000000000, 0.000000000000000000, 1.000000000000000000 ) ) ;
#10 = ORIENTED_EDGE ( 'NONE', *, *, #186, .T. ) ;
#11 = ORIENTED_EDGE ( 'NONE', *, *, #48, .F. ) ;
#12 = VECTOR ( 'NONE', #248, 39.37007874015748143 ) ;
#13 = EDGE_CURVE ( 'NONE', #236, #202, #207, .T. ) ;
#14 = PLANE ( 'NONE',  #6 ) ;
#15 = SURFACE_STYLE_USAGE ( .BOTH. , #290 ) ;
#16 = CARTESIAN_POINT ( 'NONE',  ( 1.687505730825493004E-16, 0.000000000000000000, 1.377952999999999983 ) ) ;
#17 = DIRECTION ( 'NONE',  ( -1.224646799147353454E-16, -0.000000000000000000, -1.000000000000000000 ) ) ;
#18 = ORIENTED_EDGE ( 'NONE', *, *, #211, .T. ) ;
#19 = AXIS2_PLACEMENT_3D ( 'NONE', #145, #76, #102 ) ;
#20 =( NAMED_UNIT ( * ) SI_UNIT ( $, .STERADIAN. ) SOLID_ANGLE_UNIT ( ) );
#21 = STYLED_ITEM ( 'NONE', ( #34 ), #24 ) ;
#22 = CARTESIAN_POINT ( 'NONE',  ( -0.2753149094999998159, 3.373322731885684685E-17, 1.377952999999999983 ) ) ;
#23 = CARTESIAN_POINT ( 'NONE',  ( 0.000000000000000000, 0.000000000000000000, 3.252717000000001857 ) ) ;
#24 = ADVANCED_BREP_SHAPE_REPRESENTATION ( 'Micro_AEMM-140-2X', ( #70, #68 ), #167 ) ;
#25 = AXIS2_PLACEMENT_3D ( 'NONE', #249, #271, #295 ) ;
#26 =( GEOMETRIC_REPRESENTATION_CONTEXT ( 3 ) GLOBAL_UNCERTAINTY_ASSIGNED_CONTEXT ( ( #49 ) ) GLOBAL_UNIT_ASSIGNED_CONTEXT ( ( #292, #229, #20 ) ) REPRESENTATION_CONTEXT ( 'NONE', 'WORKASPACE' ) );
#27 = VERTEX_POINT ( 'NONE', #278 ) ;
#28 = DIRECTION ( 'NONE',  ( 0.000000000000000000, 0.000000000000000000, -1.000000000000000000 ) ) ;
#29 = CONICAL_SURFACE ( 'NONE', #253, 0.2753149095000000379, 0.1745329251994338082 ) ;
#30 = EDGE_LOOP ( 'NONE', ( #142, #106, #168, #11 ) ) ;
#31 = DIRECTION ( 'NONE',  ( -0.000000000000000000, -0.000000000000000000, -1.000000000000000000 ) ) ;
#32 = EDGE_CURVE ( 'NONE', #217, #116, #161, .T. ) ;
#33 = ORIENTED_EDGE ( 'NONE', *, *, #84, .T. ) ;
#34 = PRESENTATION_STYLE_ASSIGNMENT (( #15 ) ) ;
#35 = EDGE_CURVE ( 'NONE', #126, #263, #181, .T. ) ;
#36 = EDGE_LOOP ( 'NONE', ( #223, #7, #194, #171 ) ) ;
#37 = ADVANCED_FACE ( 'NONE', ( #89 ), #14, .F. ) ;
#38 = CIRCLE ( 'NONE', #51, 0.2753149095000000379 ) ;
#39 =( LENGTH_UNIT ( ) NAMED_UNIT ( * ) SI_UNIT ( $, .METRE. ) );
#40 = CARTESIAN_POINT ( 'NONE',  ( 1.689419794245307801E-16, 0.000000000000000000, 1.379515951392309425 ) ) ;
#41 = LENGTH_MEASURE_WITH_UNIT ( LENGTH_MEASURE( 0.02539999999999999897 ), #55 );
#42 = CARTESIAN_POINT ( 'NONE',  ( 0.2755905000000000715, 3.375010237004186497E-17, 3.267717000000000649 ) ) ;
#43 = DIRECTION ( 'NONE',  ( -1.000000000000000000, 0.000000000000000000, 1.224646799147353207E-16 ) ) ;
#44 = DIRECTION ( 'NONE',  ( -1.000000000000000000, 0.000000000000000000, 1.224646799147353207E-16 ) ) ;
#45 = CARTESIAN_POINT ( 'NONE',  ( 1.689419794245307801E-16, 0.000000000000000000, 1.379515951392309425 ) ) ;
#46 = MECHANICAL_DESIGN_GEOMETRIC_PRESENTATION_REPRESENTATION (  '', ( #99 ), #140 ) ;
#47 = MECHANICAL_DESIGN_GEOMETRIC_PRESENTATION_REPRESENTATION (  '', ( #21 ), #26 ) ;
#48 = EDGE_CURVE ( 'NONE', #205, #180, #77, .T. ) ;
#49 = UNCERTAINTY_MEASURE_WITH_UNIT (LENGTH_MEASURE( 1.000000000000000082E-05 ), #292, 'distance_accuracy_value', 'NONE');
#50 = DIRECTION ( 'NONE',  ( -1.000000000000000000, 0.000000000000000000, 0.000000000000000000 ) ) ;
#51 = AXIS2_PLACEMENT_3D ( 'NONE', #251, #119, #50 ) ;
#52 = DIRECTION ( 'NONE',  ( -1.224646799147353454E-16, -0.000000000000000000, -1.000000000000000000 ) ) ;
#53 = UNCERTAINTY_MEASURE_WITH_UNIT (LENGTH_MEASURE( 1.000000000000000082E-05 ), #81, 'distance_accuracy_value', 'NONE');
#54 = CARTESIAN_POINT ( 'NONE',  ( 0.2755905000000002381, 3.375010237004188345E-17, 1.379515951392309425 ) ) ;
#55 =( LENGTH_UNIT ( ) NAMED_UNIT ( * ) SI_UNIT ( $, .METRE. ) );
#56 = AXIS2_PLACEMENT_3D ( 'NONE', #45, #62, #199 ) ;
#57 = CARTESIAN_POINT ( 'NONE',  ( 4.129062288352891690E-33, 0.000000000000000000, 3.371635226767182256E-17 ) ) ;
#58 = EDGE_LOOP ( 'NONE', ( #158, #134 ) ) ;
#59 = CARTESIAN_POINT ( 'NONE',  ( 0.000000000000000000, 0.000000000000000000, 3.267717000000000649 ) ) ;
#60 = CARTESIAN_POINT ( 'NONE',  ( -0.2753149094999999824, 0.000000000000000000, 6.743270453534364513E-17 ) ) ;
#61 = ADVANCED_FACE ( 'NONE', ( #85 ), #157, .T. ) ;
#62 = DIRECTION ( 'NONE',  ( -1.224646799147353454E-16, -0.000000000000000000, -1.000000000000000000 ) ) ;
#63 = CARTESIAN_POINT ( 'NONE',  ( -0.2605905000000014460, 0.000000000000000000, 3.267717000000000649 ) ) ;
#64 = FILL_AREA_STYLE ('',( #133 ) ) ;
#65 = PRODUCT_CONTEXT ( 'NONE', #88, 'mechanical' ) ;
#66 = DIRECTION ( 'NONE',  ( -1.224646799147353454E-16, -0.000000000000000000, -1.000000000000000000 ) ) ;
#67 = EDGE_LOOP ( 'NONE', ( #129, #146, #280, #127 ) ) ;
#68 = AXIS2_PLACEMENT_3D ( 'NONE', #95, #187, #114 ) ;
#69 = DIRECTION ( 'NONE',  ( 1.000000000000000000, 0.000000000000000000, -0.000000000000000000 ) ) ;
#70 = MANIFOLD_SOLID_BREP ( 'Cut-Revolve1', #272 ) ;
#71 = APPLICATION_PROTOCOL_DEFINITION ( 'draft international standard', 'automotive_design', 1998, #105 ) ;
#72 = VECTOR ( 'NONE', #189, 39.37007874015748143 ) ;
#73 = EDGE_CURVE ( 'NONE', #202, #126, #215, .T. ) ;
#74 = DIMENSIONAL_EXPONENTS ( 1.000000000000000000, 0.000000000000000000, 0.000000000000000000, 0.000000000000000000, 0.000000000000000000, 0.000000000000000000, 0.000000000000000000 ) ;
#75 = DIRECTION ( 'NONE',  ( -0.000000000000000000, -0.000000000000000000, -1.000000000000000000 ) ) ;
#76 = DIRECTION ( 'NONE',  ( 0.000000000000000000, 0.000000000000000000, -1.000000000000000000 ) ) ;
#77 = CIRCLE ( 'NONE', #177, 0.2753149094999999824 ) ;
#78 = VECTOR ( 'NONE', #75, 39.37007874015748143 ) ;
#79 = ORIENTED_EDGE ( 'NONE', *, *, #276, .F. ) ;
#80 = ORIENTED_EDGE ( 'NONE', *, *, #32, .T. ) ;
#81 =( CONVERSION_BASED_UNIT ( 'INCH', #41 ) LENGTH_UNIT ( ) NAMED_UNIT ( #190 ) );
#82 = AXIS2_PLACEMENT_3D ( 'NONE', #3, #281, #69 ) ;
#83 = DIRECTION ( 'NONE',  ( -1.000000000000000000, 0.000000000000000000, 0.000000000000000000 ) ) ;
#84 = EDGE_CURVE ( 'NONE', #263, #126, #122, .T. ) ;
#85 = FACE_OUTER_BOUND ( 'NONE', #36, .T. ) ;
#86 = PRODUCT_DEFINITION_SHAPE ( 'NONE', 'NONE',  #269 ) ;
#87 = LENGTH_MEASURE_WITH_UNIT ( LENGTH_MEASURE( 0.02539999999999999897 ), #39 );
#88 = APPLICATION_CONTEXT ( 'automotive_design' ) ;
#89 = FACE_OUTER_BOUND ( 'NONE', #58, .T. ) ;
#90 = CONICAL_SURFACE ( 'NONE', #208, 0.2753149095000000379, 0.1745329251994338082 ) ;
#91 = ORIENTED_EDGE ( 'NONE', *, *, #198, .F. ) ;
#92 = FACE_OUTER_BOUND ( 'NONE', #30, .T. ) ;
#93 = LENGTH_MEASURE_WITH_UNIT ( LENGTH_MEASURE( 0.02539999999999999897 ), #110 );
#94 = ADVANCED_FACE ( 'NONE', ( #213 ), #219, .T. ) ;
#95 = CARTESIAN_POINT ( 'NONE',  ( 0.000000000000000000, 0.000000000000000000, 0.000000000000000000 ) ) ;
#96 = EDGE_CURVE ( 'NONE', #27, #150, #241, .T. ) ;
#97 = EDGE_LOOP ( 'NONE', ( #240, #296, #33, #183 ) ) ;
#98 = EDGE_LOOP ( 'NONE', ( #287, #131, #10, #155 ) ) ;
#99 = STYLED_ITEM ( 'NONE', ( #136 ), #70 ) ;
#100 = AXIS2_PLACEMENT_3D ( 'NONE', #59, #9, #128 ) ;
#101 = CARTESIAN_POINT ( 'NONE',  ( 0.000000000000000000, 0.000000000000000000, 3.267717000000000649 ) ) ;
#102 = DIRECTION ( 'NONE',  ( -1.000000000000000000, 0.000000000000000000, 0.000000000000000000 ) ) ;
#103 = CARTESIAN_POINT ( 'NONE',  ( 0.000000000000000000, 0.000000000000000000, 3.267717000000000649 ) ) ;
#104 = DIRECTION ( 'NONE',  ( 1.000000000000000000, 0.000000000000000000, 0.000000000000000000 ) ) ;
#105 = APPLICATION_CONTEXT ( 'automotive_design' ) ;
#106 = ORIENTED_EDGE ( 'NONE', *, *, #154, .T. ) ;
#107 = DIRECTION ( 'NONE',  ( 1.224646799147353454E-16, 0.000000000000000000, 1.000000000000000000 ) ) ;
#108 = COLOUR_RGB ( '',0.7921568627450980005, 0.8196078431372548767, 0.9333333333333333481 ) ;
#109 = CARTESIAN_POINT ( 'NONE',  ( 1.687505730825493004E-16, 0.000000000000000000, 1.377952999999999983 ) ) ;
#110 =( LENGTH_UNIT ( ) NAMED_UNIT ( * ) SI_UNIT ( $, .METRE. ) );
#111 = DIRECTION ( 'NONE',  ( 1.224646799147353454E-16, 0.000000000000000000, 1.000000000000000000 ) ) ;
#112 = AXIS2_PLACEMENT_3D ( 'NONE', #103, #124, #254 ) ;
#113 = ORIENTED_EDGE ( 'NONE', *, *, #279, .F. ) ;
#114 = DIRECTION ( 'NONE',  ( 1.000000000000000000, 0.000000000000000000, 0.000000000000000000 ) ) ;
#115 =( NAMED_UNIT ( * ) SI_UNIT ( $, .STERADIAN. ) SOLID_ANGLE_UNIT ( ) );
#116 = VERTEX_POINT ( 'NONE', #4 ) ;
#117 = CIRCLE ( 'NONE', #2, 0.2753149094999999824 ) ;
#118 = PRODUCT_DEFINITION_CONTEXT ( 'detailed design', #105, 'design' ) ;
#119 = DIRECTION ( 'NONE',  ( -1.224646799147353454E-16, -0.000000000000000000, -1.000000000000000000 ) ) ;
#120 = FACE_OUTER_BOUND ( 'NONE', #169, .T. ) ;
#121 = DIRECTION ( 'NONE',  ( -1.000000000000000000, 0.000000000000000000, 1.224646799147353207E-16 ) ) ;
#122 = CIRCLE ( 'NONE', #250, 0.2755905000000000715 ) ;
#123 = DIRECTION ( 'NONE',  ( -0.1736481776669311083, 2.126576849575782084E-17, 0.9848077530122080203 ) ) ;
#124 = DIRECTION ( 'NONE',  ( 0.000000000000000000, 0.000000000000000000, 1.000000000000000000 ) ) ;
#125 = PRODUCT_RELATED_PRODUCT_CATEGORY ( 'part', '', ( #230 ) ) ;
#126 = VERTEX_POINT ( 'NONE', #54 ) ;
#127 = ORIENTED_EDGE ( 'NONE', *, *, #35, .T. ) ;
#128 = DIRECTION ( 'NONE',  ( 1.000000000000000000, 0.000000000000000000, 0.000000000000000000 ) ) ;
#129 = ORIENTED_EDGE ( 'NONE', *, *, #247, .F. ) ;
#130 =( NAMED_UNIT ( * ) PLANE_ANGLE_UNIT ( ) SI_UNIT ( $, .RADIAN. ) );
#131 = ORIENTED_EDGE ( 'NONE', *, *, #96, .F. ) ;
#132 = FILL_AREA_STYLE ('',( #173 ) ) ;
#133 = FILL_AREA_STYLE_COLOUR ( '', #1 ) ;
#134 = ORIENTED_EDGE ( 'NONE', *, *, #48, .T. ) ;
#135 = DIRECTION ( 'NONE',  ( 0.7071067811865466846, 8.659560562354922997E-17, -0.7071067811865483499 ) ) ;
#136 = PRESENTATION_STYLE_ASSIGNMENT (( #139 ) ) ;
#137 = PRESENTATION_LAYER_ASSIGNMENT (  '', '', ( #99 ) ) ;
#138 = LINE ( 'NONE', #262, #143 ) ;
#139 = SURFACE_STYLE_USAGE ( .BOTH. , #176 ) ;
#140 =( GEOMETRIC_REPRESENTATION_CONTEXT ( 3 ) GLOBAL_UNCERTAINTY_ASSIGNED_CONTEXT ( ( #147 ) ) GLOBAL_UNIT_ASSIGNED_CONTEXT ( ( #179, #160, #115 ) ) REPRESENTATION_CONTEXT ( 'NONE', 'WORKASPACE' ) );
#141 = ADVANCED_FACE ( 'NONE', ( #120 ), #185, .T. ) ;
#142 = ORIENTED_EDGE ( 'NONE', *, *, #216, .F. ) ;
#143 = VECTOR ( 'NONE', #218, 39.37007874015748143 ) ;
#144 = CARTESIAN_POINT ( 'NONE',  ( 0.2753149095000002045, 0.000000000000000000, 1.377952999999999983 ) ) ;
#145 = CARTESIAN_POINT ( 'NONE',  ( 0.000000000000000000, 0.000000000000000000, 3.267717000000000649 ) ) ;
#146 = ORIENTED_EDGE ( 'NONE', *, *, #154, .F. ) ;
#147 = UNCERTAINTY_MEASURE_WITH_UNIT (LENGTH_MEASURE( 1.000000000000000082E-05 ), #179, 'distance_accuracy_value', 'NONE');
#148 = CARTESIAN_POINT ( 'NONE',  ( -0.2753149094999998159, 3.371635226767182256E-17, 1.377952999999999983 ) ) ;
#149 = FACE_OUTER_BOUND ( 'NONE', #98, .T. ) ;
#150 = VERTEX_POINT ( 'NONE', #163 ) ;
#151 = FACE_OUTER_BOUND ( 'NONE', #97, .T. ) ;
#152 = DIRECTION ( 'NONE',  ( -0.7071067811865466846, 0.000000000000000000, -0.7071067811865483499 ) ) ;
#153 = DIRECTION ( 'NONE',  ( -1.000000000000000000, 0.000000000000000000, 1.224646799147353207E-16 ) ) ;
#154 = EDGE_CURVE ( 'NONE', #202, #236, #38, .T. ) ;
#155 = ORIENTED_EDGE ( 'NONE', *, *, #32, .F. ) ;
#156 = CARTESIAN_POINT ( 'NONE',  ( 0.2753149095000002045, 0.000000000000000000, 1.377952999999999983 ) ) ;
#157 = CYLINDRICAL_SURFACE ( 'NONE', #264, 0.2753149094999999824 ) ;
#158 = ORIENTED_EDGE ( 'NONE', *, *, #282, .T. ) ;
#159 = CARTESIAN_POINT ( 'NONE',  ( 0.2753149094999999824, 3.371635226767182256E-17, 0.000000000000000000 ) ) ;
#160 =( NAMED_UNIT ( * ) PLANE_ANGLE_UNIT ( ) SI_UNIT ( $, .RADIAN. ) );
#161 = CIRCLE ( 'NONE', #25, 0.2755905000000000715 ) ;
#162 = CONICAL_SURFACE ( 'NONE', #19, 0.2605905000000014460, 0.7853981633974471688 ) ;
#163 = CARTESIAN_POINT ( 'NONE',  ( 0.2605905000000014460, 3.283161727068144454E-17, 3.267717000000000649 ) ) ;
#164 = ADVANCED_FACE ( 'NONE', ( #210 ), #29, .T. ) ;
#165 = CARTESIAN_POINT ( 'NONE',  ( -0.2755905000000000715, 0.000000000000000000, 3.267717000000000649 ) ) ;
#166 = ADVANCED_FACE ( 'NONE', ( #265 ), #195, .T. ) ;
#167 =( GEOMETRIC_REPRESENTATION_CONTEXT ( 3 ) GLOBAL_UNCERTAINTY_ASSIGNED_CONTEXT ( ( #53 ) ) GLOBAL_UNIT_ASSIGNED_CONTEXT ( ( #81, #130, #273 ) ) REPRESENTATION_CONTEXT ( 'NONE', 'WORKASPACE' ) );
#168 = ORIENTED_EDGE ( 'NONE', *, *, #175, .T. ) ;
#169 = EDGE_LOOP ( 'NONE', ( #184, #196 ) ) ;
#170 = CARTESIAN_POINT ( 'NONE',  ( 1.687505730825493004E-16, 0.000000000000000000, 1.377952999999999983 ) ) ;
#171 = ORIENTED_EDGE ( 'NONE', *, *, #175, .F. ) ;
#172 = PRESENTATION_LAYER_ASSIGNMENT (  '', '', ( #21 ) ) ;
#173 = FILL_AREA_STYLE_COLOUR ( '', #108 ) ;
#174 = DIRECTION ( 'NONE',  ( -1.224646799147353454E-16, -0.000000000000000000, -1.000000000000000000 ) ) ;
#175 = EDGE_CURVE ( 'NONE', #236, #180, #138, .T. ) ;
#176 = SURFACE_SIDE_STYLE ('',( #245 ) ) ;
#177 = AXIS2_PLACEMENT_3D ( 'NONE', #227, #242, #153 ) ;
#178 = CYLINDRICAL_SURFACE ( 'NONE', #284, 0.2753149094999999824 ) ;
#179 =( CONVERSION_BASED_UNIT ( 'INCH', #93 ) LENGTH_UNIT ( ) NAMED_UNIT ( #232 ) );
#180 = VERTEX_POINT ( 'NONE', #60 ) ;
#181 = CIRCLE ( 'NONE', #56, 0.2755905000000000715 ) ;
#182 = VECTOR ( 'NONE', #123, 39.37007874015747433 ) ;
#183 = ORIENTED_EDGE ( 'NONE', *, *, #73, .F. ) ;
#184 = ORIENTED_EDGE ( 'NONE', *, *, #96, .T. ) ;
#185 = PLANE ( 'NONE',  #82 ) ;
#186 = EDGE_CURVE ( 'NONE', #27, #116, #274, .T. ) ;
#187 = DIRECTION ( 'NONE',  ( 0.000000000000000000, 0.000000000000000000, 1.000000000000000000 ) ) ;
#188 = PRODUCT_DEFINITION_FORMATION_WITH_SPECIFIED_SOURCE ( 'ANY', '', #230, .NOT_KNOWN. ) ;
#189 = DIRECTION ( 'NONE',  ( 0.1736481776669313026, 0.000000000000000000, 0.9848077530122077983 ) ) ;
#190 = DIMENSIONAL_EXPONENTS ( 1.000000000000000000, 0.000000000000000000, 0.000000000000000000, 0.000000000000000000, 0.000000000000000000, 0.000000000000000000, 0.000000000000000000 ) ;
#191 = EDGE_CURVE ( 'NONE', #217, #126, #239, .T. ) ;
#192 = LINE ( 'NONE', #165, #78 ) ;
#193 = DIRECTION ( 'NONE',  ( -1.000000000000000000, 0.000000000000000000, 0.000000000000000000 ) ) ;
#194 = ORIENTED_EDGE ( 'NONE', *, *, #282, .F. ) ;
#195 = CYLINDRICAL_SURFACE ( 'NONE', #228, 0.2755905000000000715 ) ;
#196 = ORIENTED_EDGE ( 'NONE', *, *, #198, .T. ) ;
#197 = DIRECTION ( 'NONE',  ( 1.000000000000000000, 0.000000000000000000, 0.000000000000000000 ) ) ;
#198 = EDGE_CURVE ( 'NONE', #150, #27, #299, .T. ) ;
#199 = DIRECTION ( 'NONE',  ( 1.000000000000000000, 0.000000000000000000, 0.000000000000000000 ) ) ;
#200 = APPLICATION_PROTOCOL_DEFINITION ( 'draft international standard', 'automotive_design', 1998, #88 ) ;
#201 = CARTESIAN_POINT ( 'NONE',  ( 0.000000000000000000, 0.000000000000000000, 0.000000000000000000 ) ) ;
#202 = VERTEX_POINT ( 'NONE', #156 ) ;
#203 = CIRCLE ( 'NONE', #266, 0.2755905000000000715 ) ;
#204 = CARTESIAN_POINT ( 'NONE',  ( 0.2605905000000014460, 3.191313217132101795E-17, 3.267717000000000649 ) ) ;
#205 = VERTEX_POINT ( 'NONE', #159 ) ;
#206 = ORIENTED_EDGE ( 'NONE', *, *, #186, .F. ) ;
#207 = CIRCLE ( 'NONE', #252, 0.2753149095000000379 ) ;
#208 = AXIS2_PLACEMENT_3D ( 'NONE', #16, #111, #238 ) ;
#209 = AXIS2_PLACEMENT_3D ( 'NONE', #8, #258, #193 ) ;
#210 = FACE_OUTER_BOUND ( 'NONE', #67, .T. ) ;
#211 = EDGE_CURVE ( 'NONE', #150, #217, #244, .T. ) ;
#212 = VECTOR ( 'NONE', #31, 39.37007874015748143 ) ;
#213 = FACE_OUTER_BOUND ( 'NONE', #259, .T. ) ;
#214 = CYLINDRICAL_SURFACE ( 'NONE', #209, 0.2755905000000000715 ) ;
#215 = LINE ( 'NONE', #144, #72 ) ;
#216 = EDGE_CURVE ( 'NONE', #202, #205, #222, .T. ) ;
#217 = VERTEX_POINT ( 'NONE', #293 ) ;
#218 = DIRECTION ( 'NONE',  ( -1.224646799147353454E-16, -0.000000000000000000, -1.000000000000000000 ) ) ;
#219 = CONICAL_SURFACE ( 'NONE', #291, 0.2605905000000014460, 0.7853981633974471688 ) ;
#220 = ADVANCED_FACE ( 'NONE', ( #151 ), #90, .T. ) ;
#221 = ORIENTED_EDGE ( 'NONE', *, *, #191, .F. ) ;
#222 = LINE ( 'NONE', #226, #12 ) ;
#223 = ORIENTED_EDGE ( 'NONE', *, *, #13, .T. ) ;
#224 = EDGE_LOOP ( 'NONE', ( #243, #225, #246, #113 ) ) ;
#225 = ORIENTED_EDGE ( 'NONE', *, *, #191, .T. ) ;
#226 = CARTESIAN_POINT ( 'NONE',  ( 0.2753149094999999824, 3.371635226767182256E-17, -3.371635226767182256E-17 ) ) ;
#227 = CARTESIAN_POINT ( 'NONE',  ( 4.129062288352891690E-33, 0.000000000000000000, 3.371635226767182256E-17 ) ) ;
#228 = AXIS2_PLACEMENT_3D ( 'NONE', #260, #288, #83 ) ;
#229 =( NAMED_UNIT ( * ) PLANE_ANGLE_UNIT ( ) SI_UNIT ( $, .RADIAN. ) );
#230 = PRODUCT ( 'Micro_AEMM-140-2X', 'Micro_AEMM-140-2X', '', ( #65 ) ) ;
#231 = ADVANCED_FACE ( 'NONE', ( #92 ), #178, .T. ) ;
#232 = DIMENSIONAL_EXPONENTS ( 1.000000000000000000, 0.000000000000000000, 0.000000000000000000, 0.000000000000000000, 0.000000000000000000, 0.000000000000000000, 0.000000000000000000 ) ;
#233 = VECTOR ( 'NONE', #135, 39.37007874015748143 ) ;
#234 = FACE_OUTER_BOUND ( 'NONE', #224, .T. ) ;
#235 = DIRECTION ( 'NONE',  ( -1.000000000000000000, 0.000000000000000000, 0.000000000000000000 ) ) ;
#236 = VERTEX_POINT ( 'NONE', #22 ) ;
#237 = ADVANCED_FACE ( 'NONE', ( #149 ), #162, .T. ) ;
#238 = DIRECTION ( 'NONE',  ( 1.000000000000000000, 0.000000000000000000, 0.000000000000000000 ) ) ;
#239 = LINE ( 'NONE', #42, #212 ) ;
#240 = ORIENTED_EDGE ( 'NONE', *, *, #13, .F. ) ;
#241 = CIRCLE ( 'NONE', #112, 0.2605905000000014460 ) ;
#242 = DIRECTION ( 'NONE',  ( -1.224646799147353454E-16, -0.000000000000000000, -1.000000000000000000 ) ) ;
#243 = ORIENTED_EDGE ( 'NONE', *, *, #276, .T. ) ;
#244 = LINE ( 'NONE', #204, #233 ) ;
#245 = SURFACE_STYLE_FILL_AREA ( #64 ) ;
#246 = ORIENTED_EDGE ( 'NONE', *, *, #84, .F. ) ;
#247 = EDGE_CURVE ( 'NONE', #236, #263, #256, .T. ) ;
#248 = DIRECTION ( 'NONE',  ( -1.224646799147353454E-16, -0.000000000000000000, -1.000000000000000000 ) ) ;
#249 = CARTESIAN_POINT ( 'NONE',  ( 0.000000000000000000, 0.000000000000000000, 3.252717000000001857 ) ) ;
#250 = AXIS2_PLACEMENT_3D ( 'NONE', #40, #52, #283 ) ;
#251 = CARTESIAN_POINT ( 'NONE',  ( 1.687505730825493004E-16, 0.000000000000000000, 1.377952999999999983 ) ) ;
#252 = AXIS2_PLACEMENT_3D ( 'NONE', #109, #174, #270 ) ;
#253 = AXIS2_PLACEMENT_3D ( 'NONE', #170, #107, #197 ) ;
#254 = DIRECTION ( 'NONE',  ( 1.000000000000000000, 0.000000000000000000, 0.000000000000000000 ) ) ;
#255 = DIRECTION ( 'NONE',  ( -1.224646799147353454E-16, -0.000000000000000000, -1.000000000000000000 ) ) ;
#256 = LINE ( 'NONE', #148, #182 ) ;
#257 = ORIENTED_EDGE ( 'NONE', *, *, #35, .F. ) ;
#258 = DIRECTION ( 'NONE',  ( -0.000000000000000000, -0.000000000000000000, -1.000000000000000000 ) ) ;
#259 = EDGE_LOOP ( 'NONE', ( #91, #18, #79, #206 ) ) ;
#260 = CARTESIAN_POINT ( 'NONE',  ( 0.000000000000000000, 0.000000000000000000, 3.267717000000000649 ) ) ;
#261 = ORIENTED_EDGE ( 'NONE', *, *, #279, .T. ) ;
#262 = CARTESIAN_POINT ( 'NONE',  ( -0.2753149094999999824, 0.000000000000000000, 3.371635226767182256E-17 ) ) ;
#263 = VERTEX_POINT ( 'NONE', #5 ) ;
#264 = AXIS2_PLACEMENT_3D ( 'NONE', #275, #17, #43 ) ;
#265 = FACE_OUTER_BOUND ( 'NONE', #297, .T. ) ;
#266 = AXIS2_PLACEMENT_3D ( 'NONE', #23, #28, #104 ) ;
#267 = ADVANCED_FACE ( 'NONE', ( #234 ), #214, .T. ) ;
#268 = SURFACE_STYLE_FILL_AREA ( #132 ) ;
#269 = PRODUCT_DEFINITION ( 'UNKNOWN', '', #188, #118 ) ;
#270 = DIRECTION ( 'NONE',  ( -1.000000000000000000, 0.000000000000000000, 0.000000000000000000 ) ) ;
#271 = DIRECTION ( 'NONE',  ( 0.000000000000000000, 0.000000000000000000, -1.000000000000000000 ) ) ;
#272 = CLOSED_SHELL ( 'NONE', ( #61, #220, #94, #267, #166, #141, #237, #164, #231, #37 ) ) ;
#273 =( NAMED_UNIT ( * ) SI_UNIT ( $, .STERADIAN. ) SOLID_ANGLE_UNIT ( ) );
#274 = LINE ( 'NONE', #63, #286 ) ;
#275 = CARTESIAN_POINT ( 'NONE',  ( 0.000000000000000000, 0.000000000000000000, 0.000000000000000000 ) ) ;
#276 = EDGE_CURVE ( 'NONE', #116, #217, #203, .T. ) ;
#277 = CARTESIAN_POINT ( 'NONE',  ( 0.000000000000000000, 0.000000000000000000, 0.000000000000000000 ) ) ;
#278 = CARTESIAN_POINT ( 'NONE',  ( -0.2605905000000014460, 0.000000000000000000, 3.267717000000000649 ) ) ;
#279 = EDGE_CURVE ( 'NONE', #116, #263, #192, .T. ) ;
#280 = ORIENTED_EDGE ( 'NONE', *, *, #73, .T. ) ;
#281 = DIRECTION ( 'NONE',  ( 0.000000000000000000, 0.000000000000000000, 1.000000000000000000 ) ) ;
#282 = EDGE_CURVE ( 'NONE', #180, #205, #117, .T. ) ;
#283 = DIRECTION ( 'NONE',  ( 1.000000000000000000, 0.000000000000000000, 0.000000000000000000 ) ) ;
#284 = AXIS2_PLACEMENT_3D ( 'NONE', #277, #66, #44 ) ;
#285 = DIRECTION ( 'NONE',  ( 0.000000000000000000, 0.000000000000000000, -1.000000000000000000 ) ) ;
#286 = VECTOR ( 'NONE', #152, 39.37007874015748143 ) ;
#287 = ORIENTED_EDGE ( 'NONE', *, *, #211, .F. ) ;
#288 = DIRECTION ( 'NONE',  ( -0.000000000000000000, -0.000000000000000000, -1.000000000000000000 ) ) ;
#289 = DIRECTION ( 'NONE',  ( 0.000000000000000000, 0.000000000000000000, 1.000000000000000000 ) ) ;
#290 = SURFACE_SIDE_STYLE ('',( #268 ) ) ;
#291 = AXIS2_PLACEMENT_3D ( 'NONE', #101, #285, #235 ) ;
#292 =( CONVERSION_BASED_UNIT ( 'INCH', #87 ) LENGTH_UNIT ( ) NAMED_UNIT ( #74 ) );
#293 = CARTESIAN_POINT ( 'NONE',  ( 0.2755905000000000715, 3.375010237004186497E-17, 3.252717000000001857 ) ) ;
#294 = DIRECTION ( 'NONE',  ( 1.000000000000000000, 0.000000000000000000, -0.000000000000000000 ) ) ;
#295 = DIRECTION ( 'NONE',  ( 1.000000000000000000, 0.000000000000000000, 0.000000000000000000 ) ) ;
#296 = ORIENTED_EDGE ( 'NONE', *, *, #247, .T. ) ;
#297 = EDGE_LOOP ( 'NONE', ( #221, #80, #261, #257 ) ) ;
#298 = SHAPE_DEFINITION_REPRESENTATION ( #86, #24 ) ;
#299 = CIRCLE ( 'NONE', #100, 0.2605905000000014460 ) ;
ENDSEC;
END-ISO-10303-21;
