ISO-10303-21;
HEADER;
FILE_DESCRIPTION (( 'STEP AP214' ),
    '1' );
FILE_NAME ('Micro_SFP-250-410.STEP',
    '2021-09-02T06:19:11',
    ( '' ),
    ( '' ),
    'SwSTEP 2.0',
    'SolidWorks 2020',
    '' );
FILE_SCHEMA (( 'AUTOMOTIVE_DESIGN' ));
ENDSEC;

DATA;
#1 = DIRECTION ( 'NONE',  ( -1.224646799147353454E-16, -0.0000000000000000000, -1.000000000000000000 ) ) ;
#2 = EDGE_LOOP ( 'NONE', ( #240, #172, #170, #186 ) ) ;
#3 = DIRECTION ( 'NONE',  ( -1.000000000000000000, 0.0000000000000000000, 0.0000000000000000000 ) ) ;
#4 = DIRECTION ( 'NONE',  ( -1.000000000000000000, 0.0000000000000000000, 1.224646799147353700E-16 ) ) ;
#5 = DIRECTION ( 'NONE',  ( -1.000000000000000000, 0.0000000000000000000, 1.224646799147353700E-16 ) ) ;
#6 = EDGE_CURVE ( 'NONE', #16, #201, #93, .T. ) ;
#7 = EDGE_CURVE ( 'NONE', #16, #118, #43, .T. ) ;
#8 = CIRCLE ( 'NONE', #273, 0.1248749999999999999 ) ;
#9 = ADVANCED_FACE ( 'NONE', ( #52 ), #286, .T. ) ;
#10 = CARTESIAN_POINT ( 'NONE',  ( 1.531676663575124064E-16, 0.0000000000000000000, 1.250708910227452009 ) ) ;
#11 = UNCERTAINTY_MEASURE_WITH_UNIT (LENGTH_MEASURE( 1.000000000000000082E-05 ), #135, 'distance_accuracy_value', 'NONE');
#12 = CARTESIAN_POINT ( 'NONE',  ( 1.872825028598995495E-33, 0.0000000000000000000, 1.529277690435257783E-17 ) ) ;
#13 = ADVANCED_BREP_SHAPE_REPRESENTATION ( 'Micro_SFP-250-410', ( #258, #214 ), #171 ) ;
#14 = AXIS2_PLACEMENT_3D ( 'NONE', #260, #200, #179 ) ;
#15 = PRODUCT_DEFINITION_FORMATION_WITH_SPECIFIED_SOURCE ( 'ANY', '', #267, .NOT_KNOWN. ) ;
#16 = VERTEX_POINT ( 'NONE', #123 ) ;
#17 = ORIENTED_EDGE ( 'NONE', *, *, #39, .F. ) ;
#18 = APPLICATION_PROTOCOL_DEFINITION ( 'draft international standard', 'automotive_design', 1998, #112 ) ;
#19 = SURFACE_SIDE_STYLE ('',( #169 ) ) ;
#20 = LENGTH_MEASURE_WITH_UNIT ( LENGTH_MEASURE( 0.02539999999999999897 ), #90 );
#21 = FACE_OUTER_BOUND ( 'NONE', #36, .T. ) ;
#22 = ORIENTED_EDGE ( 'NONE', *, *, #42, .T. ) ;
#23 = FILL_AREA_STYLE_COLOUR ( '', #244 ) ;
#24 = CARTESIAN_POINT ( 'NONE',  ( 0.1100000000000004446, 1.347111479062094019E-17, 3.000000000000000444 ) ) ;
#25 = AXIS2_PLACEMENT_3D ( 'NONE', #259, #292, #4 ) ;
#26 = DIRECTION ( 'NONE',  ( -1.224646799147353454E-16, -0.0000000000000000000, -1.000000000000000000 ) ) ;
#27 = DIRECTION ( 'NONE',  ( 1.000000000000000000, 0.0000000000000000000, 0.0000000000000000000 ) ) ;
#28 =( NAMED_UNIT ( * ) PLANE_ANGLE_UNIT ( ) SI_UNIT ( $, .RADIAN. ) );
#29 = UNCERTAINTY_MEASURE_WITH_UNIT (LENGTH_MEASURE( 1.000000000000000082E-05 ), #111, 'distance_accuracy_value', 'NONE');
#30 = VERTEX_POINT ( 'NONE', #149 ) ;
#31 = CARTESIAN_POINT ( 'NONE',  ( 0.0000000000000000000, 0.0000000000000000000, 3.000000000000000444 ) ) ;
#32 = AXIS2_PLACEMENT_3D ( 'NONE', #255, #26, #5 ) ;
#33 = LENGTH_MEASURE_WITH_UNIT ( LENGTH_MEASURE( 0.02539999999999999897 ), #105 );
#34 = ORIENTED_EDGE ( 'NONE', *, *, #155, .T. ) ;
#35 = PRESENTATION_LAYER_ASSIGNMENT (  '', '', ( #174 ) ) ;
#36 = EDGE_LOOP ( 'NONE', ( #288, #243 ) ) ;
#37 = VECTOR ( 'NONE', #271, 39.37007874015748143 ) ;
#38 = CYLINDRICAL_SURFACE ( 'NONE', #232, 0.1250000000000000000 ) ;
#39 = EDGE_CURVE ( 'NONE', #201, #219, #257, .T. ) ;
#40 = CLOSED_SHELL ( 'NONE', ( #100, #107, #9, #253, #163, #215, #96, #60, #63, #134 ) ) ;
#41 = CARTESIAN_POINT ( 'NONE',  ( 0.0000000000000000000, 0.0000000000000000000, 0.0000000000000000000 ) ) ;
#42 = EDGE_CURVE ( 'NONE', #201, #188, #108, .T. ) ;
#43 = CIRCLE ( 'NONE', #82, 0.1100000000000004446 ) ;
#44 = AXIS2_PLACEMENT_3D ( 'NONE', #41, #209, #95 ) ;
#45 =( NAMED_UNIT ( * ) SI_UNIT ( $, .STERADIAN. ) SOLID_ANGLE_UNIT ( ) );
#46 = CARTESIAN_POINT ( 'NONE',  ( -0.1248749999999999999, 0.0000000000000000000, 1.529277690435257783E-17 ) ) ;
#47 = VERTEX_POINT ( 'NONE', #173 ) ;
#48 = DIRECTION ( 'NONE',  ( -0.7071067811865566766, 0.0000000000000000000, -0.7071067811865382469 ) ) ;
#49 = PRODUCT_CONTEXT ( 'NONE', #112, 'mechanical' ) ;
#50 = CARTESIAN_POINT ( 'NONE',  ( 0.0000000000000000000, 0.0000000000000000000, 3.000000000000000444 ) ) ;
#51 = PRODUCT_DEFINITION_CONTEXT ( 'detailed design', #80, 'design' ) ;
#52 = FACE_OUTER_BOUND ( 'NONE', #65, .T. ) ;
#53 =( NAMED_UNIT ( * ) SI_UNIT ( $, .STERADIAN. ) SOLID_ANGLE_UNIT ( ) );
#54 = CARTESIAN_POINT ( 'NONE',  ( 0.0000000000000000000, 0.0000000000000000000, 3.000000000000000444 ) ) ;
#55 = AXIS2_PLACEMENT_3D ( 'NONE', #12, #218, #58 ) ;
#56 = FACE_OUTER_BOUND ( 'NONE', #2, .T. ) ;
#57 = AXIS2_PLACEMENT_3D ( 'NONE', #294, #116, #275 ) ;
#58 = DIRECTION ( 'NONE',  ( -1.000000000000000000, 0.0000000000000000000, 1.224646799147353700E-16 ) ) ;
#59 = EDGE_LOOP ( 'NONE', ( #198, #73, #131, #129 ) ) ;
#60 = ADVANCED_FACE ( 'NONE', ( #190 ), #161, .T. ) ;
#61 =( GEOMETRIC_REPRESENTATION_CONTEXT ( 3 ) GLOBAL_UNCERTAINTY_ASSIGNED_CONTEXT ( ( #106 ) ) GLOBAL_UNIT_ASSIGNED_CONTEXT ( ( #132, #28, #53 ) ) REPRESENTATION_CONTEXT ( 'NONE', 'WORKASPACE' ) );
#62 = ORIENTED_EDGE ( 'NONE', *, *, #138, .T. ) ;
#63 = ADVANCED_FACE ( 'NONE', ( #128 ), #233, .T. ) ;
#64 =( NAMED_UNIT ( * ) SI_UNIT ( $, .STERADIAN. ) SOLID_ANGLE_UNIT ( ) );
#65 = EDGE_LOOP ( 'NONE', ( #157, #89, #140, #203 ) ) ;
#66 = CIRCLE ( 'NONE', #235, 0.1250000000000000000 ) ;
#67 = PLANE ( 'NONE',  #44 ) ;
#68 = ORIENTED_EDGE ( 'NONE', *, *, #127, .F. ) ;
#69 = PRODUCT_DEFINITION ( 'UNKNOWN', '', #15, #51 ) ;
#70 = CIRCLE ( 'NONE', #55, 0.1248749999999999999 ) ;
#71 = CARTESIAN_POINT ( 'NONE',  ( 0.1248749999999999999, 1.529277690435257475E-17, -1.529277690435257783E-17 ) ) ;
#72 = EDGE_CURVE ( 'NONE', #121, #30, #297, .T. ) ;
#73 = ORIENTED_EDGE ( 'NONE', *, *, #39, .T. ) ;
#74 = DIRECTION ( 'NONE',  ( 1.000000000000000000, 0.0000000000000000000, 0.0000000000000000000 ) ) ;
#75 = AXIS2_PLACEMENT_3D ( 'NONE', #180, #264, #109 ) ;
#76 = DIRECTION ( 'NONE',  ( 0.0000000000000000000, 0.0000000000000000000, -1.000000000000000000 ) ) ;
#77 = LINE ( 'NONE', #137, #88 ) ;
#78 = CYLINDRICAL_SURFACE ( 'NONE', #166, 0.1248749999999999999 ) ;
#79 = CARTESIAN_POINT ( 'NONE',  ( 0.0000000000000000000, 0.0000000000000000000, 0.0000000000000000000 ) ) ;
#80 = APPLICATION_CONTEXT ( 'automotive_design' ) ;
#81 = LENGTH_MEASURE_WITH_UNIT ( LENGTH_MEASURE( 0.02539999999999999897 ), #177 );
#82 = AXIS2_PLACEMENT_3D ( 'NONE', #31, #150, #27 ) ;
#83 = AXIS2_PLACEMENT_3D ( 'NONE', #245, #124, #86 ) ;
#84 = FACE_OUTER_BOUND ( 'NONE', #249, .T. ) ;
#85 = CARTESIAN_POINT ( 'NONE',  ( 0.1248750000000001664, 0.0000000000000000000, 1.250000000000000000 ) ) ;
#86 = DIRECTION ( 'NONE',  ( 1.000000000000000000, 0.0000000000000000000, -0.0000000000000000000 ) ) ;
#87 = DIRECTION ( 'NONE',  ( -0.0000000000000000000, -0.0000000000000000000, -1.000000000000000000 ) ) ;
#88 = VECTOR ( 'NONE', #178, 39.37007874015748143 ) ;
#89 = ORIENTED_EDGE ( 'NONE', *, *, #6, .T. ) ;
#90 =( LENGTH_UNIT ( ) NAMED_UNIT ( * ) SI_UNIT ( $, .METRE. ) );
#91 = ORIENTED_EDGE ( 'NONE', *, *, #155, .F. ) ;
#92 = FILL_AREA_STYLE ('',( #23 ) ) ;
#93 = LINE ( 'NONE', #24, #278 ) ;
#94 = CARTESIAN_POINT ( 'NONE',  ( 1.530808498934191817E-16, 0.0000000000000000000, 1.250000000000000000 ) ) ;
#95 = DIRECTION ( 'NONE',  ( 1.000000000000000000, 0.0000000000000000000, -0.0000000000000000000 ) ) ;
#96 = ADVANCED_FACE ( 'NONE', ( #56 ), #126, .T. ) ;
#97 = EDGE_CURVE ( 'NONE', #47, #142, #176, .T. ) ;
#98 = APPLICATION_PROTOCOL_DEFINITION ( 'draft international standard', 'automotive_design', 1998, #80 ) ;
#99 = CIRCLE ( 'NONE', #25, 0.1248749999999999999 ) ;
#100 = ADVANCED_FACE ( 'NONE', ( #277 ), #78, .T. ) ;
#101 = DIRECTION ( 'NONE',  ( -0.1736481776669310528, 2.126576849575781776E-17, 0.9848077530122080203 ) ) ;
#102 = ORIENTED_EDGE ( 'NONE', *, *, #283, .T. ) ;
#103 = PRESENTATION_STYLE_ASSIGNMENT (( #279 ) ) ;
#104 = ORIENTED_EDGE ( 'NONE', *, *, #97, .F. ) ;
#105 =( LENGTH_UNIT ( ) NAMED_UNIT ( * ) SI_UNIT ( $, .METRE. ) );
#106 = UNCERTAINTY_MEASURE_WITH_UNIT (LENGTH_MEASURE( 1.000000000000000082E-05 ), #132, 'distance_accuracy_value', 'NONE');
#107 = ADVANCED_FACE ( 'NONE', ( #84 ), #276, .T. ) ;
#108 = CIRCLE ( 'NONE', #213, 0.1250000000000000000 ) ;
#109 = DIRECTION ( 'NONE',  ( 1.000000000000000000, 0.0000000000000000000, 0.0000000000000000000 ) ) ;
#110 = ORIENTED_EDGE ( 'NONE', *, *, #283, .F. ) ;
#111 =( CONVERSION_BASED_UNIT ( 'INCH', #20 ) LENGTH_UNIT ( ) NAMED_UNIT ( #159 ) );
#112 = APPLICATION_CONTEXT ( 'automotive_design' ) ;
#113 = DIRECTION ( 'NONE',  ( 0.0000000000000000000, 0.0000000000000000000, 1.000000000000000000 ) ) ;
#114 = DIRECTION ( 'NONE',  ( 1.000000000000000000, 0.0000000000000000000, 0.0000000000000000000 ) ) ;
#115 = FILL_AREA_STYLE_COLOUR ( '', #299 ) ;
#116 = DIRECTION ( 'NONE',  ( -1.224646799147353454E-16, -0.0000000000000000000, -1.000000000000000000 ) ) ;
#117 = AXIS2_PLACEMENT_3D ( 'NONE', #50, #254, #237 ) ;
#118 = VERTEX_POINT ( 'NONE', #287 ) ;
#119 = SURFACE_STYLE_FILL_AREA ( #224 ) ;
#120 = LINE ( 'NONE', #191, #221 ) ;
#121 = VERTEX_POINT ( 'NONE', #85 ) ;
#122 = FACE_OUTER_BOUND ( 'NONE', #59, .T. ) ;
#123 = CARTESIAN_POINT ( 'NONE',  ( 0.1100000000000004446, 1.438959988998142687E-17, 3.000000000000000444 ) ) ;
#124 = DIRECTION ( 'NONE',  ( 0.0000000000000000000, 0.0000000000000000000, 1.000000000000000000 ) ) ;
#125 = FACE_OUTER_BOUND ( 'NONE', #145, .T. ) ;
#126 = CONICAL_SURFACE ( 'NONE', #248, 0.1100000000000004446, 0.7853981633974613796 ) ;
#127 = EDGE_CURVE ( 'NONE', #47, #207, #229, .T. ) ;
#128 = FACE_OUTER_BOUND ( 'NONE', #293, .T. ) ;
#129 = ORIENTED_EDGE ( 'NONE', *, *, #285, .F. ) ;
#130 = DIRECTION ( 'NONE',  ( -1.224646799147353454E-16, -0.0000000000000000000, -1.000000000000000000 ) ) ;
#131 = ORIENTED_EDGE ( 'NONE', *, *, #138, .F. ) ;
#132 =( CONVERSION_BASED_UNIT ( 'INCH', #81 ) LENGTH_UNIT ( ) NAMED_UNIT ( #268 ) );
#133 = EDGE_LOOP ( 'NONE', ( #17, #22, #223, #265 ) ) ;
#134 = ADVANCED_FACE ( 'NONE', ( #125 ), #67, .F. ) ;
#135 =( CONVERSION_BASED_UNIT ( 'INCH', #33 ) LENGTH_UNIT ( ) NAMED_UNIT ( #220 ) );
#136 = CIRCLE ( 'NONE', #14, 0.1248749999999999999 ) ;
#137 = CARTESIAN_POINT ( 'NONE',  ( 0.1248750000000001664, 0.0000000000000000000, 1.250000000000000000 ) ) ;
#138 = EDGE_CURVE ( 'NONE', #142, #219, #282, .T. ) ;
#139 = PRESENTATION_LAYER_ASSIGNMENT (  '', '', ( #252 ) ) ;
#140 = ORIENTED_EDGE ( 'NONE', *, *, #251, .F. ) ;
#141 = DIRECTION ( 'NONE',  ( 1.000000000000000000, 0.0000000000000000000, 0.0000000000000000000 ) ) ;
#142 = VERTEX_POINT ( 'NONE', #205 ) ;
#143 = ORIENTED_EDGE ( 'NONE', *, *, #296, .T. ) ;
#144 = SURFACE_SIDE_STYLE ('',( #119 ) ) ;
#145 = EDGE_LOOP ( 'NONE', ( #143, #34 ) ) ;
#146 = PLANE ( 'NONE',  #83 ) ;
#147 = AXIS2_PLACEMENT_3D ( 'NONE', #10, #175, #74 ) ;
#148 = CARTESIAN_POINT ( 'NONE',  ( 0.1250000000000000000, 1.530808498934191201E-17, 3.000000000000000444 ) ) ;
#149 = CARTESIAN_POINT ( 'NONE',  ( 0.1248749999999999999, 1.529277690435257475E-17, 0.0000000000000000000 ) ) ;
#150 = DIRECTION ( 'NONE',  ( 0.0000000000000000000, 0.0000000000000000000, 1.000000000000000000 ) ) ;
#151 = ORIENTED_EDGE ( 'NONE', *, *, #263, .T. ) ;
#152 = MECHANICAL_DESIGN_GEOMETRIC_PRESENTATION_REPRESENTATION (  '', ( #174 ), #154 ) ;
#153 = DIRECTION ( 'NONE',  ( -0.0000000000000000000, -0.0000000000000000000, -1.000000000000000000 ) ) ;
#154 =( GEOMETRIC_REPRESENTATION_CONTEXT ( 3 ) GLOBAL_UNCERTAINTY_ASSIGNED_CONTEXT ( ( #29 ) ) GLOBAL_UNIT_ASSIGNED_CONTEXT ( ( #111, #202, #64 ) ) REPRESENTATION_CONTEXT ( 'NONE', 'WORKASPACE' ) );
#155 = EDGE_CURVE ( 'NONE', #30, #207, #99, .T. ) ;
#156 = CARTESIAN_POINT ( 'NONE',  ( 0.0000000000000000000, 0.0000000000000000000, 3.000000000000000444 ) ) ;
#157 = ORIENTED_EDGE ( 'NONE', *, *, #7, .F. ) ;
#158 = PRESENTATION_STYLE_ASSIGNMENT (( #246 ) ) ;
#159 = DIMENSIONAL_EXPONENTS ( 1.000000000000000000, 0.0000000000000000000, 0.0000000000000000000, 0.0000000000000000000, 0.0000000000000000000, 0.0000000000000000000, 0.0000000000000000000 ) ;
#160 = CARTESIAN_POINT ( 'NONE',  ( 0.0000000000000000000, 0.0000000000000000000, 2.985000000000001208 ) ) ;
#161 = CONICAL_SURFACE ( 'NONE', #261, 0.1248749999999999999, 0.1745329251994337805 ) ;
#162 = ORIENTED_EDGE ( 'NONE', *, *, #296, .F. ) ;
#163 = ADVANCED_FACE ( 'NONE', ( #199 ), #222, .T. ) ;
#164 = DIRECTION ( 'NONE',  ( 1.000000000000000000, 0.0000000000000000000, 0.0000000000000000000 ) ) ;
#165 = CARTESIAN_POINT ( 'NONE',  ( 0.0000000000000000000, 0.0000000000000000000, 3.000000000000000444 ) ) ;
#166 = AXIS2_PLACEMENT_3D ( 'NONE', #79, #242, #298 ) ;
#167 = ORIENTED_EDGE ( 'NONE', *, *, #168, .F. ) ;
#168 = EDGE_CURVE ( 'NONE', #121, #219, #77, .T. ) ;
#169 = SURFACE_STYLE_FILL_AREA ( #92 ) ;
#170 = ORIENTED_EDGE ( 'NONE', *, *, #231, .T. ) ;
#171 =( GEOMETRIC_REPRESENTATION_CONTEXT ( 3 ) GLOBAL_UNCERTAINTY_ASSIGNED_CONTEXT ( ( #11 ) ) GLOBAL_UNIT_ASSIGNED_CONTEXT ( ( #135, #187, #45 ) ) REPRESENTATION_CONTEXT ( 'NONE', 'WORKASPACE' ) );
#172 = ORIENTED_EDGE ( 'NONE', *, *, #184, .F. ) ;
#173 = CARTESIAN_POINT ( 'NONE',  ( -0.1248749999999998472, 1.530043094684724338E-17, 1.250000000000000000 ) ) ;
#174 = STYLED_ITEM ( 'NONE', ( #158 ), #13 ) ;
#175 = DIRECTION ( 'NONE',  ( -1.224646799147353454E-16, -0.0000000000000000000, -1.000000000000000000 ) ) ;
#176 = LINE ( 'NONE', #272, #204 ) ;
#177 =( LENGTH_UNIT ( ) NAMED_UNIT ( * ) SI_UNIT ( $, .METRE. ) );
#178 = DIRECTION ( 'NONE',  ( 0.1736481776669312749, 0.0000000000000000000, 0.9848077530122077983 ) ) ;
#179 = DIRECTION ( 'NONE',  ( -1.000000000000000000, 0.0000000000000000000, 0.0000000000000000000 ) ) ;
#180 = CARTESIAN_POINT ( 'NONE',  ( 1.530808498934191817E-16, 0.0000000000000000000, 1.250000000000000000 ) ) ;
#181 = DIRECTION ( 'NONE',  ( -1.000000000000000000, 0.0000000000000000000, 0.0000000000000000000 ) ) ;
#182 = CARTESIAN_POINT ( 'NONE',  ( 0.0000000000000000000, 0.0000000000000000000, 0.0000000000000000000 ) ) ;
#183 = CARTESIAN_POINT ( 'NONE',  ( 0.1250000000000001665, 1.530808498934193358E-17, 1.250708910227452009 ) ) ;
#184 = EDGE_CURVE ( 'NONE', #118, #16, #208, .T. ) ;
#185 = VECTOR ( 'NONE', #238, 39.37007874015748143 ) ;
#186 = ORIENTED_EDGE ( 'NONE', *, *, #42, .F. ) ;
#187 =( NAMED_UNIT ( * ) PLANE_ANGLE_UNIT ( ) SI_UNIT ( $, .RADIAN. ) );
#188 = VERTEX_POINT ( 'NONE', #225 ) ;
#189 = CARTESIAN_POINT ( 'NONE',  ( 0.0000000000000000000, 0.0000000000000000000, 3.000000000000000444 ) ) ;
#190 = FACE_OUTER_BOUND ( 'NONE', #228, .T. ) ;
#191 = CARTESIAN_POINT ( 'NONE',  ( -0.1100000000000004446, 0.0000000000000000000, 3.000000000000000444 ) ) ;
#192 = AXIS2_PLACEMENT_3D ( 'NONE', #156, #153, #181 ) ;
#193 = DIRECTION ( 'NONE',  ( -1.000000000000000000, 0.0000000000000000000, 0.0000000000000000000 ) ) ;
#194 = VECTOR ( 'NONE', #196, 39.37007874015748143 ) ;
#195 = DIRECTION ( 'NONE',  ( 1.000000000000000000, 0.0000000000000000000, 0.0000000000000000000 ) ) ;
#196 = DIRECTION ( 'NONE',  ( -0.0000000000000000000, -0.0000000000000000000, -1.000000000000000000 ) ) ;
#197 = PRODUCT_RELATED_PRODUCT_CATEGORY ( 'part', '', ( #267 ) ) ;
#198 = ORIENTED_EDGE ( 'NONE', *, *, #251, .T. ) ;
#199 = FACE_OUTER_BOUND ( 'NONE', #133, .T. ) ;
#200 = DIRECTION ( 'NONE',  ( -1.224646799147353454E-16, -0.0000000000000000000, -1.000000000000000000 ) ) ;
#201 = VERTEX_POINT ( 'NONE', #241 ) ;
#202 =( NAMED_UNIT ( * ) PLANE_ANGLE_UNIT ( ) SI_UNIT ( $, .RADIAN. ) );
#203 = ORIENTED_EDGE ( 'NONE', *, *, #231, .F. ) ;
#204 = VECTOR ( 'NONE', #101, 39.37007874015748854 ) ;
#205 = CARTESIAN_POINT ( 'NONE',  ( -0.1249999999999998473, 0.0000000000000000000, 1.250708910227452009 ) ) ;
#206 = ORIENTED_EDGE ( 'NONE', *, *, #72, .F. ) ;
#207 = VERTEX_POINT ( 'NONE', #226 ) ;
#208 = CIRCLE ( 'NONE', #256, 0.1100000000000004446 ) ;
#209 = DIRECTION ( 'NONE',  ( 0.0000000000000000000, 0.0000000000000000000, 1.000000000000000000 ) ) ;
#210 = MECHANICAL_DESIGN_GEOMETRIC_PRESENTATION_REPRESENTATION (  '', ( #252 ), #61 ) ;
#211 = SHAPE_DEFINITION_REPRESENTATION ( #290, #13 ) ;
#212 = ORIENTED_EDGE ( 'NONE', *, *, #291, .F. ) ;
#213 = AXIS2_PLACEMENT_3D ( 'NONE', #280, #216, #217 ) ;
#214 = AXIS2_PLACEMENT_3D ( 'NONE', #182, #295, #141 ) ;
#215 = ADVANCED_FACE ( 'NONE', ( #21 ), #146, .T. ) ;
#216 = DIRECTION ( 'NONE',  ( 0.0000000000000000000, 0.0000000000000000000, -1.000000000000000000 ) ) ;
#217 = DIRECTION ( 'NONE',  ( 1.000000000000000000, 0.0000000000000000000, 0.0000000000000000000 ) ) ;
#218 = DIRECTION ( 'NONE',  ( -1.224646799147353454E-16, -0.0000000000000000000, -1.000000000000000000 ) ) ;
#219 = VERTEX_POINT ( 'NONE', #183 ) ;
#220 = DIMENSIONAL_EXPONENTS ( 1.000000000000000000, 0.0000000000000000000, 0.0000000000000000000, 0.0000000000000000000, 0.0000000000000000000, 0.0000000000000000000, 0.0000000000000000000 ) ;
#221 = VECTOR ( 'NONE', #48, 39.37007874015748854 ) ;
#222 = CYLINDRICAL_SURFACE ( 'NONE', #192, 0.1250000000000000000 ) ;
#223 = ORIENTED_EDGE ( 'NONE', *, *, #285, .T. ) ;
#224 = FILL_AREA_STYLE ('',( #115 ) ) ;
#225 = CARTESIAN_POINT ( 'NONE',  ( -0.1250000000000000000, 0.0000000000000000000, 2.985000000000001208 ) ) ;
#226 = CARTESIAN_POINT ( 'NONE',  ( -0.1248749999999999999, 0.0000000000000000000, 3.058555380870515566E-17 ) ) ;
#227 = VECTOR ( 'NONE', #1, 39.37007874015748143 ) ;
#228 = EDGE_LOOP ( 'NONE', ( #104, #212, #230, #151 ) ) ;
#229 = LINE ( 'NONE', #46, #37 ) ;
#230 = ORIENTED_EDGE ( 'NONE', *, *, #168, .T. ) ;
#231 = EDGE_CURVE ( 'NONE', #118, #188, #120, .T. ) ;
#232 = AXIS2_PLACEMENT_3D ( 'NONE', #165, #87, #247 ) ;
#233 = CYLINDRICAL_SURFACE ( 'NONE', #32, 0.1248749999999999999 ) ;
#234 = ORIENTED_EDGE ( 'NONE', *, *, #72, .T. ) ;
#235 = AXIS2_PLACEMENT_3D ( 'NONE', #160, #266, #114 ) ;
#236 = CARTESIAN_POINT ( 'NONE',  ( 1.530808498934191817E-16, 0.0000000000000000000, 1.250000000000000000 ) ) ;
#237 = DIRECTION ( 'NONE',  ( -1.000000000000000000, 0.0000000000000000000, 0.0000000000000000000 ) ) ;
#238 = DIRECTION ( 'NONE',  ( -0.0000000000000000000, -0.0000000000000000000, -1.000000000000000000 ) ) ;
#239 = ORIENTED_EDGE ( 'NONE', *, *, #127, .T. ) ;
#240 = ORIENTED_EDGE ( 'NONE', *, *, #6, .F. ) ;
#241 = CARTESIAN_POINT ( 'NONE',  ( 0.1250000000000000000, 1.530808498934191201E-17, 2.985000000000001208 ) ) ;
#242 = DIRECTION ( 'NONE',  ( -1.224646799147353454E-16, -0.0000000000000000000, -1.000000000000000000 ) ) ;
#243 = ORIENTED_EDGE ( 'NONE', *, *, #7, .T. ) ;
#244 = COLOUR_RGB ( '',0.7921568627450980005, 0.8196078431372548767, 0.9333333333333333481 ) ;
#245 = CARTESIAN_POINT ( 'NONE',  ( 0.0000000000000000000, 0.0000000000000000000, 3.000000000000000444 ) ) ;
#246 = SURFACE_STYLE_USAGE ( .BOTH. , #144 ) ;
#247 = DIRECTION ( 'NONE',  ( -1.000000000000000000, 0.0000000000000000000, 0.0000000000000000000 ) ) ;
#248 = AXIS2_PLACEMENT_3D ( 'NONE', #54, #76, #193 ) ;
#249 = EDGE_LOOP ( 'NONE', ( #110, #250, #62, #167 ) ) ;
#250 = ORIENTED_EDGE ( 'NONE', *, *, #97, .T. ) ;
#251 = EDGE_CURVE ( 'NONE', #188, #201, #66, .T. ) ;
#252 = STYLED_ITEM ( 'NONE', ( #103 ), #258 ) ;
#253 = ADVANCED_FACE ( 'NONE', ( #122 ), #38, .T. ) ;
#254 = DIRECTION ( 'NONE',  ( 0.0000000000000000000, 0.0000000000000000000, -1.000000000000000000 ) ) ;
#255 = CARTESIAN_POINT ( 'NONE',  ( 0.0000000000000000000, 0.0000000000000000000, 0.0000000000000000000 ) ) ;
#256 = AXIS2_PLACEMENT_3D ( 'NONE', #189, #113, #164 ) ;
#257 = LINE ( 'NONE', #148, #194 ) ;
#258 = MANIFOLD_SOLID_BREP ( 'Cut-Revolve1', #40 ) ;
#259 = CARTESIAN_POINT ( 'NONE',  ( 1.872825028598995495E-33, 0.0000000000000000000, 1.529277690435257783E-17 ) ) ;
#260 = CARTESIAN_POINT ( 'NONE',  ( 1.530808498934191817E-16, 0.0000000000000000000, 1.250000000000000000 ) ) ;
#261 = AXIS2_PLACEMENT_3D ( 'NONE', #94, #274, #195 ) ;
#262 = CARTESIAN_POINT ( 'NONE',  ( -0.1250000000000000000, 0.0000000000000000000, 3.000000000000000444 ) ) ;
#263 = EDGE_CURVE ( 'NONE', #219, #142, #270, .T. ) ;
#264 = DIRECTION ( 'NONE',  ( 1.224646799147353454E-16, 0.0000000000000000000, 1.000000000000000000 ) ) ;
#265 = ORIENTED_EDGE ( 'NONE', *, *, #263, .F. ) ;
#266 = DIRECTION ( 'NONE',  ( 0.0000000000000000000, 0.0000000000000000000, -1.000000000000000000 ) ) ;
#267 = PRODUCT ( 'Micro_SFP-250-410', 'Micro_SFP-250-410', '', ( #49 ) ) ;
#268 = DIMENSIONAL_EXPONENTS ( 1.000000000000000000, 0.0000000000000000000, 0.0000000000000000000, 0.0000000000000000000, 0.0000000000000000000, 0.0000000000000000000, 0.0000000000000000000 ) ;
#269 = ORIENTED_EDGE ( 'NONE', *, *, #291, .T. ) ;
#270 = CIRCLE ( 'NONE', #147, 0.1250000000000000000 ) ;
#271 = DIRECTION ( 'NONE',  ( -1.224646799147353454E-16, -0.0000000000000000000, -1.000000000000000000 ) ) ;
#272 = CARTESIAN_POINT ( 'NONE',  ( -0.1248749999999998472, 1.529277690435257475E-17, 1.250000000000000000 ) ) ;
#273 = AXIS2_PLACEMENT_3D ( 'NONE', #236, #130, #3 ) ;
#274 = DIRECTION ( 'NONE',  ( 1.224646799147353454E-16, 0.0000000000000000000, 1.000000000000000000 ) ) ;
#275 = DIRECTION ( 'NONE',  ( 1.000000000000000000, 0.0000000000000000000, 0.0000000000000000000 ) ) ;
#276 = CONICAL_SURFACE ( 'NONE', #75, 0.1248749999999999999, 0.1745329251994337805 ) ;
#277 = FACE_OUTER_BOUND ( 'NONE', #289, .T. ) ;
#278 = VECTOR ( 'NONE', #281, 39.37007874015748854 ) ;
#279 = SURFACE_STYLE_USAGE ( .BOTH. , #19 ) ;
#280 = CARTESIAN_POINT ( 'NONE',  ( 0.0000000000000000000, 0.0000000000000000000, 2.985000000000001208 ) ) ;
#281 = DIRECTION ( 'NONE',  ( 0.7071067811865566766, 8.659560562355046257E-17, -0.7071067811865382469 ) ) ;
#282 = CIRCLE ( 'NONE', #57, 0.1250000000000000000 ) ;
#283 = EDGE_CURVE ( 'NONE', #47, #121, #8, .T. ) ;
#284 = LINE ( 'NONE', #262, #185 ) ;
#285 = EDGE_CURVE ( 'NONE', #188, #142, #284, .T. ) ;
#286 = CONICAL_SURFACE ( 'NONE', #117, 0.1100000000000004446, 0.7853981633974613796 ) ;
#287 = CARTESIAN_POINT ( 'NONE',  ( -0.1100000000000004446, 0.0000000000000000000, 3.000000000000000444 ) ) ;
#288 = ORIENTED_EDGE ( 'NONE', *, *, #184, .T. ) ;
#289 = EDGE_LOOP ( 'NONE', ( #102, #234, #162, #68 ) ) ;
#290 = PRODUCT_DEFINITION_SHAPE ( 'NONE', 'NONE',  #69 ) ;
#291 = EDGE_CURVE ( 'NONE', #121, #47, #136, .T. ) ;
#292 = DIRECTION ( 'NONE',  ( -1.224646799147353454E-16, -0.0000000000000000000, -1.000000000000000000 ) ) ;
#293 = EDGE_LOOP ( 'NONE', ( #206, #269, #239, #91 ) ) ;
#294 = CARTESIAN_POINT ( 'NONE',  ( 1.531676663575124064E-16, 0.0000000000000000000, 1.250708910227452009 ) ) ;
#295 = DIRECTION ( 'NONE',  ( 0.0000000000000000000, 0.0000000000000000000, 1.000000000000000000 ) ) ;
#296 = EDGE_CURVE ( 'NONE', #207, #30, #70, .T. ) ;
#297 = LINE ( 'NONE', #71, #227 ) ;
#298 = DIRECTION ( 'NONE',  ( -1.000000000000000000, 0.0000000000000000000, 1.224646799147353700E-16 ) ) ;
#299 = COLOUR_RGB ( '',0.7921568627450980005, 0.8196078431372548767, 0.9333333333333333481 ) ;
ENDSEC;
END-ISO-10303-21;
