ISO-10303-21;
HEADER;
FILE_DESCRIPTION (( 'STEP AP214' ),
    '1' );
FILE_NAME ('59745.STEP',
    '2023-07-24T15:55:46',
    ( '' ),
    ( '' ),
    'SwSTEP 2.0',
    'SolidWorks 2023',
    '' );
FILE_SCHEMA (( 'AUTOMOTIVE_DESIGN' ));
ENDSEC;

DATA;
#1 = CARTESIAN_POINT ( 'NONE',  ( 2.490950504075057843E-33, 24.00000000000000000, 0.000000000000000000 ) ) ;
#2 = PRODUCT_RELATED_PRODUCT_CATEGORY ( 'part', '', ( #272 ) ) ;
#3 = EDGE_LOOP ( 'NONE', ( #213, #212, #73, #264 ) ) ;
#4 = FACE_OUTER_BOUND ( 'NONE', #110, .T. ) ;
#5 = VECTOR ( 'NONE', #77, 1000.000000000000000 ) ;
#6 = DIRECTION ( 'NONE',  ( 0.000000000000000000, 0.000000000000000000, -1.000000000000000000 ) ) ;
#7 = VERTEX_POINT ( 'NONE', #45 ) ;
#8 = UNCERTAINTY_MEASURE_WITH_UNIT (LENGTH_MEASURE( 1.000000000000000082E-05 ), #59, 'distance_accuracy_value', 'NONE');
#9 = PRESENTATION_STYLE_ASSIGNMENT (( #32 ) ) ;
#10 = PRODUCT_DEFINITION_FORMATION_WITH_SPECIFIED_SOURCE ( 'ANY', '', #272, .NOT_KNOWN. ) ;
#11 =( NAMED_UNIT ( * ) SI_UNIT ( $, .STERADIAN. ) SOLID_ANGLE_UNIT ( ) );
#12 = APPLICATION_PROTOCOL_DEFINITION ( 'draft international standard', 'automotive_design', 1998, #98 ) ;
#13 = EDGE_CURVE ( 'NONE', #94, #61, #21, .T. ) ;
#14 = SURFACE_SIDE_STYLE ('',( #195 ) ) ;
#15 = SURFACE_STYLE_USAGE ( .BOTH. , #33 ) ;
#16 = DIRECTION ( 'NONE',  ( 0.000000000000000000, 0.000000000000000000, -1.000000000000000000 ) ) ;
#17 = AXIS2_PLACEMENT_3D ( 'NONE', #126, #168, #6 ) ;
#18 = STYLED_ITEM ( 'NONE', ( #258 ), #247 ) ;
#19 = FACE_OUTER_BOUND ( 'NONE', #288, .T. ) ;
#20 = PRESENTATION_STYLE_ASSIGNMENT (( #111 ) ) ;
#21 = LINE ( 'NONE', #41, #269 ) ;
#22 = COLOUR_RGB ( '',1.000000000000000000, 0.000000000000000000, 0.000000000000000000 ) ;
#23 = STYLED_ITEM ( 'NONE', ( #20 ), #284 ) ;
#24 = DIRECTION ( 'NONE',  ( -1.000000000000000000, -2.881521880346713429E-17, 0.000000000000000000 ) ) ;
#25 = EDGE_CURVE ( 'NONE', #7, #281, #242, .T. ) ;
#26 = DIRECTION ( 'NONE',  ( -0.000000000000000000, -1.000000000000000000, -0.000000000000000000 ) ) ;
#27 = DIRECTION ( 'NONE',  ( 0.000000000000000000, 0.000000000000000000, -1.000000000000000000 ) ) ;
#28 = FACE_OUTER_BOUND ( 'NONE', #74, .T. ) ;
#29 = ADVANCED_FACE ( 'NONE', ( #4 ), #171, .F. ) ;
#30 = FILL_AREA_STYLE ('',( #118 ) ) ;
#31 = EDGE_CURVE ( 'NONE', #7, #94, #219, .T. ) ;
#32 = SURFACE_STYLE_USAGE ( .BOTH. , #254 ) ;
#33 = SURFACE_SIDE_STYLE ('',( #255 ) ) ;
#34 = DIRECTION ( 'NONE',  ( 0.000000000000000000, 0.000000000000000000, 1.000000000000000000 ) ) ;
#35 =( GEOMETRIC_REPRESENTATION_CONTEXT ( 3 ) GLOBAL_UNCERTAINTY_ASSIGNED_CONTEXT ( ( #204 ) ) GLOBAL_UNIT_ASSIGNED_CONTEXT ( ( #186, #113, #214 ) ) REPRESENTATION_CONTEXT ( 'NONE', 'WORKASPACE' ) );
#36 = SURFACE_STYLE_FILL_AREA ( #95 ) ;
#37 = ORIENTED_EDGE ( 'NONE', *, *, #271, .T. ) ;
#38 =( NAMED_UNIT ( * ) SI_UNIT ( $, .STERADIAN. ) SOLID_ANGLE_UNIT ( ) );
#39 = CARTESIAN_POINT ( 'NONE',  ( -6.000000000000003553, 75.00000000000000000, 0.000000000000000000 ) ) ;
#40 = DIRECTION ( 'NONE',  ( -1.000000000000000000, 0.000000000000000000, 0.000000000000000000 ) ) ;
#41 = CARTESIAN_POINT ( 'NONE',  ( 7.347880794884119736E-16, 0.000000000000000000, 6.000000000000000000 ) ) ;
#42 = VECTOR ( 'NONE', #240, 1000.000000000000000 ) ;
#43 = DIRECTION ( 'NONE',  ( -1.000000000000000000, 0.000000000000000000, 0.000000000000000000 ) ) ;
#44 = CARTESIAN_POINT ( 'NONE',  ( -1.469576158976823750E-15, 75.00000000000000000, 0.000000000000000000 ) ) ;
#45 = CARTESIAN_POINT ( 'NONE',  ( 0.000000000000000000, 24.00000000000000000, -6.000000000000000000 ) ) ;
#46 = PLANE ( 'NONE',  #206 ) ;
#47 = CIRCLE ( 'NONE', #210, 6.000000000000000000 ) ;
#48 = ADVANCED_FACE ( 'NONE', ( #143 ), #148, .T. ) ;
#49 = DIRECTION ( 'NONE',  ( 0.000000000000000000, 1.000000000000000000, 0.000000000000000000 ) ) ;
#50 = CIRCLE ( 'NONE', #65, 6.000000000000000000 ) ;
#51 = SHAPE_DEFINITION_REPRESENTATION ( #227, #99 ) ;
#52 = PRESENTATION_LAYER_ASSIGNMENT (  '', '', ( #18 ) ) ;
#53 =( LENGTH_UNIT ( ) NAMED_UNIT ( * ) SI_UNIT ( .MILLI., .METRE. ) );
#54 =( NAMED_UNIT ( * ) PLANE_ANGLE_UNIT ( ) SI_UNIT ( $, .RADIAN. ) );
#55 =( NAMED_UNIT ( * ) PLANE_ANGLE_UNIT ( ) SI_UNIT ( $, .RADIAN. ) );
#56 = AXIS2_PLACEMENT_3D ( 'NONE', #244, #167, #43 ) ;
#57 =( GEOMETRIC_REPRESENTATION_CONTEXT ( 3 ) GLOBAL_UNCERTAINTY_ASSIGNED_CONTEXT ( ( #8 ) ) GLOBAL_UNIT_ASSIGNED_CONTEXT ( ( #59, #54, #194 ) ) REPRESENTATION_CONTEXT ( 'NONE', 'WORKASPACE' ) );
#58 = CARTESIAN_POINT ( 'NONE',  ( -1.469576158976823750E-15, 75.00000000000000000, 0.000000000000000000 ) ) ;
#59 =( LENGTH_UNIT ( ) NAMED_UNIT ( * ) SI_UNIT ( .MILLI., .METRE. ) );
#60 = ORIENTED_EDGE ( 'NONE', *, *, #31, .T. ) ;
#61 = VERTEX_POINT ( 'NONE', #75 ) ;
#62 = CARTESIAN_POINT ( 'NONE',  ( 6.000000000000000000, 75.00000000000000000, 0.000000000000000000 ) ) ;
#63 = ORIENTED_EDGE ( 'NONE', *, *, #165, .T. ) ;
#64 = FILL_AREA_STYLE_COLOUR ( '', #109 ) ;
#65 = AXIS2_PLACEMENT_3D ( 'NONE', #130, #90, #209 ) ;
#66 = AXIS2_PLACEMENT_3D ( 'NONE', #172, #208, #182 ) ;
#67 = CLOSED_SHELL ( 'NONE', ( #189, #152, #247, #284 ) ) ;
#68 = EDGE_CURVE ( 'NONE', #119, #235, #108, .T. ) ;
#69 = SURFACE_STYLE_USAGE ( .BOTH. , #14 ) ;
#70 = AXIS2_PLACEMENT_3D ( 'NONE', #58, #76, #198 ) ;
#71 = DIRECTION ( 'NONE',  ( -2.881521880346713429E-17, 1.000000000000000000, -0.000000000000000000 ) ) ;
#72 = SURFACE_STYLE_USAGE ( .BOTH. , #265 ) ;
#73 = ORIENTED_EDGE ( 'NONE', *, *, #211, .T. ) ;
#74 = EDGE_LOOP ( 'NONE', ( #166, #190 ) ) ;
#75 = CARTESIAN_POINT ( 'NONE',  ( 7.347880794884119736E-16, 0.000000000000000000, 6.000000000000000000 ) ) ;
#76 = DIRECTION ( 'NONE',  ( -2.881521880346713429E-17, 1.000000000000000000, -0.000000000000000000 ) ) ;
#77 = DIRECTION ( 'NONE',  ( -2.881521880346713429E-17, 1.000000000000000000, -0.000000000000000000 ) ) ;
#78 =( GEOMETRIC_REPRESENTATION_CONTEXT ( 3 ) GLOBAL_UNCERTAINTY_ASSIGNED_CONTEXT ( ( #230 ) ) GLOBAL_UNIT_ASSIGNED_CONTEXT ( ( #53, #106, #11 ) ) REPRESENTATION_CONTEXT ( 'NONE', 'WORKASPACE' ) );
#79 =( GEOMETRIC_REPRESENTATION_CONTEXT ( 3 ) GLOBAL_UNCERTAINTY_ASSIGNED_CONTEXT ( ( #174 ) ) GLOBAL_UNIT_ASSIGNED_CONTEXT ( ( #191, #55, #181 ) ) REPRESENTATION_CONTEXT ( 'NONE', 'WORKASPACE' ) );
#80 = CARTESIAN_POINT ( 'NONE',  ( 0.000000000000000000, 24.00000000000000000, 0.000000000000000000 ) ) ;
#81 = VERTEX_POINT ( 'NONE', #221 ) ;
#82 = FACE_OUTER_BOUND ( 'NONE', #124, .T. ) ;
#83 = ORIENTED_EDGE ( 'NONE', *, *, #259, .T. ) ;
#84 = EDGE_CURVE ( 'NONE', #81, #141, #232, .T. ) ;
#85 = PRESENTATION_LAYER_ASSIGNMENT (  '', '', ( #224 ) ) ;
#86 = DIRECTION ( 'NONE',  ( 0.000000000000000000, -0.000000000000000000, 1.000000000000000000 ) ) ;
#87 = MECHANICAL_DESIGN_GEOMETRIC_PRESENTATION_REPRESENTATION (  '', ( #224 ), #132 ) ;
#88 = PRESENTATION_LAYER_ASSIGNMENT (  '', '', ( #23 ) ) ;
#89 = EDGE_CURVE ( 'NONE', #235, #81, #169, .T. ) ;
#90 = DIRECTION ( 'NONE',  ( -0.000000000000000000, -1.000000000000000000, -0.000000000000000000 ) ) ;
#91 = STYLED_ITEM ( 'NONE', ( #243 ), #189 ) ;
#92 = CARTESIAN_POINT ( 'NONE',  ( 0.000000000000000000, 0.000000000000000000, 0.000000000000000000 ) ) ;
#93 = ORIENTED_EDGE ( 'NONE', *, *, #180, .T. ) ;
#94 = VERTEX_POINT ( 'NONE', #199 ) ;
#95 = FILL_AREA_STYLE ('',( #285 ) ) ;
#96 = FILL_AREA_STYLE ('',( #217 ) ) ;
#97 = ORIENTED_EDGE ( 'NONE', *, *, #25, .T. ) ;
#98 = APPLICATION_CONTEXT ( 'automotive_design' ) ;
#99 = ADVANCED_BREP_SHAPE_REPRESENTATION ( '59745', ( #151, #160, #116 ), #79 ) ;
#100 = DIRECTION ( 'NONE',  ( -2.881521880346713429E-17, 1.000000000000000000, -0.000000000000000000 ) ) ;
#101 = CARTESIAN_POINT ( 'NONE',  ( -6.000000000000002665, 75.00000000000000000, 0.000000000000000000 ) ) ;
#102 = DIRECTION ( 'NONE',  ( -1.000000000000000000, 0.000000000000000000, 0.000000000000000000 ) ) ;
#103 = ORIENTED_EDGE ( 'NONE', *, *, #13, .T. ) ;
#104 = MECHANICAL_DESIGN_GEOMETRIC_PRESENTATION_REPRESENTATION (  '', ( #91 ), #122 ) ;
#105 = UNCERTAINTY_MEASURE_WITH_UNIT (LENGTH_MEASURE( 1.000000000000000082E-05 ), #192, 'distance_accuracy_value', 'NONE');
#106 =( NAMED_UNIT ( * ) PLANE_ANGLE_UNIT ( ) SI_UNIT ( $, .RADIAN. ) );
#107 = DIRECTION ( 'NONE',  ( 1.000000000000000000, 0.000000000000000000, 0.000000000000000000 ) ) ;
#108 = CIRCLE ( 'NONE', #56, 6.000000000000000000 ) ;
#109 = COLOUR_RGB ( '',1.000000000000000000, 0.000000000000000000, 0.000000000000000000 ) ;
#110 = EDGE_LOOP ( 'NONE', ( #193, #201 ) ) ;
#111 = SURFACE_STYLE_USAGE ( .BOTH. , #236 ) ;
#112 = ORIENTED_EDGE ( 'NONE', *, *, #25, .F. ) ;
#113 =( NAMED_UNIT ( * ) PLANE_ANGLE_UNIT ( ) SI_UNIT ( $, .RADIAN. ) );
#114 = PRESENTATION_LAYER_ASSIGNMENT (  '', '', ( #91 ) ) ;
#115 = DIRECTION ( 'NONE',  ( 0.000000000000000000, 0.000000000000000000, -1.000000000000000000 ) ) ;
#116 = AXIS2_PLACEMENT_3D ( 'NONE', #134, #34, #107 ) ;
#117 = ORIENTED_EDGE ( 'NONE', *, *, #271, .F. ) ;
#118 = FILL_AREA_STYLE_COLOUR ( '', #22 ) ;
#119 = VERTEX_POINT ( 'NONE', #268 ) ;
#120 = SURFACE_STYLE_FILL_AREA ( #286 ) ;
#121 = CARTESIAN_POINT ( 'NONE',  ( 0.000000000000000000, 0.000000000000000000, -6.000000000000000000 ) ) ;
#122 =( GEOMETRIC_REPRESENTATION_CONTEXT ( 3 ) GLOBAL_UNCERTAINTY_ASSIGNED_CONTEXT ( ( #105 ) ) GLOBAL_UNIT_ASSIGNED_CONTEXT ( ( #192, #142, #38 ) ) REPRESENTATION_CONTEXT ( 'NONE', 'WORKASPACE' ) );
#123 = DIRECTION ( 'NONE',  ( 2.881521880346713429E-17, -1.000000000000000000, 0.000000000000000000 ) ) ;
#124 = EDGE_LOOP ( 'NONE', ( #185, #249, #117, #222 ) ) ;
#125 = DIRECTION ( 'NONE',  ( -0.000000000000000000, -1.000000000000000000, -0.000000000000000000 ) ) ;
#126 = CARTESIAN_POINT ( 'NONE',  ( 0.000000000000000000, 0.000000000000000000, 0.000000000000000000 ) ) ;
#127 = PRESENTATION_LAYER_ASSIGNMENT (  '', '', ( #144 ) ) ;
#128 = DIRECTION ( 'NONE',  ( -0.000000000000000000, -1.000000000000000000, -0.000000000000000000 ) ) ;
#129 = UNCERTAINTY_MEASURE_WITH_UNIT (LENGTH_MEASURE( 1.000000000000000082E-05 ), #157, 'distance_accuracy_value', 'NONE');
#130 = CARTESIAN_POINT ( 'NONE',  ( 0.000000000000000000, 0.000000000000000000, 0.000000000000000000 ) ) ;
#131 = DIRECTION ( 'NONE',  ( 0.000000000000000000, 0.000000000000000000, -1.000000000000000000 ) ) ;
#132 =( GEOMETRIC_REPRESENTATION_CONTEXT ( 3 ) GLOBAL_UNCERTAINTY_ASSIGNED_CONTEXT ( ( #129 ) ) GLOBAL_UNIT_ASSIGNED_CONTEXT ( ( #157, #205, #203 ) ) REPRESENTATION_CONTEXT ( 'NONE', 'WORKASPACE' ) );
#133 = SURFACE_SIDE_STYLE ('',( #228 ) ) ;
#134 = CARTESIAN_POINT ( 'NONE',  ( 0.000000000000000000, 0.000000000000000000, 0.000000000000000000 ) ) ;
#135 =( GEOMETRIC_REPRESENTATION_CONTEXT ( 3 ) GLOBAL_UNCERTAINTY_ASSIGNED_CONTEXT ( ( #252 ) ) GLOBAL_UNIT_ASSIGNED_CONTEXT ( ( #273, #149, #155 ) ) REPRESENTATION_CONTEXT ( 'NONE', 'WORKASPACE' ) );
#136 = CYLINDRICAL_SURFACE ( 'NONE', #261, 6.000000000000000000 ) ;
#137 = CYLINDRICAL_SURFACE ( 'NONE', #17, 6.000000000000000000 ) ;
#138 = PRESENTATION_LAYER_ASSIGNMENT (  '', '', ( #150 ) ) ;
#139 = DIRECTION ( 'NONE',  ( -0.000000000000000000, -1.000000000000000000, -0.000000000000000000 ) ) ;
#140 = CARTESIAN_POINT ( 'NONE',  ( 5.999999999999999112, 75.00000000000000000, 7.347880794884120722E-16 ) ) ;
#141 = VERTEX_POINT ( 'NONE', #39 ) ;
#142 =( NAMED_UNIT ( * ) PLANE_ANGLE_UNIT ( ) SI_UNIT ( $, .RADIAN. ) );
#143 = FACE_OUTER_BOUND ( 'NONE', #3, .T. ) ;
#144 = STYLED_ITEM ( 'NONE', ( #9 ), #160 ) ;
#145 = AXIS2_PLACEMENT_3D ( 'NONE', #188, #241, #40 ) ;
#146 = DIRECTION ( 'NONE',  ( 1.000000000000000000, 2.881521880346713429E-17, 0.000000000000000000 ) ) ;
#147 = ORIENTED_EDGE ( 'NONE', *, *, #259, .F. ) ;
#148 = CYLINDRICAL_SURFACE ( 'NONE', #70, 6.000000000000000888 ) ;
#149 =( NAMED_UNIT ( * ) PLANE_ANGLE_UNIT ( ) SI_UNIT ( $, .RADIAN. ) );
#150 = STYLED_ITEM ( 'NONE', ( #176 ), #151 ) ;
#151 = MANIFOLD_SOLID_BREP ( 'Revolve - Cutting Edge', #67 ) ;
#152 = ADVANCED_FACE ( 'NONE', ( #28 ), #46, .T. ) ;
#153 = APPLICATION_CONTEXT ( 'automotive_design' ) ;
#154 = SURFACE_STYLE_USAGE ( .BOTH. , #133 ) ;
#155 =( NAMED_UNIT ( * ) SI_UNIT ( $, .STERADIAN. ) SOLID_ANGLE_UNIT ( ) );
#156 = CARTESIAN_POINT ( 'NONE',  ( 6.000000000000000000, 24.00000000000000000, 7.347880794884120722E-16 ) ) ;
#157 =( LENGTH_UNIT ( ) NAMED_UNIT ( * ) SI_UNIT ( .MILLI., .METRE. ) );
#158 = FILL_AREA_STYLE ('',( #277 ) ) ;
#159 = MECHANICAL_DESIGN_GEOMETRIC_PRESENTATION_REPRESENTATION (  '', ( #150 ), #135 ) ;
#160 = MANIFOLD_SOLID_BREP ( 'Revolve - Tool Body (Straight Shanked)', #250 ) ;
#161 = FACE_OUTER_BOUND ( 'NONE', #266, .T. ) ;
#162 = CARTESIAN_POINT ( 'NONE',  ( 0.000000000000000000, 24.00000000000000000, 0.000000000000000000 ) ) ;
#163 = DIRECTION ( 'NONE',  ( -1.000000000000000000, 0.000000000000000000, 0.000000000000000000 ) ) ;
#164 = PLANE ( 'NONE',  #220 ) ;
#165 = EDGE_CURVE ( 'NONE', #281, #61, #50, .T. ) ;
#166 = ORIENTED_EDGE ( 'NONE', *, *, #31, .F. ) ;
#167 = DIRECTION ( 'NONE',  ( -2.881521880346713429E-17, 1.000000000000000000, -0.000000000000000000 ) ) ;
#168 = DIRECTION ( 'NONE',  ( -0.000000000000000000, -1.000000000000000000, -0.000000000000000000 ) ) ;
#169 = LINE ( 'NONE', #140, #42 ) ;
#170 = COLOUR_RGB ( '',1.000000000000000000, 0.000000000000000000, 0.000000000000000000 ) ;
#171 = PLANE ( 'NONE',  #274 ) ;
#172 = CARTESIAN_POINT ( 'NONE',  ( -1.469576158976823750E-15, 75.00000000000000000, 0.000000000000000000 ) ) ;
#173 = DIRECTION ( 'NONE',  ( -0.000000000000000000, -1.000000000000000000, -0.000000000000000000 ) ) ;
#174 = UNCERTAINTY_MEASURE_WITH_UNIT (LENGTH_MEASURE( 1.000000000000000082E-05 ), #191, 'distance_accuracy_value', 'NONE');
#175 = AXIS2_PLACEMENT_3D ( 'NONE', #280, #71, #163 ) ;
#176 = PRESENTATION_STYLE_ASSIGNMENT (( #69 ) ) ;
#177 = PRODUCT_DEFINITION ( 'UNKNOWN', '', #10, #184 ) ;
#178 = CIRCLE ( 'NONE', #251, 6.000000000000000000 ) ;
#179 = APPLICATION_PROTOCOL_DEFINITION ( 'draft international standard', 'automotive_design', 1998, #153 ) ;
#180 = EDGE_CURVE ( 'NONE', #94, #7, #47, .T. ) ;
#181 =( NAMED_UNIT ( * ) SI_UNIT ( $, .STERADIAN. ) SOLID_ANGLE_UNIT ( ) );
#182 = DIRECTION ( 'NONE',  ( -1.000000000000000000, 0.000000000000000000, 0.000000000000000000 ) ) ;
#183 = CARTESIAN_POINT ( 'NONE',  ( 0.000000000000000000, 24.00000000000000000, 0.000000000000000000 ) ) ;
#184 = PRODUCT_DEFINITION_CONTEXT ( 'detailed design', #98, 'design' ) ;
#185 = ORIENTED_EDGE ( 'NONE', *, *, #68, .T. ) ;
#186 =( LENGTH_UNIT ( ) NAMED_UNIT ( * ) SI_UNIT ( .MILLI., .METRE. ) );
#187 = AXIS2_PLACEMENT_3D ( 'NONE', #62, #123, #146 ) ;
#188 = CARTESIAN_POINT ( 'NONE',  ( -1.469576158976823750E-15, 75.00000000000000000, 0.000000000000000000 ) ) ;
#189 = ADVANCED_FACE ( 'NONE', ( #226 ), #137, .T. ) ;
#190 = ORIENTED_EDGE ( 'NONE', *, *, #180, .F. ) ;
#191 =( LENGTH_UNIT ( ) NAMED_UNIT ( * ) SI_UNIT ( .MILLI., .METRE. ) );
#192 =( LENGTH_UNIT ( ) NAMED_UNIT ( * ) SI_UNIT ( .MILLI., .METRE. ) );
#193 = ORIENTED_EDGE ( 'NONE', *, *, #68, .F. ) ;
#194 =( NAMED_UNIT ( * ) SI_UNIT ( $, .STERADIAN. ) SOLID_ANGLE_UNIT ( ) );
#195 = SURFACE_STYLE_FILL_AREA ( #96 ) ;
#196 = AXIS2_PLACEMENT_3D ( 'NONE', #44, #100, #102 ) ;
#197 = MECHANICAL_DESIGN_GEOMETRIC_PRESENTATION_REPRESENTATION (  '', ( #23 ), #35 ) ;
#198 = DIRECTION ( 'NONE',  ( -1.000000000000000000, 0.000000000000000000, 0.000000000000000000 ) ) ;
#199 = CARTESIAN_POINT ( 'NONE',  ( 7.347880794884119736E-16, 24.00000000000000000, 6.000000000000000000 ) ) ;
#200 = COLOUR_RGB ( '',1.000000000000000000, 0.000000000000000000, 0.000000000000000000 ) ;
#201 = ORIENTED_EDGE ( 'NONE', *, *, #279, .F. ) ;
#202 = ADVANCED_FACE ( 'NONE', ( #267 ), #275, .F. ) ;
#203 =( NAMED_UNIT ( * ) SI_UNIT ( $, .STERADIAN. ) SOLID_ANGLE_UNIT ( ) );
#204 = UNCERTAINTY_MEASURE_WITH_UNIT (LENGTH_MEASURE( 1.000000000000000082E-05 ), #186, 'distance_accuracy_value', 'NONE');
#205 =( NAMED_UNIT ( * ) PLANE_ANGLE_UNIT ( ) SI_UNIT ( $, .RADIAN. ) );
#206 = AXIS2_PLACEMENT_3D ( 'NONE', #162, #49, #86 ) ;
#207 = PRODUCT_CONTEXT ( 'NONE', #153, 'mechanical' ) ;
#208 = DIRECTION ( 'NONE',  ( -2.881521880346713429E-17, 1.000000000000000000, -0.000000000000000000 ) ) ;
#209 = DIRECTION ( 'NONE',  ( 0.000000000000000000, 0.000000000000000000, -1.000000000000000000 ) ) ;
#210 = AXIS2_PLACEMENT_3D ( 'NONE', #183, #128, #131 ) ;
#211 = EDGE_CURVE ( 'NONE', #119, #141, #270, .T. ) ;
#212 = ORIENTED_EDGE ( 'NONE', *, *, #279, .T. ) ;
#213 = ORIENTED_EDGE ( 'NONE', *, *, #89, .F. ) ;
#214 =( NAMED_UNIT ( * ) SI_UNIT ( $, .STERADIAN. ) SOLID_ANGLE_UNIT ( ) );
#215 = EDGE_LOOP ( 'NONE', ( #37, #223 ) ) ;
#216 = DIRECTION ( 'NONE',  ( 0.000000000000000000, -1.000000000000000000, -0.000000000000000000 ) ) ;
#217 = FILL_AREA_STYLE_COLOUR ( '', #287 ) ;
#218 = DIRECTION ( 'NONE',  ( -2.881521880346713429E-17, 1.000000000000000000, 0.000000000000000000 ) ) ;
#219 = CIRCLE ( 'NONE', #238, 6.000000000000000000 ) ;
#220 = AXIS2_PLACEMENT_3D ( 'NONE', #282, #216, #115 ) ;
#221 = CARTESIAN_POINT ( 'NONE',  ( 6.000000000000000000, 75.00000000000000000, 7.347880794884120722E-16 ) ) ;
#222 = ORIENTED_EDGE ( 'NONE', *, *, #211, .F. ) ;
#223 = ORIENTED_EDGE ( 'NONE', *, *, #84, .T. ) ;
#224 = STYLED_ITEM ( 'NONE', ( #231 ), #152 ) ;
#225 = CIRCLE ( 'NONE', #145, 6.000000000000001776 ) ;
#226 = FACE_OUTER_BOUND ( 'NONE', #260, .T. ) ;
#227 = PRODUCT_DEFINITION_SHAPE ( 'NONE', 'NONE',  #177 ) ;
#228 = SURFACE_STYLE_FILL_AREA ( #30 ) ;
#229 = ADVANCED_FACE ( 'NONE', ( #82 ), #248, .T. ) ;
#230 = UNCERTAINTY_MEASURE_WITH_UNIT (LENGTH_MEASURE( 1.000000000000000082E-05 ), #53, 'distance_accuracy_value', 'NONE');
#231 = PRESENTATION_STYLE_ASSIGNMENT (( #154 ) ) ;
#232 = CIRCLE ( 'NONE', #196, 6.000000000000001776 ) ;
#233 = MECHANICAL_DESIGN_GEOMETRIC_PRESENTATION_REPRESENTATION (  '', ( #18 ), #57 ) ;
#234 = SURFACE_STYLE_FILL_AREA ( #276 ) ;
#235 = VERTEX_POINT ( 'NONE', #156 ) ;
#236 = SURFACE_SIDE_STYLE ('',( #36 ) ) ;
#237 = CARTESIAN_POINT ( 'NONE',  ( 0.000000000000000000, 0.000000000000000000, -6.000000000000000000 ) ) ;
#238 = AXIS2_PLACEMENT_3D ( 'NONE', #80, #26, #27 ) ;
#239 = DIRECTION ( 'NONE',  ( 0.000000000000000000, 0.000000000000000000, -1.000000000000000000 ) ) ;
#240 = DIRECTION ( 'NONE',  ( -2.881521880346713429E-17, 1.000000000000000000, -0.000000000000000000 ) ) ;
#241 = DIRECTION ( 'NONE',  ( -2.881521880346713429E-17, 1.000000000000000000, -0.000000000000000000 ) ) ;
#242 = LINE ( 'NONE', #121, #278 ) ;
#243 = PRESENTATION_STYLE_ASSIGNMENT (( #72 ) ) ;
#244 = CARTESIAN_POINT ( 'NONE',  ( 0.000000000000000000, 24.00000000000000000, 0.000000000000000000 ) ) ;
#245 = COLOUR_RGB ( '',0.7921568627450980005, 0.8196078431372548767, 0.9333333333333333481 ) ;
#246 = ORIENTED_EDGE ( 'NONE', *, *, #165, .F. ) ;
#247 = ADVANCED_FACE ( 'NONE', ( #161 ), #136, .T. ) ;
#248 = CYLINDRICAL_SURFACE ( 'NONE', #66, 6.000000000000000888 ) ;
#249 = ORIENTED_EDGE ( 'NONE', *, *, #89, .T. ) ;
#250 = CLOSED_SHELL ( 'NONE', ( #229, #29, #48, #202 ) ) ;
#251 = AXIS2_PLACEMENT_3D ( 'NONE', #263, #262, #16 ) ;
#252 = UNCERTAINTY_MEASURE_WITH_UNIT (LENGTH_MEASURE( 1.000000000000000082E-05 ), #273, 'distance_accuracy_value', 'NONE');
#253 = FILL_AREA_STYLE_COLOUR ( '', #245 ) ;
#254 = SURFACE_SIDE_STYLE ('',( #234 ) ) ;
#255 = SURFACE_STYLE_FILL_AREA ( #158 ) ;
#256 = MECHANICAL_DESIGN_GEOMETRIC_PRESENTATION_REPRESENTATION (  '', ( #144 ), #78 ) ;
#257 = CIRCLE ( 'NONE', #175, 6.000000000000000000 ) ;
#258 = PRESENTATION_STYLE_ASSIGNMENT (( #15 ) ) ;
#259 = EDGE_CURVE ( 'NONE', #61, #281, #178, .T. ) ;
#260 = EDGE_LOOP ( 'NONE', ( #60, #103, #246, #112 ) ) ;
#261 = AXIS2_PLACEMENT_3D ( 'NONE', #92, #139, #239 ) ;
#262 = DIRECTION ( 'NONE',  ( -0.000000000000000000, -1.000000000000000000, -0.000000000000000000 ) ) ;
#263 = CARTESIAN_POINT ( 'NONE',  ( 0.000000000000000000, 0.000000000000000000, 0.000000000000000000 ) ) ;
#264 = ORIENTED_EDGE ( 'NONE', *, *, #84, .F. ) ;
#265 = SURFACE_SIDE_STYLE ('',( #120 ) ) ;
#266 = EDGE_LOOP ( 'NONE', ( #283, #93, #97, #147 ) ) ;
#267 = FACE_OUTER_BOUND ( 'NONE', #215, .T. ) ;
#268 = CARTESIAN_POINT ( 'NONE',  ( -6.000000000000000000, 24.00000000000000000, 0.000000000000000000 ) ) ;
#269 = VECTOR ( 'NONE', #125, 1000.000000000000000 ) ;
#270 = LINE ( 'NONE', #101, #5 ) ;
#271 = EDGE_CURVE ( 'NONE', #141, #81, #225, .T. ) ;
#272 = PRODUCT ( '59745', '59745', '', ( #207 ) ) ;
#273 =( LENGTH_UNIT ( ) NAMED_UNIT ( * ) SI_UNIT ( .MILLI., .METRE. ) );
#274 = AXIS2_PLACEMENT_3D ( 'NONE', #1, #218, #24 ) ;
#275 = PLANE ( 'NONE',  #187 ) ;
#276 = FILL_AREA_STYLE ('',( #253 ) ) ;
#277 = FILL_AREA_STYLE_COLOUR ( '', #200 ) ;
#278 = VECTOR ( 'NONE', #173, 1000.000000000000000 ) ;
#279 = EDGE_CURVE ( 'NONE', #235, #119, #257, .T. ) ;
#280 = CARTESIAN_POINT ( 'NONE',  ( 0.000000000000000000, 24.00000000000000000, 0.000000000000000000 ) ) ;
#281 = VERTEX_POINT ( 'NONE', #237 ) ;
#282 = CARTESIAN_POINT ( 'NONE',  ( 0.000000000000000000, 0.000000000000000000, 0.000000000000000000 ) ) ;
#283 = ORIENTED_EDGE ( 'NONE', *, *, #13, .F. ) ;
#284 = ADVANCED_FACE ( 'NONE', ( #19 ), #164, .T. ) ;
#285 = FILL_AREA_STYLE_COLOUR ( '', #170 ) ;
#286 = FILL_AREA_STYLE ('',( #64 ) ) ;
#287 = COLOUR_RGB ( '',0.7921568627450980005, 0.8196078431372548767, 0.9333333333333333481 ) ;
#288 = EDGE_LOOP ( 'NONE', ( #63, #83 ) ) ;
ENDSEC;
END-ISO-10303-21;
