ISO-10303-21;
HEADER;
FILE_DESCRIPTION (( 'STEP AP214' ),
    '1' );
FILE_NAME ('83868.STEP',
    '2023-07-12T13:07:31',
    ( '' ),
    ( '' ),
    'SwSTEP 2.0',
    'SolidWorks 2023',
    '' );
FILE_SCHEMA (( 'AUTOMOTIVE_DESIGN' ));
ENDSEC;

DATA;
#1 = ORIENTED_EDGE ( 'NONE', *, *, #33, .F. ) ;
#2 = FACE_OUTER_BOUND ( 'NONE', #272, .T. ) ;
#3 = ADVANCED_FACE ( 'NONE', ( #2 ), #83, .T. ) ;
#4 = VERTEX_POINT ( 'NONE', #292 ) ;
#5 = FACE_OUTER_BOUND ( 'NONE', #234, .T. ) ;
#6 = PRESENTATION_STYLE_ASSIGNMENT (( #224 ) ) ;
#7 = DIRECTION ( 'NONE',  ( -1.243246835274233013E-16, 1.000000000000000000, -0.000000000000000000 ) ) ;
#8 = ORIENTED_EDGE ( 'NONE', *, *, #307, .F. ) ;
#9 = VECTOR ( 'NONE', #279, 39.37007874015748143 ) ;
#10 = AXIS2_PLACEMENT_3D ( 'NONE', #198, #185, #213 ) ;
#11 =( NAMED_UNIT ( * ) PLANE_ANGLE_UNIT ( ) SI_UNIT ( $, .RADIAN. ) );
#12 = CARTESIAN_POINT ( 'NONE',  ( 1.726126311378001685E-16, 0.1190784930203599296, 0.000000000000000000 ) ) ;
#13 = FACE_OUTER_BOUND ( 'NONE', #220, .T. ) ;
#14 = DIRECTION ( 'NONE',  ( -1.243246835274233013E-16, 1.000000000000000000, 0.000000000000000000 ) ) ;
#15 = DIMENSIONAL_EXPONENTS ( 1.000000000000000000, 0.000000000000000000, 0.000000000000000000, 0.000000000000000000, 0.000000000000000000, 0.000000000000000000, 0.000000000000000000 ) ;
#16 = ADVANCED_FACE ( 'NONE', ( #142 ), #98, .T. ) ;
#17 = AXIS2_PLACEMENT_3D ( 'NONE', #163, #14, #247 ) ;
#18 = DIMENSIONAL_EXPONENTS ( 1.000000000000000000, 0.000000000000000000, 0.000000000000000000, 0.000000000000000000, 0.000000000000000000, 0.000000000000000000, 0.000000000000000000 ) ;
#19 = SURFACE_STYLE_FILL_AREA ( #132 ) ;
#20 = DIRECTION ( 'NONE',  ( 1.217665841040929996E-17, 1.000000000000000000, 0.000000000000000000 ) ) ;
#21 = DIRECTION ( 'NONE',  ( 1.000000000000000000, 0.000000000000000000, 0.000000000000000000 ) ) ;
#22 = DIRECTION ( 'NONE',  ( -1.000000000000000000, 0.000000000000000000, 0.000000000000000000 ) ) ;
#23 = MANIFOLD_SOLID_BREP ( 'Revolve - Tool Body (Tipped Off)', #181 ) ;
#24 = LENGTH_MEASURE_WITH_UNIT ( LENGTH_MEASURE( 0.02539999999999999897 ), #212 );
#25 = DIRECTION ( 'NONE',  ( 1.000000000000000000, 0.000000000000000000, 0.000000000000000000 ) ) ;
#26 = CARTESIAN_POINT ( 'NONE',  ( 1.449978133535231054E-18, 0.1190784930203599573, 0.000000000000000000 ) ) ;
#27 = AXIS2_PLACEMENT_3D ( 'NONE', #295, #178, #252 ) ;
#28 = CIRCLE ( 'NONE', #174, 0.09375000000000005551 ) ;
#29 =( NAMED_UNIT ( * ) PLANE_ANGLE_UNIT ( ) SI_UNIT ( $, .RADIAN. ) );
#30 = ORIENTED_EDGE ( 'NONE', *, *, #68, .F. ) ;
#31 = EDGE_CURVE ( 'NONE', #35, #239, #72, .T. ) ;
#32 = ORIENTED_EDGE ( 'NONE', *, *, #245, .T. ) ;
#33 = EDGE_CURVE ( 'NONE', #145, #135, #294, .T. ) ;
#34 = AXIS2_PLACEMENT_3D ( 'NONE', #282, #71, #25 ) ;
#35 = VERTEX_POINT ( 'NONE', #229 ) ;
#36 = SURFACE_SIDE_STYLE ('',( #244 ) ) ;
#37 = DIRECTION ( 'NONE',  ( -1.217665841040929996E-17, -1.000000000000000000, -0.000000000000000000 ) ) ;
#38 = ORIENTED_EDGE ( 'NONE', *, *, #43, .T. ) ;
#39 = PRODUCT_DEFINITION ( 'UNKNOWN', '', #139, #129 ) ;
#40 = SURFACE_STYLE_USAGE ( .BOTH. , #251 ) ;
#41 = DIRECTION ( 'NONE',  ( -1.000000000000000000, -1.821231995776178930E-16, 0.000000000000000000 ) ) ;
#42 = DIRECTION ( 'NONE',  ( -1.000000000000000000, 1.217665841040930150E-17, 0.000000000000000000 ) ) ;
#43 = EDGE_CURVE ( 'NONE', #239, #196, #65, .T. ) ;
#44 =( NAMED_UNIT ( * ) SI_UNIT ( $, .STERADIAN. ) SOLID_ANGLE_UNIT ( ) );
#45 = FILL_AREA_STYLE_COLOUR ( '', #81 ) ;
#46 = STYLED_ITEM ( 'NONE', ( #165 ), #79 ) ;
#47 = AXIS2_PLACEMENT_3D ( 'NONE', #67, #170, #171 ) ;
#48 = FACE_OUTER_BOUND ( 'NONE', #58, .T. ) ;
#49 = PLANE ( 'NONE',  #17 ) ;
#50 = LENGTH_MEASURE_WITH_UNIT ( LENGTH_MEASURE( 0.02539999999999999897 ), #216 );
#51 =( NAMED_UNIT ( * ) SI_UNIT ( $, .STERADIAN. ) SOLID_ANGLE_UNIT ( ) );
#52 =( GEOMETRIC_REPRESENTATION_CONTEXT ( 3 ) GLOBAL_UNCERTAINTY_ASSIGNED_CONTEXT ( ( #249 ) ) GLOBAL_UNIT_ASSIGNED_CONTEXT ( ( #92, #215, #51 ) ) REPRESENTATION_CONTEXT ( 'NONE', 'WORKASPACE' ) );
#53 = UNCERTAINTY_MEASURE_WITH_UNIT (LENGTH_MEASURE( 1.000000000000000082E-05 ), #134, 'distance_accuracy_value', 'NONE');
#54 = MECHANICAL_DESIGN_GEOMETRIC_PRESENTATION_REPRESENTATION (  '', ( #169 ), #61 ) ;
#55 = ORIENTED_EDGE ( 'NONE', *, *, #68, .T. ) ;
#56 = EDGE_CURVE ( 'NONE', #145, #4, #126, .T. ) ;
#57 =( NAMED_UNIT ( * ) SI_UNIT ( $, .STERADIAN. ) SOLID_ANGLE_UNIT ( ) );
#58 = EDGE_LOOP ( 'NONE', ( #190, #38, #32, #176 ) ) ;
#59 = DIRECTION ( 'NONE',  ( -1.000000000000000000, 0.000000000000000000, 0.000000000000000000 ) ) ;
#60 = DIRECTION ( 'NONE',  ( -1.243246835274233013E-16, 1.000000000000000000, -0.000000000000000000 ) ) ;
#61 =( GEOMETRIC_REPRESENTATION_CONTEXT ( 3 ) GLOBAL_UNCERTAINTY_ASSIGNED_CONTEXT ( ( #280 ) ) GLOBAL_UNIT_ASSIGNED_CONTEXT ( ( #173, #96, #205 ) ) REPRESENTATION_CONTEXT ( 'NONE', 'WORKASPACE' ) );
#62 = ORIENTED_EDGE ( 'NONE', *, *, #219, .F. ) ;
#63 = FACE_OUTER_BOUND ( 'NONE', #85, .T. ) ;
#64 = FILL_AREA_STYLE ('',( #276 ) ) ;
#65 = LINE ( 'NONE', #182, #161 ) ;
#66 = AXIS2_PLACEMENT_3D ( 'NONE', #140, #111, #22 ) ;
#67 = CARTESIAN_POINT ( 'NONE',  ( 0.09374999999999998612, 2.000000000000000000, 0.000000000000000000 ) ) ;
#68 = EDGE_CURVE ( 'NONE', #4, #221, #156, .T. ) ;
#69 = DIMENSIONAL_EXPONENTS ( 1.000000000000000000, 0.000000000000000000, 0.000000000000000000, 0.000000000000000000, 0.000000000000000000, 0.000000000000000000, 0.000000000000000000 ) ;
#70 = CARTESIAN_POINT ( 'NONE',  ( 3.706775251094787808E-36, 3.044164602602325182E-19, 0.000000000000000000 ) ) ;
#71 = DIRECTION ( 'NONE',  ( 0.000000000000000000, 0.000000000000000000, 1.000000000000000000 ) ) ;
#72 = CIRCLE ( 'NONE', #27, 0.02500000000000000139 ) ;
#73 = LENGTH_MEASURE_WITH_UNIT ( LENGTH_MEASURE( 0.02539999999999999897 ), #263 );
#74 = DIRECTION ( 'NONE',  ( -1.000000000000000000, 0.000000000000000000, 0.000000000000000000 ) ) ;
#75 = CARTESIAN_POINT ( 'NONE',  ( -0.02500000000000000139, 6.088329205204650364E-19, 0.000000000000000000 ) ) ;
#76 = SURFACE_STYLE_FILL_AREA ( #237 ) ;
#77 = STYLED_ITEM ( 'NONE', ( #6 ), #16 ) ;
#78 = VECTOR ( 'NONE', #227, 39.37007874015748143 ) ;
#79 = ADVANCED_FACE ( 'NONE', ( #13 ), #146, .T. ) ;
#80 = UNCERTAINTY_MEASURE_WITH_UNIT (LENGTH_MEASURE( 1.000000000000000082E-05 ), #203, 'distance_accuracy_value', 'NONE');
#81 = COLOUR_RGB ( '',1.000000000000000000, 0.000000000000000000, 0.000000000000000000 ) ;
#82 = CIRCLE ( 'NONE', #10, 0.09374999999999981959 ) ;
#83 = CYLINDRICAL_SURFACE ( 'NONE', #168, 0.09374999999999994449 ) ;
#84 = CARTESIAN_POINT ( 'NONE',  ( -6.123233995736772199E-17, 2.000000000000000000, 0.000000000000000000 ) ) ;
#85 = EDGE_LOOP ( 'NONE', ( #274, #118, #8, #30 ) ) ;
#86 = SURFACE_STYLE_FILL_AREA ( #100 ) ;
#87 = LENGTH_MEASURE_WITH_UNIT ( LENGTH_MEASURE( 0.02539999999999999897 ), #201 );
#88 =( NAMED_UNIT ( * ) SI_UNIT ( $, .STERADIAN. ) SOLID_ANGLE_UNIT ( ) );
#89 =( GEOMETRIC_REPRESENTATION_CONTEXT ( 3 ) GLOBAL_UNCERTAINTY_ASSIGNED_CONTEXT ( ( #53 ) ) GLOBAL_UNIT_ASSIGNED_CONTEXT ( ( #134, #309, #57 ) ) REPRESENTATION_CONTEXT ( 'NONE', 'WORKASPACE' ) );
#90 = SURFACE_STYLE_USAGE ( .BOTH. , #303 ) ;
#91 = CIRCLE ( 'NONE', #172, 0.09374999999999998612 ) ;
#92 =( CONVERSION_BASED_UNIT ( 'INCH', #73 ) LENGTH_UNIT ( ) NAMED_UNIT ( #128 ) );
#93 =( GEOMETRIC_REPRESENTATION_CONTEXT ( 3 ) GLOBAL_UNCERTAINTY_ASSIGNED_CONTEXT ( ( #110 ) ) GLOBAL_UNIT_ASSIGNED_CONTEXT ( ( #297, #11, #88 ) ) REPRESENTATION_CONTEXT ( 'NONE', 'WORKASPACE' ) );
#94 =( LENGTH_UNIT ( ) NAMED_UNIT ( * ) SI_UNIT ( $, .METRE. ) );
#95 = ORIENTED_EDGE ( 'NONE', *, *, #43, .F. ) ;
#96 =( NAMED_UNIT ( * ) PLANE_ANGLE_UNIT ( ) SI_UNIT ( $, .RADIAN. ) );
#97 = MECHANICAL_DESIGN_GEOMETRIC_PRESENTATION_REPRESENTATION (  '', ( #46 ), #243 ) ;
#98 = PLANE ( 'NONE',  #131 ) ;
#99 = SURFACE_STYLE_USAGE ( .BOTH. , #232 ) ;
#100 = FILL_AREA_STYLE ('',( #123 ) ) ;
#101 = COLOUR_RGB ( '',1.000000000000000000, 0.000000000000000000, 0.000000000000000000 ) ;
#102 = VERTEX_POINT ( 'NONE', #158 ) ;
#103 = FILL_AREA_STYLE_COLOUR ( '', #154 ) ;
#104 = CARTESIAN_POINT ( 'NONE',  ( 1.853387625547393904E-36, 1.522082301301162591E-19, 0.000000000000000000 ) ) ;
#105 = PRESENTATION_LAYER_ASSIGNMENT (  '', '', ( #77 ) ) ;
#106 = COLOUR_RGB ( '',0.7921568627450980005, 0.8196078431372548767, 0.9333333333333333481 ) ;
#107 = UNCERTAINTY_MEASURE_WITH_UNIT (LENGTH_MEASURE( 1.000000000000000082E-05 ), #255, 'distance_accuracy_value', 'NONE');
#108 = DIRECTION ( 'NONE',  ( -0.5000000000000009992, 0.8660254037844380415, 0.000000000000000000 ) ) ;
#109 = APPLICATION_CONTEXT ( 'automotive_design' ) ;
#110 = UNCERTAINTY_MEASURE_WITH_UNIT (LENGTH_MEASURE( 1.000000000000000082E-05 ), #297, 'distance_accuracy_value', 'NONE');
#111 = DIRECTION ( 'NONE',  ( -1.243246835274233013E-16, 1.000000000000000000, -0.000000000000000000 ) ) ;
#112 = CIRCLE ( 'NONE', #66, 0.09375000000000005551 ) ;
#113 = FILL_AREA_STYLE_COLOUR ( '', #106 ) ;
#114 = EDGE_CURVE ( 'NONE', #135, #221, #112, .T. ) ;
#115 =( NAMED_UNIT ( * ) PLANE_ANGLE_UNIT ( ) SI_UNIT ( $, .RADIAN. ) );
#116 = MANIFOLD_SOLID_BREP ( 'Revolve - Cutting Edge', #242 ) ;
#117 = ORIENTED_EDGE ( 'NONE', *, *, #189, .T. ) ;
#118 = ORIENTED_EDGE ( 'NONE', *, *, #33, .T. ) ;
#119 = CIRCLE ( 'NONE', #300, 0.02500000000000000139 ) ;
#120 = ORIENTED_EDGE ( 'NONE', *, *, #219, .T. ) ;
#121 = ORIENTED_EDGE ( 'NONE', *, *, #31, .F. ) ;
#122 = DIRECTION ( 'NONE',  ( 0.5000000000000009992, 0.8660254037844380415, 6.123233995736778362E-17 ) ) ;
#123 = FILL_AREA_STYLE_COLOUR ( '', #101 ) ;
#124 = EDGE_LOOP ( 'NONE', ( #290, #149 ) ) ;
#125 = CARTESIAN_POINT ( 'NONE',  ( 0.09374999999999987510, 2.000000000000000000, 1.148106374200642938E-17 ) ) ;
#126 = CIRCLE ( 'NONE', #296, 0.09374999999999981959 ) ;
#127 =( NAMED_UNIT ( * ) PLANE_ANGLE_UNIT ( ) SI_UNIT ( $, .RADIAN. ) );
#128 = DIMENSIONAL_EXPONENTS ( 1.000000000000000000, 0.000000000000000000, 0.000000000000000000, 0.000000000000000000, 0.000000000000000000, 0.000000000000000000, 0.000000000000000000 ) ;
#129 = PRODUCT_DEFINITION_CONTEXT ( 'detailed design', #288, 'design' ) ;
#130 = SURFACE_STYLE_FILL_AREA ( #157 ) ;
#131 = AXIS2_PLACEMENT_3D ( 'NONE', #104, #180, #278 ) ;
#132 = FILL_AREA_STYLE ('',( #45 ) ) ;
#133 = PRESENTATION_LAYER_ASSIGNMENT (  '', '', ( #169 ) ) ;
#134 =( CONVERSION_BASED_UNIT ( 'INCH', #306 ) LENGTH_UNIT ( ) NAMED_UNIT ( #69 ) );
#135 = VERTEX_POINT ( 'NONE', #184 ) ;
#136 = DIRECTION ( 'NONE',  ( -1.243246835274233013E-16, 1.000000000000000000, -0.000000000000000000 ) ) ;
#137 =( NAMED_UNIT ( * ) SI_UNIT ( $, .STERADIAN. ) SOLID_ANGLE_UNIT ( ) );
#138 = PRESENTATION_LAYER_ASSIGNMENT (  '', '', ( #277 ) ) ;
#139 = PRODUCT_DEFINITION_FORMATION_WITH_SPECIFIED_SOURCE ( 'ANY', '', #202, .NOT_KNOWN. ) ;
#140 = CARTESIAN_POINT ( 'NONE',  ( -6.123233995736772199E-17, 2.000000000000000000, 0.000000000000000000 ) ) ;
#141 = MECHANICAL_DESIGN_GEOMETRIC_PRESENTATION_REPRESENTATION (  '', ( #236 ), #52 ) ;
#142 = FACE_OUTER_BOUND ( 'NONE', #266, .T. ) ;
#143 = EDGE_LOOP ( 'NONE', ( #62, #194 ) ) ;
#144 = ADVANCED_FACE ( 'NONE', ( #48 ), #305, .T. ) ;
#145 = VERTEX_POINT ( 'NONE', #260 ) ;
#146 = CONICAL_SURFACE ( 'NONE', #308, 0.02500000000000000139, 0.5235987755983000369 ) ;
#147 = FILL_AREA_STYLE ('',( #195 ) ) ;
#148 = DIRECTION ( 'NONE',  ( -1.217665841040929996E-17, -1.000000000000000000, -0.000000000000000000 ) ) ;
#149 = ORIENTED_EDGE ( 'NONE', *, *, #56, .F. ) ;
#150 = DIRECTION ( 'NONE',  ( -1.000000000000000000, 0.000000000000000000, 0.000000000000000000 ) ) ;
#151 = SURFACE_STYLE_USAGE ( .BOTH. , #179 ) ;
#152 = PRESENTATION_STYLE_ASSIGNMENT (( #151 ) ) ;
#153 = CARTESIAN_POINT ( 'NONE',  ( -0.09375000000000012490, 2.000000000000000000, 0.000000000000000000 ) ) ;
#154 = COLOUR_RGB ( '',1.000000000000000000, 0.000000000000000000, 0.000000000000000000 ) ;
#155 = SURFACE_STYLE_FILL_AREA ( #64 ) ;
#156 = LINE ( 'NONE', #225, #78 ) ;
#157 = FILL_AREA_STYLE ('',( #103 ) ) ;
#158 = CARTESIAN_POINT ( 'NONE',  ( -0.09374999999999998612, 0.1190784930203599573, 0.000000000000000000 ) ) ;
#159 = APPLICATION_PROTOCOL_DEFINITION ( 'draft international standard', 'automotive_design', 1998, #288 ) ;
#160 = DIRECTION ( 'NONE',  ( 1.217665841040929996E-17, 1.000000000000000000, 0.000000000000000000 ) ) ;
#161 = VECTOR ( 'NONE', #122, 39.37007874015748143 ) ;
#162 = DIRECTION ( 'NONE',  ( -1.000000000000000000, 1.217665841040929996E-17, 0.000000000000000000 ) ) ;
#163 = CARTESIAN_POINT ( 'NONE',  ( 1.726126311378001192E-16, 0.1190784930203599573, 0.000000000000000000 ) ) ;
#164 = PRODUCT_CONTEXT ( 'NONE', #109, 'mechanical' ) ;
#165 = PRESENTATION_STYLE_ASSIGNMENT (( #99 ) ) ;
#166 = SURFACE_STYLE_USAGE ( .BOTH. , #256 ) ;
#167 = AXIS2_PLACEMENT_3D ( 'NONE', #177, #148, #209 ) ;
#168 = AXIS2_PLACEMENT_3D ( 'NONE', #84, #60, #59 ) ;
#169 = STYLED_ITEM ( 'NONE', ( #152 ), #204 ) ;
#170 = DIRECTION ( 'NONE',  ( 1.243246835274233013E-16, -1.000000000000000000, 0.000000000000000000 ) ) ;
#171 = DIRECTION ( 'NONE',  ( 1.000000000000000000, 1.243246835274233013E-16, 0.000000000000000000 ) ) ;
#172 = AXIS2_PLACEMENT_3D ( 'NONE', #248, #233, #21 ) ;
#173 =( CONVERSION_BASED_UNIT ( 'INCH', #289 ) LENGTH_UNIT ( ) NAMED_UNIT ( #302 ) );
#174 = AXIS2_PLACEMENT_3D ( 'NONE', #304, #136, #74 ) ;
#175 = ORIENTED_EDGE ( 'NONE', *, *, #56, .T. ) ;
#176 = ORIENTED_EDGE ( 'NONE', *, *, #183, .F. ) ;
#177 = CARTESIAN_POINT ( 'NONE',  ( 1.449978133535231439E-18, 0.1190784930203599573, 0.000000000000000000 ) ) ;
#178 = DIRECTION ( 'NONE',  ( -1.217665841040929996E-17, -1.000000000000000000, -0.000000000000000000 ) ) ;
#179 = SURFACE_SIDE_STYLE ('',( #86 ) ) ;
#180 = DIRECTION ( 'NONE',  ( -1.217665841040930150E-17, -1.000000000000000000, 0.000000000000000000 ) ) ;
#181 = CLOSED_SHELL ( 'NONE', ( #217, #188, #3, #264 ) ) ;
#182 = CARTESIAN_POINT ( 'NONE',  ( 0.02500000000000000139, 0.000000000000000000, 3.061616997868383172E-18 ) ) ;
#183 = EDGE_CURVE ( 'NONE', #35, #102, #186, .T. ) ;
#184 = CARTESIAN_POINT ( 'NONE',  ( 0.09374999999999998612, 2.000000000000000000, 1.148106374200643555E-17 ) ) ;
#185 = DIRECTION ( 'NONE',  ( -1.243246835274233013E-16, 1.000000000000000000, -0.000000000000000000 ) ) ;
#186 = LINE ( 'NONE', #75, #265 ) ;
#187 =( CONVERSION_BASED_UNIT ( 'INCH', #24 ) LENGTH_UNIT ( ) NAMED_UNIT ( #15 ) );
#188 = ADVANCED_FACE ( 'NONE', ( #210 ), #49, .F. ) ;
#189 = EDGE_CURVE ( 'NONE', #239, #35, #119, .T. ) ;
#190 = ORIENTED_EDGE ( 'NONE', *, *, #189, .F. ) ;
#191 = STYLED_ITEM ( 'NONE', ( #208 ), #23 ) ;
#192 = CIRCLE ( 'NONE', #167, 0.09374999999999998612 ) ;
#193 = PLANE ( 'NONE',  #47 ) ;
#194 = ORIENTED_EDGE ( 'NONE', *, *, #245, .F. ) ;
#195 = FILL_AREA_STYLE_COLOUR ( '', #206 ) ;
#196 = VERTEX_POINT ( 'NONE', #299 ) ;
#197 = LENGTH_MEASURE_WITH_UNIT ( LENGTH_MEASURE( 0.02539999999999999897 ), #226 );
#198 = CARTESIAN_POINT ( 'NONE',  ( 1.726126311378001685E-16, 0.1190784930203599296, 0.000000000000000000 ) ) ;
#199 = UNCERTAINTY_MEASURE_WITH_UNIT (LENGTH_MEASURE( 1.000000000000000082E-05 ), #187, 'distance_accuracy_value', 'NONE');
#200 =( NAMED_UNIT ( * ) SI_UNIT ( $, .STERADIAN. ) SOLID_ANGLE_UNIT ( ) );
#201 =( LENGTH_UNIT ( ) NAMED_UNIT ( * ) SI_UNIT ( $, .METRE. ) );
#202 = PRODUCT ( '83868', '83868', '', ( #164 ) ) ;
#203 =( CONVERSION_BASED_UNIT ( 'INCH', #87 ) LENGTH_UNIT ( ) NAMED_UNIT ( #258 ) );
#204 = ADVANCED_FACE ( 'NONE', ( #223 ), #235, .T. ) ;
#205 =( NAMED_UNIT ( * ) SI_UNIT ( $, .STERADIAN. ) SOLID_ANGLE_UNIT ( ) );
#206 = COLOUR_RGB ( '',1.000000000000000000, 0.000000000000000000, 0.000000000000000000 ) ;
#207 = COLOUR_RGB ( '',0.7921568627450980005, 0.8196078431372548767, 0.9333333333333333481 ) ;
#208 = PRESENTATION_STYLE_ASSIGNMENT (( #40 ) ) ;
#209 = DIRECTION ( 'NONE',  ( 1.000000000000000000, 0.000000000000000000, 0.000000000000000000 ) ) ;
#210 = FACE_OUTER_BOUND ( 'NONE', #124, .T. ) ;
#211 = DIMENSIONAL_EXPONENTS ( 1.000000000000000000, 0.000000000000000000, 0.000000000000000000, 0.000000000000000000, 0.000000000000000000, 0.000000000000000000, 0.000000000000000000 ) ;
#212 =( LENGTH_UNIT ( ) NAMED_UNIT ( * ) SI_UNIT ( $, .METRE. ) );
#213 = DIRECTION ( 'NONE',  ( -1.000000000000000000, -1.821231995776178930E-16, 0.000000000000000000 ) ) ;
#214 =( GEOMETRIC_REPRESENTATION_CONTEXT ( 3 ) GLOBAL_UNCERTAINTY_ASSIGNED_CONTEXT ( ( #80 ) ) GLOBAL_UNIT_ASSIGNED_CONTEXT ( ( #203, #127, #200 ) ) REPRESENTATION_CONTEXT ( 'NONE', 'WORKASPACE' ) );
#215 =( NAMED_UNIT ( * ) PLANE_ANGLE_UNIT ( ) SI_UNIT ( $, .RADIAN. ) );
#216 =( LENGTH_UNIT ( ) NAMED_UNIT ( * ) SI_UNIT ( $, .METRE. ) );
#217 = ADVANCED_FACE ( 'NONE', ( #63 ), #298, .T. ) ;
#218 = ADVANCED_BREP_SHAPE_REPRESENTATION ( '83868', ( #116, #23, #34 ), #273 ) ;
#219 = EDGE_CURVE ( 'NONE', #102, #196, #91, .T. ) ;
#220 = EDGE_LOOP ( 'NONE', ( #95, #121, #241, #120 ) ) ;
#221 = VERTEX_POINT ( 'NONE', #153 ) ;
#222 = MECHANICAL_DESIGN_GEOMETRIC_PRESENTATION_REPRESENTATION (  '', ( #277 ), #89 ) ;
#223 = FACE_OUTER_BOUND ( 'NONE', #143, .T. ) ;
#224 = SURFACE_STYLE_USAGE ( .BOTH. , #36 ) ;
#225 = CARTESIAN_POINT ( 'NONE',  ( -0.09375000000000001388, 2.000000000000000000, 0.000000000000000000 ) ) ;
#226 =( LENGTH_UNIT ( ) NAMED_UNIT ( * ) SI_UNIT ( $, .METRE. ) );
#227 = DIRECTION ( 'NONE',  ( -1.243246835274233013E-16, 1.000000000000000000, -0.000000000000000000 ) ) ;
#228 = AXIS2_PLACEMENT_3D ( 'NONE', #26, #253, #42 ) ;
#229 = CARTESIAN_POINT ( 'NONE',  ( -0.02500000000000000139, 6.088329205204650364E-19, 0.000000000000000000 ) ) ;
#230 = DIRECTION ( 'NONE',  ( -1.243246835274233013E-16, 1.000000000000000000, -0.000000000000000000 ) ) ;
#231 = CARTESIAN_POINT ( 'NONE',  ( 0.02500000000000000139, 0.000000000000000000, 7.271340369937407434E-18 ) ) ;
#232 = SURFACE_SIDE_STYLE ('',( #130 ) ) ;
#233 = DIRECTION ( 'NONE',  ( -1.217665841040929996E-17, -1.000000000000000000, -0.000000000000000000 ) ) ;
#234 = EDGE_LOOP ( 'NONE', ( #269, #240 ) ) ;
#235 = PLANE ( 'NONE',  #228 ) ;
#236 = STYLED_ITEM ( 'NONE', ( #285 ), #116 ) ;
#237 = FILL_AREA_STYLE ('',( #113 ) ) ;
#238 = PRESENTATION_LAYER_ASSIGNMENT (  '', '', ( #46 ) ) ;
#239 = VERTEX_POINT ( 'NONE', #231 ) ;
#240 = ORIENTED_EDGE ( 'NONE', *, *, #114, .T. ) ;
#241 = ORIENTED_EDGE ( 'NONE', *, *, #183, .T. ) ;
#242 = CLOSED_SHELL ( 'NONE', ( #144, #204, #79, #16 ) ) ;
#243 =( GEOMETRIC_REPRESENTATION_CONTEXT ( 3 ) GLOBAL_UNCERTAINTY_ASSIGNED_CONTEXT ( ( #199 ) ) GLOBAL_UNIT_ASSIGNED_CONTEXT ( ( #187, #29, #137 ) ) REPRESENTATION_CONTEXT ( 'NONE', 'WORKASPACE' ) );
#244 = SURFACE_STYLE_FILL_AREA ( #147 ) ;
#245 = EDGE_CURVE ( 'NONE', #196, #102, #192, .T. ) ;
#246 = CARTESIAN_POINT ( 'NONE',  ( -6.123233995736772199E-17, 2.000000000000000000, 0.000000000000000000 ) ) ;
#247 = DIRECTION ( 'NONE',  ( -1.000000000000000000, -1.243246835274233013E-16, 0.000000000000000000 ) ) ;
#248 = CARTESIAN_POINT ( 'NONE',  ( 1.449978133535231439E-18, 0.1190784930203599573, 0.000000000000000000 ) ) ;
#249 = UNCERTAINTY_MEASURE_WITH_UNIT (LENGTH_MEASURE( 1.000000000000000082E-05 ), #92, 'distance_accuracy_value', 'NONE');
#250 = PRESENTATION_LAYER_ASSIGNMENT (  '', '', ( #191 ) ) ;
#251 = SURFACE_SIDE_STYLE ('',( #155 ) ) ;
#252 = DIRECTION ( 'NONE',  ( 1.000000000000000000, -1.217665841040929996E-17, 0.000000000000000000 ) ) ;
#253 = DIRECTION ( 'NONE',  ( 1.217665841040930150E-17, 1.000000000000000000, 0.000000000000000000 ) ) ;
#254 = CARTESIAN_POINT ( 'NONE',  ( 3.706775251094787808E-36, 3.044164602602325182E-19, 0.000000000000000000 ) ) ;
#255 =( CONVERSION_BASED_UNIT ( 'INCH', #50 ) LENGTH_UNIT ( ) NAMED_UNIT ( #18 ) );
#256 = SURFACE_SIDE_STYLE ('',( #76 ) ) ;
#257 = PRODUCT_RELATED_PRODUCT_CATEGORY ( 'part', '', ( #202 ) ) ;
#258 = DIMENSIONAL_EXPONENTS ( 1.000000000000000000, 0.000000000000000000, 0.000000000000000000, 0.000000000000000000, 0.000000000000000000, 0.000000000000000000, 0.000000000000000000 ) ;
#259 =( LENGTH_UNIT ( ) NAMED_UNIT ( * ) SI_UNIT ( $, .METRE. ) );
#260 = CARTESIAN_POINT ( 'NONE',  ( 0.09374999999999998612, 0.1190784930203599434, 1.148106374200643555E-17 ) ) ;
#261 = SHAPE_DEFINITION_REPRESENTATION ( #301, #218 ) ;
#262 = PRESENTATION_STYLE_ASSIGNMENT (( #90 ) ) ;
#263 =( LENGTH_UNIT ( ) NAMED_UNIT ( * ) SI_UNIT ( $, .METRE. ) );
#264 = ADVANCED_FACE ( 'NONE', ( #5 ), #193, .F. ) ;
#265 = VECTOR ( 'NONE', #108, 39.37007874015748143 ) ;
#266 = EDGE_LOOP ( 'NONE', ( #268, #117 ) ) ;
#267 = AXIS2_PLACEMENT_3D ( 'NONE', #246, #230, #150 ) ;
#268 = ORIENTED_EDGE ( 'NONE', *, *, #31, .T. ) ;
#269 = ORIENTED_EDGE ( 'NONE', *, *, #307, .T. ) ;
#270 = CARTESIAN_POINT ( 'NONE',  ( 3.706775251094787808E-36, 3.044164602602325182E-19, 0.000000000000000000 ) ) ;
#271 = EDGE_CURVE ( 'NONE', #4, #145, #82, .T. ) ;
#272 = EDGE_LOOP ( 'NONE', ( #1, #175, #55, #293 ) ) ;
#273 =( GEOMETRIC_REPRESENTATION_CONTEXT ( 3 ) GLOBAL_UNCERTAINTY_ASSIGNED_CONTEXT ( ( #107 ) ) GLOBAL_UNIT_ASSIGNED_CONTEXT ( ( #255, #115, #44 ) ) REPRESENTATION_CONTEXT ( 'NONE', 'WORKASPACE' ) );
#274 = ORIENTED_EDGE ( 'NONE', *, *, #271, .T. ) ;
#275 = DIRECTION ( 'NONE',  ( 1.000000000000000000, -1.217665841040929996E-17, 0.000000000000000000 ) ) ;
#276 = FILL_AREA_STYLE_COLOUR ( '', #207 ) ;
#277 = STYLED_ITEM ( 'NONE', ( #262 ), #144 ) ;
#278 = DIRECTION ( 'NONE',  ( 1.000000000000000000, -1.217665841040930150E-17, 0.000000000000000000 ) ) ;
#279 = DIRECTION ( 'NONE',  ( -1.243246835274233013E-16, 1.000000000000000000, -0.000000000000000000 ) ) ;
#280 = UNCERTAINTY_MEASURE_WITH_UNIT (LENGTH_MEASURE( 1.000000000000000082E-05 ), #173, 'distance_accuracy_value', 'NONE');
#281 = DIRECTION ( 'NONE',  ( -1.000000000000000000, 1.217665841040929996E-17, 0.000000000000000000 ) ) ;
#282 = CARTESIAN_POINT ( 'NONE',  ( 0.000000000000000000, 0.000000000000000000, 0.000000000000000000 ) ) ;
#283 = MECHANICAL_DESIGN_GEOMETRIC_PRESENTATION_REPRESENTATION (  '', ( #191 ), #214 ) ;
#284 = AXIS2_PLACEMENT_3D ( 'NONE', #254, #20, #162 ) ;
#285 = PRESENTATION_STYLE_ASSIGNMENT (( #166 ) ) ;
#286 = APPLICATION_PROTOCOL_DEFINITION ( 'draft international standard', 'automotive_design', 1998, #109 ) ;
#287 = MECHANICAL_DESIGN_GEOMETRIC_PRESENTATION_REPRESENTATION (  '', ( #77 ), #93 ) ;
#288 = APPLICATION_CONTEXT ( 'automotive_design' ) ;
#289 = LENGTH_MEASURE_WITH_UNIT ( LENGTH_MEASURE( 0.02539999999999999897 ), #94 );
#290 = ORIENTED_EDGE ( 'NONE', *, *, #271, .F. ) ;
#291 = PRESENTATION_LAYER_ASSIGNMENT (  '', '', ( #236 ) ) ;
#292 = CARTESIAN_POINT ( 'NONE',  ( -0.09374999999999965306, 0.1190784930203599157, 0.000000000000000000 ) ) ;
#293 = ORIENTED_EDGE ( 'NONE', *, *, #114, .F. ) ;
#294 = LINE ( 'NONE', #125, #9 ) ;
#295 = CARTESIAN_POINT ( 'NONE',  ( 3.706775251094787808E-36, 3.044164602602325182E-19, 0.000000000000000000 ) ) ;
#296 = AXIS2_PLACEMENT_3D ( 'NONE', #12, #7, #41 ) ;
#297 =( CONVERSION_BASED_UNIT ( 'INCH', #197 ) LENGTH_UNIT ( ) NAMED_UNIT ( #211 ) );
#298 = CYLINDRICAL_SURFACE ( 'NONE', #267, 0.09374999999999994449 ) ;
#299 = CARTESIAN_POINT ( 'NONE',  ( 0.09374999999999998612, 0.1190784930203599573, 1.148106374200643401E-17 ) ) ;
#300 = AXIS2_PLACEMENT_3D ( 'NONE', #270, #37, #275 ) ;
#301 = PRODUCT_DEFINITION_SHAPE ( 'NONE', 'NONE',  #39 ) ;
#302 = DIMENSIONAL_EXPONENTS ( 1.000000000000000000, 0.000000000000000000, 0.000000000000000000, 0.000000000000000000, 0.000000000000000000, 0.000000000000000000, 0.000000000000000000 ) ;
#303 = SURFACE_SIDE_STYLE ('',( #19 ) ) ;
#304 = CARTESIAN_POINT ( 'NONE',  ( -6.123233995736772199E-17, 2.000000000000000000, 0.000000000000000000 ) ) ;
#305 = CONICAL_SURFACE ( 'NONE', #284, 0.02500000000000000139, 0.5235987755983000369 ) ;
#306 = LENGTH_MEASURE_WITH_UNIT ( LENGTH_MEASURE( 0.02539999999999999897 ), #259 );
#307 = EDGE_CURVE ( 'NONE', #221, #135, #28, .T. ) ;
#308 = AXIS2_PLACEMENT_3D ( 'NONE', #70, #160, #281 ) ;
#309 =( NAMED_UNIT ( * ) PLANE_ANGLE_UNIT ( ) SI_UNIT ( $, .RADIAN. ) );
ENDSEC;
END-ISO-10303-21;
